  0
SECTION
  2
HEADER
  9
$ACADVER
  1
AC1014
  9
$ACADMAINTVER
 70
     9
  9
$DWGCODEPAGE
  3
ANSI_1252
  9
$INSBASE
 10
1.563829647548775
 20
1.476515228021018
 30
0.0
  9
$EXTMIN
 10
-2.046305276826083
 20
0.7351792988419222
 30
0.0
  9
$EXTMAX
 10
5.173964571923633
 20
5.093219567001755
 30
0.0
  9
$LIMMIN
 10
0.0
 20
0.0
  9
$LIMMAX
 10
18.0
 20
12.0
  9
$ORTHOMODE
 70
     1
  9
$REGENMODE
 70
     1
  9
$FILLMODE
 70
     1
  9
$QTEXTMODE
 70
     0
  9
$MIRRTEXT
 70
     0
  9
$DRAGMODE
 70
     2
  9
$LTSCALE
 40
1.0
  9
$OSMODE
 70
    39
  9
$ATTMODE
 70
     1
  9
$TEXTSIZE
 40
0.125
  9
$TRACEWID
 40
0.05
  9
$TEXTSTYLE
  7
ROMANS
  9
$CLAYER
  8
0
  9
$CELTYPE
  6
BYLAYER
  9
$CECOLOR
 62
   256
  9
$CELTSCALE
 40
1.0
  9
$DELOBJ
 70
     1
  9
$DISPSILH
 70
     1
  9
$DIMSCALE
 40
1.0
  9
$DIMASZ
 40
0.125
  9
$DIMEXO
 40
0.125
  9
$DIMDLI
 40
0.375
  9
$DIMRND
 40
0.0
  9
$DIMDLE
 40
0.0
  9
$DIMEXE
 40
0.125
  9
$DIMTP
 40
0.0
  9
$DIMTM
 40
0.0
  9
$DIMTXT
 40
0.125
  9
$DIMCEN
 40
-0.125
  9
$DIMTSZ
 40
0.0
  9
$DIMTOL
 70
     0
  9
$DIMLIM
 70
     0
  9
$DIMTIH
 70
     1
  9
$DIMTOH
 70
     1
  9
$DIMSE1
 70
     0
  9
$DIMSE2
 70
     0
  9
$DIMTAD
 70
     0
  9
$DIMZIN
 70
     4
  9
$DIMBLK
  1

  9
$DIMASO
 70
     1
  9
$DIMSHO
 70
     1
  9
$DIMPOST
  1

  9
$DIMAPOST
  1

  9
$DIMALT
 70
     0
  9
$DIMALTD
 70
     2
  9
$DIMALTF
 40
25.4
  9
$DIMLFAC
 40
1.0
  9
$DIMTOFL
 70
     0
  9
$DIMTVP
 40
0.0
  9
$DIMTIX
 70
     1
  9
$DIMSOXD
 70
     0
  9
$DIMSAH
 70
     0
  9
$DIMBLK1
  1

  9
$DIMBLK2
  1

  9
$DIMSTYLE
  2
STANDARD
  9
$DIMCLRD
 70
     0
  9
$DIMCLRE
 70
     0
  9
$DIMCLRT
 70
     0
  9
$DIMTFAC
 40
1.0
  9
$DIMGAP
 40
0.09
  9
$DIMJUST
 70
     0
  9
$DIMSD1
 70
     0
  9
$DIMSD2
 70
     0
  9
$DIMTOLJ
 70
     1
  9
$DIMTZIN
 70
     4
  9
$DIMALTZ
 70
     0
  9
$DIMALTTZ
 70
     0
  9
$DIMFIT
 70
     3
  9
$DIMUPT
 70
     0
  9
$DIMUNIT
 70
     2
  9
$DIMDEC
 70
     3
  9
$DIMTDEC
 70
     3
  9
$DIMALTU
 70
     2
  9
$DIMALTTD
 70
     2
  9
$DIMTXSTY
  7
ROMANS
  9
$DIMAUNIT
 70
     0
  9
$LUNITS
 70
     2
  9
$LUPREC
 70
     3
  9
$SKETCHINC
 40
0.1
  9
$FILLETRAD
 40
0.03125
  9
$AUNITS
 70
     0
  9
$AUPREC
 70
     0
  9
$MENU
  1
ACAD
  9
$ELEVATION
 40
0.0
  9
$PELEVATION
 40
0.0
  9
$THICKNESS
 40
0.0
  9
$LIMCHECK
 70
     0
  9
$BLIPMODE
 70
     0
  9
$CHAMFERA
 40
0.0
  9
$CHAMFERB
 40
0.0
  9
$CHAMFERC
 40
0.0
  9
$CHAMFERD
 40
0.0
  9
$SKPOLY
 70
     0
  9
$TDCREATE
 40
2448994.458035995
  9
$TDUPDATE
 40
2452458.300984734
  9
$TDINDWG
 40
0.0007286574
  9
$TDUSRTIMER
 40
0.0007286574
  9
$USRTIMER
 70
     1
  9
$ANGBASE
 50
0.0
  9
$ANGDIR
 70
     0
  9
$PDMODE
 70
     0
  9
$PDSIZE
 40
0.0
  9
$PLINEWID
 40
0.0
  9
$COORDS
 70
     2
  9
$SPLFRAME
 70
     0
  9
$SPLINETYPE
 70
     6
  9
$SPLINESEGS
 70
     8
  9
$ATTDIA
 70
     0
  9
$ATTREQ
 70
     1
  9
$HANDLING
 70
 22529
  9
$HANDSEED
  5
7DE1B343D9DC12A
  9
$SURFTAB1
 70
     6
  9
$SURFTAB2
 70
     6
  9
$SURFTYPE
 70
     6
  9
$SURFU
 70
     6
  9
$SURFV
 70
     6
  9
$UCSNAME
  2

  9
$UCSORG
 10
0.0
 20
0.0
 30
0.0
  9
$UCSXDIR
 10
1.0
 20
0.0
 30
0.0
  9
$UCSYDIR
 10
0.0
 20
1.0
 30
0.0
  9
$PUCSNAME
  2

  9
$PUCSORG
 10
0.0
 20
0.0
 30
0.0
  9
$PUCSXDIR
 10
1.0
 20
0.0
 30
0.0
  9
$PUCSYDIR
 10
0.0
 20
1.0
 30
0.0
  9
$USERI1
 70
     0
  9
$USERI2
 70
     0
  9
$USERI3
 70
     0
  9
$USERI4
 70
     0
  9
$USERI5
 70
     0
  9
$USERR1
 40
0.0
  9
$USERR2
 40
0.0
  9
$USERR3
 40
0.0
  9
$USERR4
 40
0.0
  9
$USERR5
 40
0.0
  9
$WORLDVIEW
 70
     1
  9
$SHADEDGE
 70
     3
  9
$SHADEDIF
 70
    70
  9
$TILEMODE
 70
     1
  9
$MAXACTVP
 70
    16
  9
$PINSBASE
 10
1.798342914241999
 20
50.00000000000001
 30
1.088989422251194
  9
$PLIMCHECK
 70
     0
  9
$PEXTMIN
 10
1.000000000000000E+20
 20
1.000000000000000E+20
 30
1.000000000000000E+20
  9
$PEXTMAX
 10
-1.000000000000000E+20
 20
-1.000000000000000E+20
 30
-1.000000000000000E+20
  9
$PLIMMIN
 10
0.0
 20
0.0
  9
$PLIMMAX
 10
12.0
 20
9.0
  9
$UNITMODE
 70
     0
  9
$VISRETAIN
 70
     0
  9
$PLINEGEN
 70
     1
  9
$PSLTSCALE
 70
     0
  9
$TREEDEPTH
 70
  3020
  9
$PICKSTYLE
 70
     1
  9
$CMLSTYLE
  2
STANDARD
  9
$CMLJUST
 70
     0
  9
$CMLSCALE
 40
1.0
  9
$PROXYGRAPHICS
 70
     1
  9
$MEASUREMENT
 70
     0
  0
ENDSEC
  0
SECTION
  2
CLASSES
  0
CLASS
  1
LWPOLYLINE
  2
AcDbPolyline
  3
AutoCAD 2000
 90
        0
280
     0
281
     1
  0
CLASS
  1
ACDBDICTIONARYWDFLT
  2
AcDbDictionaryWithDefault
  3
AutoCAD 2000
 90
        0
280
     0
281
     0
  0
CLASS
  1
ACDBPLACEHOLDER
  2
AcDbPlaceHolder
  3
AutoCAD 2000
 90
        0
280
     0
281
     0
  0
CLASS
  1
LAYOUT
  2
AcDbLayout
  3
AutoCAD 2000
 90
        0
280
     0
281
     0
  0
CLASS
  1
DICTIONARYVAR
  2
AcDbDictionaryVar
  3
AutoCAD 2000
 90
        0
280
     0
281
     0
  0
CLASS
  1
LONG_TRANSACTION
  2
AcDbLongTransaction
  3
AutoCAD 2000
 90
        0
280
     0
281
     0
  0
CLASS
  1
LWPOLYLINE
  2
AcDbPolyline
  3
AutoCAD 2000
 90
        0
280
     0
281
     1
  0
CLASS
  1
HATCH
  2
AcDbHatch
  3
AutoCAD 2000
 90
        0
280
     0
281
     1
  0
CLASS
  1
XRECORD
  2
AcDbXrecord
  3
AutoCAD 2000
 90
        0
280
     0
281
     0
  0
ENDSEC
  0
SECTION
  2
TABLES
  0
TABLE
  2
VPORT
  5
7DE1B343D9DC0B6
330
0
100
AcDbSymbolTable
 70
     2
  0
VPORT
  5
7DE1B343D9DC105
330
7DE1B343D9DC0B6
100
AcDbSymbolTableRecord
100
AcDbViewportTableRecord
  2
*ACTIVE
 70
     0
 10
0.0
 20
0.0
 11
1.0
 21
1.0
 12
7.980287530818698
 22
2.914215112237975
 13
0.0
 23
0.0
 14
0.015625
 24
0.015625
 15
0.0
 25
0.0
 16
0.0
 26
0.0
 36
1.0
 17
0.0
 27
0.0
 37
0.0
 40
4.920837065910088
 41
4.320930232558139
 42
50.0
 43
0.0
 44
0.0
 50
0.0
 51
0.0
 71
     0
 72
  2000
 73
     1
 74
     0
 75
     0
 76
     0
 77
     0
 78
     0
  0
ENDTAB
  0
TABLE
  2
LTYPE
  5
7DE1B343D9DC0B3
330
0
100
AcDbSymbolTable
 70
     1
  0
LTYPE
  5
7DE1B343D9DC0C0
330
7DE1B343D9DC0B3
100
AcDbSymbolTableRecord
100
AcDbLinetypeTableRecord
  2
BYBLOCK
 70
     0
  3

 72
    65
 73
     0
 40
0.0
  0
LTYPE
  5
7DE1B343D9DC0C1
330
7DE1B343D9DC0B3
100
AcDbSymbolTableRecord
100
AcDbLinetypeTableRecord
  2
BYLAYER
 70
     0
  3

 72
    65
 73
     0
 40
0.0
  0
LTYPE
  5
7DE1B343D9DC0C2
330
7DE1B343D9DC0B3
100
AcDbSymbolTableRecord
100
AcDbLinetypeTableRecord
  2
CONTINUOUS
 70
     0
  3
Solid line
 72
    65
 73
     0
 40
0.0
  0
ENDTAB
  0
TABLE
  2
LAYER
  5
7DE1B343D9DC0B0
330
0
100
AcDbSymbolTable
 70
     3
  0
LAYER
  5
7DE1B343D9DC0BD
330
7DE1B343D9DC0B0
100
AcDbSymbolTableRecord
100
AcDbLayerTableRecord
  2
0
 70
     0
 62
     7
  6
CONTINUOUS
  0
LAYER
  5
7DE1B343D9DC0CD
330
7DE1B343D9DC0B0
100
AcDbSymbolTableRecord
100
AcDbLayerTableRecord
  2
TEXT
 70
     0
 62
     3
  6
CONTINUOUS
  0
LAYER
  5
7DE1B343D9DC0DD
330
7DE1B343D9DC0B0
100
AcDbSymbolTableRecord
100
AcDbLayerTableRecord
  2
ASHADE
 70
     4
 62
     7
  6
CONTINUOUS
  0
ENDTAB
  0
TABLE
  2
STYLE
  5
7DE1B343D9DC0B1
330
0
100
AcDbSymbolTable
 70
     4
  0
STYLE
  5
7DE1B343D9DC0BE
330
7DE1B343D9DC0B1
100
AcDbSymbolTableRecord
100
AcDbTextStyleTableRecord
  2
STANDARD
 70
     0
 40
0.0
 41
1.0
 50
0.0
 71
     0
 42
0.3125
  3
txt
  4

  0
STYLE
  5
7DE1B343D9DC0CA
330
7DE1B343D9DC0B1
100
AcDbSymbolTableRecord
100
AcDbTextStyleTableRecord
  2
ITALICC
 70
     0
 40
0.0
 41
1.0
 50
0.0
 71
     0
 42
0.125
  3
italicc
  4

  0
STYLE
  5
7DE1B343D9DC0DA
330
7DE1B343D9DC0B1
100
AcDbSymbolTableRecord
100
AcDbTextStyleTableRecord
  2
ASHADE
 70
     0
 40
0.2
 41
1.0
 50
0.0
 71
     0
 42
0.3125
  3
simplex
  4

  0
STYLE
  5
7DE1B343D9DC0F5
330
7DE1B343D9DC0B1
100
AcDbSymbolTableRecord
100
AcDbTextStyleTableRecord
  2
ROMANS
 70
     0
 40
0.0
 41
1.0
 50
0.0
 71
     0
 42
0.125
  3
romans.shx
  4

  0
ENDTAB
  0
TABLE
  2
VIEW
  5
7DE1B343D9DC0B4
330
0
100
AcDbSymbolTable
 70
     0
  0
ENDTAB
  0
TABLE
  2
UCS
  5
7DE1B343D9DC0B5
330
0
100
AcDbSymbolTable
 70
     0
  0
ENDTAB
  0
TABLE
  2
APPID
  5
7DE1B343D9DC0B7
330
0
100
AcDbSymbolTable
 70
     6
  0
APPID
  5
7DE1B343D9DC0BF
330
7DE1B343D9DC0B7
100
AcDbSymbolTableRecord
100
AcDbRegAppTableRecord
  2
ACAD
 70
     0
  0
APPID
  5
7DE1B343D9DC0DB
330
7DE1B343D9DC0B7
100
AcDbSymbolTableRecord
100
AcDbRegAppTableRecord
  2
AVE_RENDER
 70
     0
  0
APPID
  5
7DE1B343D9DC0DC
330
7DE1B343D9DC0B7
100
AcDbSymbolTableRecord
100
AcDbRegAppTableRecord
  2
AVE_ENTITY_MATERIAL
 70
     0
  0
APPID
  5
7DE1B343D9DC0E9
330
7DE1B343D9DC0B7
100
AcDbSymbolTableRecord
100
AcDbRegAppTableRecord
  2
AVE_FINISH
 70
     0
  0
APPID
  5
7DE1B343D9DC0EA
330
7DE1B343D9DC0B7
100
AcDbSymbolTableRecord
100
AcDbRegAppTableRecord
  2
AVE_MATERIAL
 70
     0
  0
APPID
  5
7DE1B343D9DC0EB
330
7DE1B343D9DC0B7
100
AcDbSymbolTableRecord
100
AcDbRegAppTableRecord
  2
AVE_GLOBAL
 70
     0
  0
ENDTAB
  0
TABLE
  2
DIMSTYLE
  5
7DE1B343D9DC0B8
330
0
100
AcDbSymbolTable
 70
     1
  0
DIMSTYLE
105
7DE1B343D9DC0D2
330
7DE1B343D9DC0B8
100
AcDbSymbolTableRecord
100
AcDbDimStyleTableRecord
  2
STANDARD
 70
     0
  3

  4

  5

  6

  7

 40
1.0
 41
0.125
 42
0.125
 43
0.375
 44
0.125
 45
0.0
 46
0.0
 47
0.0
 48
0.0
140
0.125
141
-0.125
142
0.0
143
25.4
144
1.0
145
0.0
146
1.0
147
0.09
 71
     0
 72
     0
 73
     1
 74
     1
 75
     0
 76
     0
 77
     0
 78
     4
170
     0
171
     2
172
     0
173
     0
174
     1
175
     0
176
     0
177
     0
178
     0
270
     2
271
     3
272
     3
273
     2
274
     2
340
7DE1B343D9DC0F5
275
     0
280
     0
281
     0
282
     0
283
     1
284
     4
285
     0
286
     0
287
     3
288
     0
  0
ENDTAB
  0
TABLE
  2
BLOCK_RECORD
  5
7DE1B343D9DC0AF
330
0
100
AcDbSymbolTable
 70
     2
  0
BLOCK_RECORD
  5
7DE1B343D9DC0C6
102
{ACAD_XDICTIONARY
360
7DE1B343D9DC128
102
}
330
7DE1B343D9DC0AF
100
AcDbSymbolTableRecord
100
AcDbBlockTableRecord
  2
*MODEL_SPACE
  0
BLOCK_RECORD
  5
7DE1B343D9DC0C3
102
{ACAD_XDICTIONARY
360
7DE1B343D9DC126
102
}
330
7DE1B343D9DC0AF
100
AcDbSymbolTableRecord
100
AcDbBlockTableRecord
  2
*PAPER_SPACE
  0
BLOCK_RECORD
  5
7DE1B343D9DC0DE
330
7DE1B343D9DC0AF
100
AcDbSymbolTableRecord
100
AcDbBlockTableRecord
  2
AVE_RENDER
  0
BLOCK_RECORD
  5
7DE1B343D9DC0EC
330
7DE1B343D9DC0AF
100
AcDbSymbolTableRecord
100
AcDbBlockTableRecord
  2
AVE_GLOBAL
  0
ENDTAB
  0
ENDSEC
  0
SECTION
  2
BLOCKS
  0
BLOCK
  5
7DE1B343D9DC0D0
330
7DE1B343D9DC0C6
100
AcDbEntity
  8
0
100
AcDbBlockBegin
  2
*MODEL_SPACE
 70
     0
 10
0.0
 20
0.0
 30
0.0
  3
*MODEL_SPACE
  1

  0
ENDBLK
  5
7DE1B343D9DC0D1
330
7DE1B343D9DC0C6
100
AcDbEntity
  8
0
100
AcDbBlockEnd
  0
BLOCK
  5
7DE1B343D9DC0CE
330
7DE1B343D9DC0C3
100
AcDbEntity
 67
     1
  8
0
100
AcDbBlockBegin
  2
*PAPER_SPACE
 70
     0
 10
0.0
 20
0.0
 30
0.0
  3
*PAPER_SPACE
  1

  0
ENDBLK
  5
7DE1B343D9DC0CF
330
7DE1B343D9DC0C3
100
AcDbEntity
 67
     1
  8
0
100
AcDbBlockEnd
  0
BLOCK
  5
7DE1B343D9DC0DF
330
7DE1B343D9DC0DE
100
AcDbEntity
  8
0
100
AcDbBlockBegin
  2
AVE_RENDER
 70
     0
 10
0.0
 20
0.0
 30
0.0
  3
AVE_RENDER
  1
AVE_RENDER
  0
ENDBLK
  5
7DE1B343D9DC0E0
330
7DE1B343D9DC0DE
100
AcDbEntity
  8
0
100
AcDbBlockEnd
  0
BLOCK
  5
7DE1B343D9DC0ED
330
7DE1B343D9DC0EC
100
AcDbEntity
  8
0
100
AcDbBlockBegin
  2
AVE_GLOBAL
 70
     0
 10
0.0
 20
0.0
 30
0.0
  3
AVE_GLOBAL
  1
AVE_GLOBAL
  0
ENDBLK
  5
7DE1B343D9DC0EE
330
7DE1B343D9DC0EC
100
AcDbEntity
  8
0
100
AcDbBlockEnd
  0
ENDSEC
  0
SECTION
  2
ENTITIES
  0
LWPOLYLINE
  5
7DE1B343D9DAB27
330
7DE1B343D9DC0C6
100
AcDbEntity
  8
0
100
AcDbPolyline
 90
       17
 70
     0
 43
0.0
 10
-1.436006903748561
 20
1.507766208993815
 42
1.0
 10
-1.373506903748561
 20
1.507766208993815
 10
-1.373506903748561
 20
1.538515228021019
 10
-0.7398520840716991
 20
1.538515228021019
 42
0.267949192431125
 10
-0.7130052965543814
 20
1.554015228021019
 10
-0.6861585090370646
 20
1.600515228021019
 10
-1.362636451342486
 20
1.60051522802102
 42
-0.399884564816748
 10
1.563829647548775
 20
4.38651522802102
 42
-0.3998845648167481
 10
4.490295746440037
 20
1.600515228021019
 10
3.813817804134614
 20
1.600515228021019
 10
3.840664591651931
 20
1.55401522802102
 42
0.2679491924311262
 10
3.867511379169249
 20
1.538515228021019
 10
4.501166114290949
 20
1.538515228021019
 10
4.501166114290949
 20
1.507838906027082
 42
1.0
 10
4.563666114290949
 20
1.507838906027082
 42
0.4111586386910459
 10
1.563829647548775
 20
4.476515228021019
 42
0.4111586386910459
 10
-1.436006819193399
 20
1.507838906027082
 42
0.4111586386910459
  0
TEXT
  5
7DE1B343D9DBF71
330
7DE1B343D9DC0C6
100
AcDbEntity
  8
TEXT
100
AcDbText
 10
0.8108534570725856
 20
1.193197902924503
 30
0.0
 40
0.125
  1
PART #110212
  7
ITALICC
 72
     1
 11
1.563829647548775
 21
1.193197902924503
 31
0.0
100
AcDbText
  0
TEXT
  5
7DE1B343D9DBF72
330
7DE1B343D9DC0C6
100
AcDbEntity
  8
TEXT
100
AcDbText
 10
1.977134805799096
 20
0.7462752602521286
 30
0.0
 40
0.0522247191011236
  1
Phone  1-800-328-2495
 41
1.272321428571429
 72
     5
 11
3.30606739006876
 21
0.7462752602521286
 31
0.0
100
AcDbText
  0
TEXT
  5
7DE1B343D9DBF73
330
7DE1B343D9DC0C6
100
AcDbEntity
  8
TEXT
100
AcDbText
 10
1.977134805799096
 20
1.026050541151005
 30
0.0
 40
0.0522247191011236
  1
Stylmark  Incorporated
 41
1.221428571428572
 72
     5
 11
3.30606739006876
 21
1.026050541151005
 31
0.0
100
AcDbText
  0
TEXT
  5
7DE1B343D9DBF74
330
7DE1B343D9DC0C6
100
AcDbEntity
  8
TEXT
100
AcDbText
 10
1.977134805799096
 20
0.9327921141847127
 30
0.0
 40
0.0522247191011236
  1
6536 Main St. N.E. * P.O. Box 32008
 41
0.8388932496075364
 72
     5
 11
3.30606739006876
 21
0.9327921141847127
 31
0.0
100
AcDbText
  0
TEXT
  5
7DE1B343D9DBF75
330
7DE1B343D9DC0C6
100
AcDbEntity
  8
TEXT
100
AcDbText
 10
1.977134805799096
 20
0.8395336872184206
 30
0.0
 40
0.0522247191011236
  1
Minneapolis, MN 55432-0008
 41
1.11444212721585
 72
     5
 11
3.30606739006876
 21
0.8395336872184206
 31
0.0
100
AcDbText
  0
LWPOLYLINE
  5
7DE1B343D9DBF76
330
7DE1B343D9DC0C6
100
AcDbEntity
  8
TEXT
100
AcDbPolyline
 90
        3
 70
     0
 43
0.0006660908203125
 10
-0.1788188862682112
 20
0.8599200228895632
 10
-0.1788188862682112
 20
0.7466845834364358
 10
-0.0655834468150889
 20
0.7466845834364358
  0
LWPOLYLINE
  5
7DE1B343D9DBF7B
330
7DE1B343D9DC0C6
100
AcDbEntity
  8
TEXT
100
AcDbPolyline
 90
        3
 70
     0
 43
0.0006660908203125
 10
-0.1521752534557137
 20
0.8599200228895632
 10
-0.1521752534557137
 20
0.7733282162489368
 10
-0.0655834468150889
 20
0.7733282162489368
  0
LWPOLYLINE
  5
7DE1B343D9DBF80
330
7DE1B343D9DC0C6
100
AcDbEntity
  8
TEXT
100
AcDbPolyline
 90
        2
 70
     0
 43
0.0001332181640625
 10
-0.1055488960338369
 20
0.8699113851942485
 10
-0.1788188862682112
 20
0.8599200228895632
  0
LWPOLYLINE
  5
7DE1B343D9DBF84
330
7DE1B343D9DC0C6
100
AcDbEntity
  8
TEXT
100
AcDbPolyline
 90
        2
 70
     0
 43
0.0001332181640625
 10
-0.1521752534557137
 20
0.8599200228895632
 10
-0.0922270796275864
 20
0.8699113851942485
  0
LWPOLYLINE
  5
7DE1B343D9DBF88
330
7DE1B343D9DC0C6
100
AcDbEntity
  8
TEXT
100
AcDbPolyline
 90
        2
 70
     0
 43
0.0001332181640625
 10
-0.1521752534557137
 20
0.7733282162489368
 10
-0.0922270796275864
 20
0.8332763900770622
  0
LWPOLYLINE
  5
7DE1B343D9DBF8C
330
7DE1B343D9DC0C6
100
AcDbEntity
  8
TEXT
100
AcDbPolyline
 90
        3
 70
     0
 43
0.0006660908203125
 10
-0.0655834468150889
 20
1.013120911561439
 10
-0.1788188862682112
 20
1.013120911561439
 10
-0.1788188862682112
 20
0.8998854721083112
  0
LWPOLYLINE
  5
7DE1B343D9DBF91
330
7DE1B343D9DC0C6
100
AcDbEntity
  8
TEXT
100
AcDbPolyline
 90
        3
 70
     0
 43
0.0006660908203125
 10
-0.0655834468150889
 20
0.9864772787489378
 10
-0.1521752534557137
 20
0.9864772787489378
 10
-0.1521752534557137
 20
0.8998854721083112
  0
LWPOLYLINE
  5
7DE1B343D9DBF96
330
7DE1B343D9DC0C6
100
AcDbEntity
  8
TEXT
100
AcDbPolyline
 90
        2
 70
     0
 43
0.0001332181640625
 10
-0.1521752534557137
 20
0.9864772787489378
 10
-0.0922270796275882
 20
0.9265291049208123
  0
LWPOLYLINE
  5
7DE1B343D9DBF9A
330
7DE1B343D9DC0C6
100
AcDbEntity
  8
TEXT
100
AcDbPolyline
 90
        2
 70
     0
 43
0.0001332181640625
 10
-0.1521752534557137
 20
0.8998854721083112
 10
-0.0922270796275882
 20
0.8898941098036225
  0
LWPOLYLINE
  5
7DE1B343D9DBF9E
330
7DE1B343D9DC0C6
100
AcDbEntity
  8
TEXT
100
AcDbPolyline
 90
        2
 70
     0
 43
0.0001332181640625
 10
-0.1788188862682112
 20
0.8998854721083112
 10
-0.1055488960338369
 20
0.8898941098036225
  0
LWPOLYLINE
  5
7DE1B343D9DBFA2
330
7DE1B343D9DC0C6
100
AcDbEntity
  8
TEXT
100
AcDbPolyline
 90
        2
 70
     0
 43
0.0006660908203125
 10
-0.1521752534557137
 20
0.8599200228895632
 10
-0.1788188862682112
 20
0.8599200228895632
  0
LWPOLYLINE
  5
7DE1B343D9DBFA6
330
7DE1B343D9DC0C6
100
AcDbEntity
  8
TEXT
100
AcDbPolyline
 90
        2
 70
     0
 43
0.0006660908203125
 10
-0.1521752534557137
 20
0.8998854721083112
 10
-0.1788188862682112
 20
0.8998854721083112
  0
LINE
  5
7DE1B343D9DBFAA
330
7DE1B343D9DC0C6
100
AcDbEntity
  8
TEXT
100
AcDbLine
 10
1.336371542858286
 20
0.9488442169046699
 30
0.0
 11
1.229165269470996
 21
0.9488442169046699
 31
0.0
  0
LINE
  5
7DE1B343D9DBFAB
330
7DE1B343D9DC0C6
100
AcDbEntity
  8
TEXT
100
AcDbLine
 10
1.365402441202764
 20
1.013120911561435
 30
0.0
 11
1.230570531985705
 21
1.013120911561435
 31
0.0
  0
ARC
  5
7DE1B343D9DBFAC
330
7DE1B343D9DC0C6
100
AcDbEntity
  8
TEXT
100
AcDbCircle
 10
1.289884628379022
 20
0.843883662298419
 30
0.0
 40
0.0676855811441166
100
AcDbArc
 50
90.0
 51
153.7768192527749
  0
LWPOLYLINE
  5
7DE1B343D9DBFAD
330
7DE1B343D9DC0C6
100
AcDbEntity
  8
TEXT
100
AcDbPolyline
 90
        2
 70
     0
 43
0.0
 10
1.228132774016186
 20
0.7901388235233627
 42
0.2901071551932823
 10
1.271208706883822
 20
0.7466478785729245
 42
5.328517124445801
  0
ARC
  5
7DE1B343D9DBFB1
330
7DE1B343D9DC0C6
100
AcDbEntity
  8
TEXT
100
AcDbCircle
 10
0.5847532507075368
 20
0.8064402699109741
 30
0.0
 40
0.0601160179737537
100
AcDbArc
 50
180.0000000000003
 51
264.0521544866073
  0
LINE
  5
7DE1B343D9DBFB2
330
7DE1B343D9DC0C6
100
AcDbEntity
  8
TEXT
100
AcDbLine
 10
0.5882686063330846
 20
1.047508829155573
 30
0.0
 11
0.5282260014890776
 21
1.047508829155573
 31
0.0
  0
ARC
  5
7DE1B343D9DBFB3
330
7DE1B343D9DC0C6
100
AcDbEntity
  8
TEXT
100
AcDbCircle
 10
0.3524942485905662
 20
0.9310334521149336
 30
0.0
 40
0.0820874594465043
100
AcDbArc
 50
90.0
 51
270.0
  0
LWPOLYLINE
  5
7DE1B343D9DBFB4
330
7DE1B343D9DC0C6
100
AcDbEntity
  8
TEXT
100
AcDbPolyline
 90
        2
 70
     0
 43
0.0001332181640625
 10
-0.0555920845103983
 20
0.9398509213270592
 10
-0.0655834468150889
 20
1.013120911561439
  0
LWPOLYLINE
  5
7DE1B343D9DBFB8
330
7DE1B343D9DC0C6
100
AcDbEntity
  8
TEXT
100
AcDbPolyline
 90
        2
 70
     0
 43
0.0001332181640625
 10
-0.0655834468150889
 20
0.9864772787489378
 10
-0.0555920845103983
 20
0.9265291049208123
  0
LWPOLYLINE
  5
7DE1B343D9DBFBC
330
7DE1B343D9DC0C6
100
AcDbEntity
  8
TEXT
100
AcDbPolyline
 90
        3
 70
     0
 43
0.0006660908203125
 10
0.0876174418567886
 20
0.8998854721083112
 10
0.0876174418567886
 20
1.013120911561439
 10
-0.0256179975963373
 20
1.013120911561439
  0
LWPOLYLINE
  5
7DE1B343D9DBFC1
330
7DE1B343D9DC0C6
100
AcDbEntity
  8
TEXT
100
AcDbPolyline
 90
        3
 70
     0
 43
0.0006660908203125
 10
0.0609738090442875
 20
0.8998854721083112
 10
0.0609738090442875
 20
0.9864772787489378
 10
-0.0256179975963373
 20
0.9864772787489378
  0
LWPOLYLINE
  5
7DE1B343D9DBFC6
330
7DE1B343D9DC0C6
100
AcDbEntity
  8
TEXT
100
AcDbPolyline
 90
        2
 70
     0
 43
0.0001332181640625
 10
0.0609738090442875
 20
0.9864772787489378
 10
0.0010256352161637
 20
0.9265291049208123
  0
LWPOLYLINE
  5
7DE1B343D9DBFCA
330
7DE1B343D9DC0C6
100
AcDbEntity
  8
TEXT
100
AcDbPolyline
 90
        2
 70
     0
 43
0.0001332181640625
 10
-0.0256179975963373
 20
0.9864772787489378
 10
-0.0356093599010261
 20
0.9265291049208123
  0
LWPOLYLINE
  5
7DE1B343D9DBFCE
330
7DE1B343D9DC0C6
100
AcDbEntity
  8
TEXT
100
AcDbPolyline
 90
        2
 70
     0
 43
0.0001332181640625
 10
-0.0256179975963373
 20
1.013120911561439
 10
-0.0356093599010261
 20
0.9398509213270592
  0
LWPOLYLINE
  5
7DE1B343D9DBFD2
330
7DE1B343D9DC0C6
100
AcDbEntity
  8
TEXT
100
AcDbPolyline
 90
        2
 70
     0
 43
0.0001332181640625
 10
0.0143474516224125
 20
0.8898941098036225
 10
0.0876174418567886
 20
0.8998854721083112
  0
LWPOLYLINE
  5
7DE1B343D9DBFD6
330
7DE1B343D9DC0C6
100
AcDbEntity
  8
TEXT
100
AcDbPolyline
 90
        2
 70
     0
 43
0.0001332181640625
 10
0.0609738090442875
 20
0.8998854721083112
 10
0.0010256352161637
 20
0.8898941098036225
  0
LWPOLYLINE
  5
7DE1B343D9DBFDA
330
7DE1B343D9DC0C6
100
AcDbEntity
  8
TEXT
100
AcDbPolyline
 90
        2
 70
     0
 43
0.0001332181640625
 10
0.0876174418567886
 20
0.8599200228895632
 10
0.0143474516224125
 20
0.8699113851942485
  0
LWPOLYLINE
  5
7DE1B343D9DBFDE
330
7DE1B343D9DC0C6
100
AcDbEntity
  8
TEXT
100
AcDbPolyline
 90
        2
 70
     0
 43
0.0001332181640625
 10
0.0609738090442875
 20
0.8599200228895632
 10
0.0010256352161637
 20
0.8699113851942485
  0
LWPOLYLINE
  5
7DE1B343D9DBFE2
330
7DE1B343D9DC0C6
100
AcDbEntity
  8
TEXT
100
AcDbPolyline
 90
        2
 70
     0
 43
0.0001332181640625
 10
0.0609738090442875
 20
0.7733282162489368
 10
0.0010256352161637
 20
0.8332763900770622
  0
LWPOLYLINE
  5
7DE1B343D9DBFE6
330
7DE1B343D9DC0C6
100
AcDbEntity
  8
TEXT
100
AcDbPolyline
 90
        3
 70
     0
 43
0.0006660908203125
 10
-0.0256179975963373
 20
0.7733282162489368
 10
0.0609738090442875
 20
0.7733282162489368
 10
0.0609738090442875
 20
0.8599200228895632
  0
LWPOLYLINE
  5
7DE1B343D9DBFEB
330
7DE1B343D9DC0C6
100
AcDbEntity
  8
TEXT
100
AcDbPolyline
 90
        3
 70
     0
 43
0.0006660908203125
 10
-0.0256179975963373
 20
0.7466845834364358
 10
0.0876174418567886
 20
0.7466845834364358
 10
0.0876174418567886
 20
0.8599200228895632
  0
LWPOLYLINE
  5
7DE1B343D9DBFF0
330
7DE1B343D9DC0C6
100
AcDbEntity
  8
TEXT
100
AcDbPolyline
 90
        5
 70
     0
 43
0.0001332181640625
 10
-0.0555920845103983
 20
0.8199545736708117
 10
-0.0555920845103983
 20
0.8332763900770622
 10
-0.0922270796275864
 20
0.8332763900770622
 10
-0.0922270796275864
 20
0.8699113851942485
 10
-0.1055488960338369
 20
0.8699113851942485
  0
LWPOLYLINE
  5
7DE1B343D9DBFF7
330
7DE1B343D9DC0C6
100
AcDbEntity
  8
TEXT
100
AcDbPolyline
 90
        2
 70
     0
 43
0.0006660908203125
 10
-0.0655834468150889
 20
0.7733282162489368
 10
-0.0655834468150889
 20
0.7466845834364358
  0
LWPOLYLINE
  5
7DE1B343D9DBFFB
330
7DE1B343D9DC0C6
100
AcDbEntity
  8
TEXT
100
AcDbPolyline
 90
        2
 70
     0
 43
0.0001332181640625
 10
-0.0655834468150889
 20
0.7733282162489368
 10
-0.0555920845103983
 20
0.8332763900770622
  0
LWPOLYLINE
  5
7DE1B343D9DBFFF
330
7DE1B343D9DC0C6
100
AcDbEntity
  8
TEXT
100
AcDbPolyline
 90
        2
 70
     0
 43
0.0001332181640625
 10
-0.0655834468150889
 20
0.7466845834364358
 10
-0.0555920845103983
 20
0.8199545736708117
  0
LWPOLYLINE
  5
7DE1B343D9DC003
330
7DE1B343D9DC0C6
100
AcDbEntity
  8
TEXT
100
AcDbPolyline
 90
        5
 70
     0
 43
0.0001332181640625
 10
-0.1055488960338369
 20
0.8898941098036225
 10
-0.0922270796275882
 20
0.8898941098036225
 10
-0.0922270796275882
 20
0.9265291049208123
 10
-0.0555920845103983
 20
0.9265291049208123
 10
-0.0555920845103983
 20
0.9398509213270592
  0
LWPOLYLINE
  5
7DE1B343D9DC00A
330
7DE1B343D9DC0C6
100
AcDbEntity
  8
TEXT
100
AcDbPolyline
 90
        5
 70
     0
 43
0.0001332181640625
 10
-0.0356093599010261
 20
0.9398509213270592
 10
-0.0356093599010261
 20
0.9265291049208123
 10
0.0010256352161637
 20
0.9265291049208123
 10
0.0010256352161637
 20
0.8898941098036225
 10
0.0143474516224125
 20
0.8898941098036225
  0
LWPOLYLINE
  5
7DE1B343D9DC011
330
7DE1B343D9DC0C6
100
AcDbEntity
  8
TEXT
100
AcDbPolyline
 90
        2
 70
     0
 43
0.0001332181640625
 10
-0.0256179975963373
 20
0.7733282162489368
 10
-0.0356093599010261
 20
0.8332763900770622
  0
LWPOLYLINE
  5
7DE1B343D9DC015
330
7DE1B343D9DC0C6
100
AcDbEntity
  8
TEXT
100
AcDbPolyline
 90
        2
 70
     0
 43
0.0001332181640625
 10
-0.0356093599010261
 20
0.8199545736708117
 10
-0.0256179975963373
 20
0.7466845834364358
  0
LWPOLYLINE
  5
7DE1B343D9DC019
330
7DE1B343D9DC0C6
100
AcDbEntity
  8
TEXT
100
AcDbPolyline
 90
        2
 70
     0
 43
0.0006660908203125
 10
-0.0256179975963373
 20
0.7733282162489368
 10
-0.0256179975963373
 20
0.7466845834364358
  0
LWPOLYLINE
  5
7DE1B343D9DC01D
330
7DE1B343D9DC0C6
100
AcDbEntity
  8
TEXT
100
AcDbPolyline
 90
        5
 70
     0
 43
0.0001332181640625
 10
0.0143474516224125
 20
0.8699113851942485
 10
0.0010256352161637
 20
0.8699113851942485
 10
0.0010256352161637
 20
0.8332763900770622
 10
-0.0356093599010261
 20
0.8332763900770622
 10
-0.0356093599010261
 20
0.8199545736708117
  0
LWPOLYLINE
  5
7DE1B343D9DC024
330
7DE1B343D9DC0C6
100
AcDbEntity
  8
TEXT
100
AcDbPolyline
 90
        2
 70
     0
 43
0.0006660908203125
 10
0.0609738090442875
 20
0.8998854721083112
 10
0.0876174418567886
 20
0.8998854721083112
  0
LWPOLYLINE
  5
7DE1B343D9DC028
330
7DE1B343D9DC0C6
100
AcDbEntity
  8
TEXT
100
AcDbPolyline
 90
        2
 70
     0
 43
0.0006660908203125
 10
0.0609738090442875
 20
0.8599200228895632
 10
0.0876174418567886
 20
0.8599200228895632
  0
LINE
  5
7DE1B343D9DC02C
330
7DE1B343D9DC0C6
100
AcDbEntity
  8
TEXT
100
AcDbLine
 10
0.3577315787048134
 20
0.9488442169046699
 30
0.0
 11
0.5246372327337847
 21
0.9488442169046699
 31
0.0
  0
LINE
  5
7DE1B343D9DC02D
330
7DE1B343D9DC0C6
100
AcDbEntity
  8
TEXT
100
AcDbLine
 10
0.4233317149491145
 20
0.913039495294042
 30
0.0
 11
0.3577315787048134
 21
0.913039495294042
 31
0.0
  0
LINE
  5
7DE1B343D9DC02E
330
7DE1B343D9DC0C6
100
AcDbEntity
  8
TEXT
100
AcDbLine
 10
0.2704067891440618
 20
0.7466478785729245
 30
0.0
 11
0.4233317149491145
 21
0.7466478785729245
 31
0.0
  0
LINE
  5
7DE1B343D9DC02F
330
7DE1B343D9DC0C6
100
AcDbEntity
  8
TEXT
100
AcDbLine
 10
0.4282720888553941
 20
0.8150048849063637
 30
0.0
 11
0.27040678914406
 21
0.8150048849063637
 31
0.0
  0
LINE
  5
7DE1B343D9DC030
330
7DE1B343D9DC0C6
100
AcDbEntity
  8
TEXT
100
AcDbLine
 10
0.3524942485905653
 20
0.8489459926684283
 30
0.0
 11
0.4282720888553941
 21
0.8489459926684283
 31
0.0
  0
ARC
  5
7DE1B343D9DC031
330
7DE1B343D9DC0C6
100
AcDbEntity
  8
TEXT
100
AcDbCircle
 10
0.3577315787048143
 20
0.9309418560993577
 30
0.0
 40
0.017902360805315
100
AcDbArc
 50
90.0
 51
270.0
  0
LINE
  5
7DE1B343D9DC032
330
7DE1B343D9DC0C6
100
AcDbEntity
  8
TEXT
100
AcDbLine
 10
0.27040678914406
 20
0.8150048849063637
 30
0.0
 11
0.2704067891440618
 21
0.7466478785729245
 31
0.0
  0
LINE
  5
7DE1B343D9DC033
330
7DE1B343D9DC0C6
100
AcDbEntity
  8
TEXT
100
AcDbLine
 10
0.5246372327337847
 20
0.9488442169046699
 30
0.0
 11
0.5246372327337847
 21
0.8064402699109741
 31
0.0
  0
ARC
  5
7DE1B343D9DC034
330
7DE1B343D9DC0C6
100
AcDbEntity
  8
TEXT
100
AcDbCircle
 10
0.4233317149491154
 20
0.8298436869334814
 30
0.0
 40
0.0831958083605586
100
AcDbArc
 50
270.0
 51
90.0
  0
ARC
  5
7DE1B343D9DC035
330
7DE1B343D9DC0C6
100
AcDbEntity
  8
TEXT
100
AcDbCircle
 10
0.428272088855395
 20
0.8319754387873977
 30
0.0
 40
0.0169705538810321
100
AcDbArc
 50
270.0
 51
90.0
  0
LWPOLYLINE
  5
7DE1B343D9DC036
330
7DE1B343D9DC0C6
100
AcDbEntity
  8
TEXT
100
AcDbPolyline
 90
        2
 70
     0
 43
0.0006660908203125
 10
-0.0655834468150889
 20
0.9864772787489378
 10
-0.0655834468150889
 20
1.013120911561439
  0
LWPOLYLINE
  5
7DE1B343D9DC03A
330
7DE1B343D9DC0C6
100
AcDbEntity
  8
TEXT
100
AcDbPolyline
 90
        2
 70
     0
 43
0.0006660908203125
 10
-0.0256179975963373
 20
0.9864772787489378
 10
-0.0256179975963373
 20
1.013120911561439
  0
LINE
  5
7DE1B343D9DC03E
330
7DE1B343D9DC0C6
100
AcDbEntity
  8
TEXT
100
AcDbLine
 10
0.5282260014890776
 20
1.013120911561435
 30
0.0
 11
0.3524942485905653
 21
1.013120911561435
 31
0.0
  0
LINE
  5
7DE1B343D9DC03F
330
7DE1B343D9DC0C6
100
AcDbEntity
  8
TEXT
100
AcDbLine
 10
0.5282260014890776
 20
1.047508829155573
 30
0.0
 11
0.5282260014890776
 21
1.013120911561435
 31
0.0
  0
LINE
  5
7DE1B343D9DC040
330
7DE1B343D9DC0C6
100
AcDbEntity
  8
TEXT
100
AcDbLine
 10
0.7186978935089299
 20
0.9122489154483147
 30
0.0
 11
0.660067572476992
 21
1.013120911561435
 31
0.0
  0
LINE
  5
7DE1B343D9DC041
330
7DE1B343D9DC0C6
100
AcDbEntity
  8
TEXT
100
AcDbLine
 10
0.7774464563147954
 20
1.013120911561435
 30
0.0
 11
0.7186978935089299
 21
0.9122489154483147
 31
0.0
  0
LINE
  5
7DE1B343D9DC042
330
7DE1B343D9DC0C6
100
AcDbEntity
  8
TEXT
100
AcDbLine
 10
0.8743770816745366
 20
0.8290357166759235
 30
0.0
 11
0.8743770816745366
 21
1.081132389300246
 31
0.0
  0
LINE
  5
7DE1B343D9DC043
330
7DE1B343D9DC0C6
100
AcDbEntity
  8
TEXT
100
AcDbLine
 10
0.9066889358121967
 20
1.013120911561435
 30
0.0
 11
0.9066889358121967
 21
0.8122567048290271
 31
0.0
  0
LINE
  5
7DE1B343D9DC044
330
7DE1B343D9DC0C6
100
AcDbEntity
  8
TEXT
100
AcDbLine
 10
0.9066889358121967
 20
0.8122567048290271
 30
0.0
 11
0.8896952989275954
 21
0.8122567048290271
 31
0.0
  0
LINE
  5
7DE1B343D9DC045
330
7DE1B343D9DC0C6
100
AcDbEntity
  8
TEXT
100
AcDbLine
 10
0.8755166551707313
 20
0.7466478785729245
 30
0.0
 11
0.9735199888701659
 21
0.7466478785729245
 31
0.0
  0
LINE
  5
7DE1B343D9DC046
330
7DE1B343D9DC0C6
100
AcDbEntity
  8
TEXT
100
AcDbLine
 10
0.7090976565119755
 20
0.7666063846779374
 30
0.0
 11
0.8063973626054201
 21
0.9309565956132054
 31
0.0
  0
ARC
  5
7DE1B343D9DC047
330
7DE1B343D9DC0C6
100
AcDbEntity
  8
TEXT
100
AcDbCircle
 10
0.6750540965997616
 20
0.7861956008466203
 30
0.0
 40
0.0392772371940762
100
AcDbArc
 50
270.1604552698595
 51
330.0831797321295
  0
LINE
  5
7DE1B343D9DC048
330
7DE1B343D9DC0C6
100
AcDbEntity
  8
TEXT
100
AcDbLine
 10
0.5785238402138904
 20
0.7466478785729245
 30
0.0
 11
0.6751640912888848
 21
0.7469185176712068
 31
0.0
  0
LWPOLYLINE
  5
7DE1B343D9DC049
330
7DE1B343D9DC0C6
100
AcDbEntity
  8
TEXT
100
AcDbPolyline
 90
        6
 70
     1
 43
0.0
 10
0.62104764378904
 20
0.9488442169046699
 10
0.5907310495688318
 20
0.9488442169046699
 10
0.5907310495688318
 20
0.8257332188497755
 42
0.407328721240804
 10
0.6022747007303082
 20
0.8139143041733895
 10
0.662896399775039
 20
0.8139143041733895
 10
0.6803617401823569
 20
0.8467265332168686
  0
LINE
  5
7DE1B343D9DC051
330
7DE1B343D9DC0C6
100
AcDbEntity
  8
TEXT
100
AcDbLine
 10
0.8063973626054201
 20
0.9309565956132054
 30
0.0
 11
0.8063973626054201
 21
0.7981992207878493
 31
0.0
  0
ARC
  5
7DE1B343D9DC052
330
7DE1B343D9DC0C6
100
AcDbEntity
  8
TEXT
100
AcDbCircle
 10
0.8896952989275936
 20
0.8276385110724525
 30
0.0
 40
0.0153818062434269
100
AcDbArc
 50
174.7883570302258
 51
270.0
  0
LWPOLYLINE
  5
7DE1B343D9DC053
330
7DE1B343D9DC0C6
100
AcDbEntity
  8
TEXT
100
AcDbPolyline
 90
        2
 70
     0
 43
0.0
 10
0.8063973626054183
 20
0.7981992207878528
 42
0.3318488747599744
 10
0.8755166551707313
 20
0.7466478785729245
 42
-6.868794160588311
  0
LINE
  5
7DE1B343D9DC057
330
7DE1B343D9DC0C6
100
AcDbEntity
  8
TEXT
100
AcDbLine
 10
1.030909057859427
 20
0.7466478785729245
 30
0.0
 11
1.097967104641267
 21
0.7466478785729245
 31
0.0
  0
LINE
  5
7DE1B343D9DC058
330
7DE1B343D9DC0C6
100
AcDbEntity
  8
TEXT
100
AcDbLine
 10
1.030909057859427
 20
0.9412904277385599
 30
0.0
 11
1.030909057859427
 21
0.7466478785729245
 31
0.0
  0
LINE
  5
7DE1B343D9DC059
330
7DE1B343D9DC0C6
100
AcDbEntity
  8
TEXT
100
AcDbLine
 10
0.9735199888701659
 20
0.9488442169046699
 30
0.0
 11
1.023355268693313
 21
0.9488442169046699
 31
0.0
  0
LINE
  5
7DE1B343D9DC05A
330
7DE1B343D9DC0C6
100
AcDbEntity
  8
TEXT
100
AcDbLine
 10
0.9735199888701659
 20
0.7466478785729245
 30
0.0
 11
0.9735199888701659
 21
0.9488442169046699
 31
0.0
  0
LWPOLYLINE
  5
7DE1B343D9DC05B
330
7DE1B343D9DC0C6
100
AcDbEntity
  8
TEXT
100
AcDbPolyline
 90
        2
 70
     0
 43
0.0
 10
1.023355268693311
 20
0.9488442169046699
 42
-0.4142135623731017
 10
1.030909057859425
 20
0.9412904277385599
 42
-0.9999999999999998
  0
LINE
  5
7DE1B343D9DC05F
330
7DE1B343D9DC0C6
100
AcDbEntity
  8
TEXT
100
AcDbLine
 10
1.229165269470996
 20
0.9488442169046699
 30
0.0
 11
1.229165269470996
 21
0.8737918108304633
 31
0.0
  0
LINE
  5
7DE1B343D9DC060
330
7DE1B343D9DC0C6
100
AcDbEntity
  8
TEXT
100
AcDbLine
 10
1.097967104641267
 20
0.9488442169046699
 30
0.0
 11
1.152100701562217
 21
0.9488442169046699
 31
0.0
  0
LINE
  5
7DE1B343D9DC061
330
7DE1B343D9DC0C6
100
AcDbEntity
  8
TEXT
100
AcDbLine
 10
1.097967104641267
 20
0.7466478785729245
 30
0.0
 11
1.097967104641267
 21
0.9488442169046699
 31
0.0
  0
LWPOLYLINE
  5
7DE1B343D9DC062
330
7DE1B343D9DC0C6
100
AcDbEntity
  8
TEXT
100
AcDbPolyline
 90
        2
 70
     0
 43
0.0
 10
1.152100701562215
 20
0.9488442169046699
 42
-0.4142135623731017
 10
1.159654490728329
 20
0.9412904277385599
 42
-0.9999999999999998
  0
LWPOLYLINE
  5
7DE1B343D9DC066
330
7DE1B343D9DC0C6
100
AcDbEntity
  8
TEXT
100
AcDbPolyline
 90
        4
 70
     0
 43
0.0
 10
1.159654490728329
 20
0.9412904277385599
 10
1.159654490728329
 20
0.7466478785729245
 10
1.228132774016186
 20
0.7466478785729245
 10
1.228132774016186
 20
0.7901388235233627
 42
-1.714843617202739
  0
LINE
  5
7DE1B343D9DC06C
330
7DE1B343D9DC0C6
100
AcDbEntity
  8
TEXT
100
AcDbLine
 10
0.5882686063330846
 20
1.013120911561435
 30
0.0
 11
0.5882686063330846
 21
1.047508829155573
 31
0.0
  0
LINE
  5
7DE1B343D9DC06D
330
7DE1B343D9DC0C6
100
AcDbEntity
  8
TEXT
100
AcDbLine
 10
0.660067572476992
 20
1.013120911561435
 30
0.0
 11
0.5882686063330846
 21
1.013120911561435
 31
0.0
  0
LINE
  5
7DE1B343D9DC06E
330
7DE1B343D9DC0C6
100
AcDbEntity
  8
TEXT
100
AcDbLine
 10
0.8075683691081716
 20
1.013120911561435
 30
0.0
 11
0.7774464563147954
 21
1.013120911561435
 31
0.0
  0
LINE
  5
7DE1B343D9DC06F
330
7DE1B343D9DC0C6
100
AcDbEntity
  8
TEXT
100
AcDbLine
 10
0.8075683691081716
 20
1.081132389300246
 30
0.0
 11
0.8075683691081716
 21
1.013120911561435
 31
0.0
  0
LINE
  5
7DE1B343D9DC070
330
7DE1B343D9DC0C6
100
AcDbEntity
  8
TEXT
100
AcDbLine
 10
0.8743770816745366
 20
1.081132389300246
 30
0.0
 11
0.8075683691081716
 21
1.081132389300246
 31
0.0
  0
LWPOLYLINE
  5
7DE1B343D9DC071
330
7DE1B343D9DC0C6
100
AcDbEntity
  8
TEXT
100
AcDbPolyline
 90
        3
 70
     0
 43
0.0
 10
1.194788841272538
 20
1.013120911561439
 10
1.076488682456494
 20
1.013120911561439
 10
1.076488682456494
 20
0.985953414800543
 42
-1.960274751411753
  0
LINE
  5
7DE1B343D9DC076
330
7DE1B343D9DC0C6
100
AcDbEntity
  8
TEXT
100
AcDbLine
 10
1.040706991743333
 20
1.013120911561435
 30
0.0
 11
0.9066889358121967
 21
1.013120911561435
 31
0.0
  0
LWPOLYLINE
  5
7DE1B343D9DC077
330
7DE1B343D9DC0C6
100
AcDbEntity
  8
TEXT
100
AcDbPolyline
 90
        2
 70
     0
 43
0.0
 10
1.040706991743333
 20
1.013120911561439
 42
-0.3328679258950098
 10
1.076488682456494
 20
0.985953414800543
 42
6.772930709997214
  0
LINE
  5
7DE1B343D9DC07B
330
7DE1B343D9DC0C6
100
AcDbEntity
  8
TEXT
100
AcDbLine
 10
1.230570531985705
 20
1.013120911561435
 30
0.0
 11
1.230570531985705
 21
0.9847983657917914
 31
0.0
  0
LWPOLYLINE
  5
7DE1B343D9DC07C
330
7DE1B343D9DC0C6
100
AcDbEntity
  8
TEXT
100
AcDbPolyline
 90
        2
 70
     0
 43
0.0
 10
1.194788841272538
 20
1.013120911561439
 42
-0.3277054968067132
 10
1.230570531985703
 20
0.984798365791795
 42
6.667889725900311
  0
LINE
  5
7DE1B343D9DC080
330
7DE1B343D9DC0C6
100
AcDbEntity
  8
TEXT
100
AcDbLine
 10
1.444362380077805
 20
0.907908933008008
 30
0.0
 11
1.400611608895904
 21
0.9901592090041532
 31
0.0
  0
LINE
  5
7DE1B343D9DC081
330
7DE1B343D9DC0C6
100
AcDbEntity
  8
TEXT
100
AcDbLine
 10
1.444362380077805
 20
1.013120911561435
 30
0.0
 11
1.444362380077805
 21
0.907908933008008
 31
0.0
  0
LINE
  5
7DE1B343D9DC082
330
7DE1B343D9DC0C6
100
AcDbEntity
  8
TEXT
100
AcDbLine
 10
1.672046119016174
 20
0.9372555851498972
 30
0.0
 11
1.672046119016174
 21
1.078585117329036
 31
0.0
  0
LINE
  5
7DE1B343D9DC083
330
7DE1B343D9DC0C6
100
AcDbEntity
  8
TEXT
100
AcDbLine
 10
1.719144277572159
 20
1.013120911561435
 30
0.0
 11
1.672046119016174
 21
0.9372555851498972
 31
0.0
  0
LINE
  5
7DE1B343D9DC084
330
7DE1B343D9DC0C6
100
AcDbEntity
  8
TEXT
100
AcDbLine
 10
1.729578994336082
 20
0.9032276686204617
 30
0.0
 11
1.794136110301787
 21
1.013120911561435
 31
0.0
  0
LINE
  5
7DE1B343D9DC085
330
7DE1B343D9DC0C6
100
AcDbEntity
  8
TEXT
100
AcDbLine
 10
1.608211127793401
 20
0.7466478785729245
 30
0.0
 11
1.672589312112022
 21
0.7466478785729245
 31
0.0
  0
LWPOLYLINE
  5
7DE1B343D9DC086
330
7DE1B343D9DC0C6
100
AcDbEntity
  8
TEXT
100
AcDbPolyline
 90
        2
 70
     0
 43
0.0
 10
1.448302057382843
 20
0.7901388235233627
 42
-0.2901071551932486
 10
1.405226124515199
 20
0.7466478785729245
 42
-5.328517124445184
  0
ARC
  5
7DE1B343D9DC08A
330
7DE1B343D9DC0C6
100
AcDbEntity
  8
TEXT
100
AcDbCircle
 10
1.336371542858284
 20
0.9204848419046726
 30
0.0
 40
0.028359375
100
AcDbArc
 50
25.78218179591245
 51
90.0
  0
LINE
  5
7DE1B343D9DC08B
330
7DE1B343D9DC0C6
100
AcDbEntity
  8
TEXT
100
AcDbLine
 10
1.372172618162407
 20
0.9115692434425376
 30
0.0
 11
1.361907857748843
 21
0.9328197830152319
 31
0.0
  0
LINE
  5
7DE1B343D9DC08C
330
7DE1B343D9DC0C6
100
AcDbEntity
  8
TEXT
100
AcDbLine
 10
1.289884628379024
 20
0.9115692434425376
 30
0.0
 11
1.372172618162407
 21
0.9115692434425376
 31
0.0
  0
LWPOLYLINE
  5
7DE1B343D9DC08D
330
7DE1B343D9DC0C6
100
AcDbEntity
  8
TEXT
100
AcDbPolyline
 90
        4
 70
     1
 43
0.0
 10
1.385103659445306
 20
0.8496118565569496
 10
1.296443340785448
 20
0.8496118565569496
 42
0.9999999999999998
 10
1.296443340785448
 20
0.8072133160530889
 10
1.385103659445306
 20
0.8072133160530889
 42
1.0
  0
LWPOLYLINE
  5
7DE1B343D9DC093
330
7DE1B343D9DC0C6
100
AcDbEntity
  8
TEXT
100
AcDbPolyline
 90
        2
 70
     0
 43
0.0
 10
1.271208706883822
 20
0.7466478785729245
 10
1.405226124515199
 20
0.7466478785729245
 42
0.9999999999999998
  0
LINE
  5
7DE1B343D9DC097
330
7DE1B343D9DC0C6
100
AcDbEntity
  8
TEXT
100
AcDbLine
 10
1.531563146500838
 20
0.9488442169046699
 30
0.0
 11
1.608211127793396
 21
0.9488442169046699
 31
0.0
  0
LINE
  5
7DE1B343D9DC098
330
7DE1B343D9DC0C6
100
AcDbEntity
  8
TEXT
100
AcDbLine
 10
1.608211127793396
 20
0.9488442169046699
 30
0.0
 11
1.608211127793401
 21
0.7466478785729245
 31
0.0
  0
ARC
  5
7DE1B343D9DC099
330
7DE1B343D9DC0C6
100
AcDbEntity
  8
TEXT
100
AcDbCircle
 10
1.531563146500836
 20
0.9239383416220071
 30
0.0
 40
0.0249058752826653
100
AcDbArc
 50
89.99971217465335
 51
179.9999999999985
  0
LINE
  5
7DE1B343D9DC09A
330
7DE1B343D9DC0C6
100
AcDbEntity
  8
TEXT
100
AcDbLine
 10
1.506657271218179
 20
0.7466478785729245
 30
0.0
 11
1.506657271218174
 21
0.9239383840043927
 31
0.0
  0
LWPOLYLINE
  5
7DE1B343D9DC09B
330
7DE1B343D9DC0C6
100
AcDbEntity
  8
TEXT
100
AcDbPolyline
 90
        2
 70
     0
 43
0.0
 10
1.448302057382843
 20
0.7466478785729245
 10
1.506657271218177
 20
0.7466478785729245
  0
LWPOLYLINE
  5
7DE1B343D9DC09F
330
7DE1B343D9DC0C6
100
AcDbEntity
  8
TEXT
100
AcDbPolyline
 90
        2
 70
     0
 43
0.0
 10
1.448302057382843
 20
0.7901388235233627
 10
1.448302057382843
 20
0.7466478785729245
  0
LINE
  5
7DE1B343D9DC0A3
330
7DE1B343D9DC0C6
100
AcDbEntity
  8
TEXT
100
AcDbLine
 10
1.825071217699692
 20
0.7466478785729245
 30
0.0
 11
1.729578994336082
 21
0.9032276686204617
 31
0.0
  0
LINE
  5
7DE1B343D9DC0A4
330
7DE1B343D9DC0C6
100
AcDbEntity
  8
TEXT
100
AcDbLine
 10
1.748492845323486
 20
0.7466478785729245
 30
0.0
 11
1.825071217699692
 21
0.7466478785729245
 31
0.0
  0
LINE
  5
7DE1B343D9DC0A5
330
7DE1B343D9DC0C6
100
AcDbEntity
  8
TEXT
100
AcDbLine
 10
1.672589312112022
 20
0.8782274470491046
 30
0.0
 11
1.748492845323486
 21
0.7466478785729245
 31
0.0
  0
LINE
  5
7DE1B343D9DC0A6
330
7DE1B343D9DC0C6
100
AcDbEntity
  8
TEXT
100
AcDbLine
 10
1.672589312112022
 20
0.7466478785729245
 30
0.0
 11
1.672589312112022
 21
0.8782274470491046
 31
0.0
  0
LINE
  5
7DE1B343D9DC0A7
330
7DE1B343D9DC0C6
100
AcDbEntity
  8
TEXT
100
AcDbLine
 10
1.672046119016174
 20
1.078585117329036
 30
0.0
 11
1.603731240466901
 21
1.078585117329036
 31
0.0
  0
ARC
  5
7DE1B343D9DC0A8
330
7DE1B343D9DC0C6
100
AcDbEntity
  8
TEXT
100
AcDbCircle
 10
1.363375501425695
 20
0.9715373444405329
 30
0.0
 40
0.0416329381542859
100
AcDbArc
 50
26.56974201007528
 51
87.20939649401342
  0
LINE
  5
7DE1B343D9DC0A9
330
7DE1B343D9DC0C6
100
AcDbEntity
  8
TEXT
100
AcDbLine
 10
1.508259286377306
 20
1.013120911561435
 30
0.0
 11
1.444362380077805
 21
1.013120911561435
 31
0.0
  0
LINE
  5
7DE1B343D9DC0AA
330
7DE1B343D9DC0C6
100
AcDbEntity
  8
TEXT
100
AcDbLine
 10
1.508259286377306
 20
0.9855732617005607
 30
0.0
 11
1.508259286377306
 21
1.013120911561435
 31
0.0
  0
ARC
  5
7DE1B343D9DC0AB
330
7DE1B343D9DC0C6
100
AcDbEntity
  8
TEXT
100
AcDbCircle
 10
1.539452103440414
 20
0.9818751842791705
 30
0.0
 40
0.0314112657011332
100
AcDbArc
 50
95.88484768694724
 51
173.2388340632136
  0
LINE
  5
7DE1B343D9DC0AC
330
7DE1B343D9DC0C6
100
AcDbEntity
  8
TEXT
100
AcDbLine
 10
1.603731240466896
 20
1.013120911561435
 30
0.0
 11
1.536231522817379
 21
1.013120911561435
 31
0.0
  0
LINE
  5
7DE1B343D9DC0AD
330
7DE1B343D9DC0C6
100
AcDbEntity
  8
TEXT
100
AcDbLine
 10
1.603731240466901
 20
1.078585117329036
 30
0.0
 11
1.603731240466896
 21
1.013120911561435
 31
0.0
  0
LINE
  5
7DE1B343D9DC0AE
330
7DE1B343D9DC0C6
100
AcDbEntity
  8
TEXT
100
AcDbLine
 10
1.794136110301787
 20
1.013120911561435
 30
0.0
 11
1.71914427757216
 21
1.013120911561435
 31
0.0
  0
INSERT
  5
7DE1B343D9DC0E1
330
7DE1B343D9DC0C6
100
AcDbEntity
  8
ASHADE
 62
     1
100
AcDbBlockReference
  2
AVE_RENDER
 10
0.0
 20
0.0
 30
0.0
1001
AVE_RENDER
1002
{
1070
     6
1000
Pref
1070
    30
1070
    20
1070
     1
1070
     0
1000

1070
    10
1070
     1
1070
    30
1040
1.0
1070
     1
1040
0.3
1040
0.7
1040
0.0
1040
10.0
1010
-1.0
1020
-1.0
1030
-1.0
1040
0.3
1070
    49
1070
     0
1070
     0
1010
1.0
1020
1.0
1030
1.0
1040
45.0
1070
     1
1070
     0
1000
WCS
1040
0.0
1002
}
  0
INSERT
  5
7DE1B343D9DC0E2
330
7DE1B343D9DC0C6
100
AcDbEntity
  8
ASHADE
 62
     3
100
AcDbBlockReference
  2
AVE_RENDER
 10
0.0
 20
0.0
 30
0.0
1001
AVE_RENDER
1002
{
1070
     0
1000
Full Opt
1070
     0
1070
     1
1070
     1
1070
     1
1070
     0
1070
     0
1070
     0
1070
     1
1070
     1
1040
0.0001
1040
0.0001
1002
}
  0
INSERT
  5
7DE1B343D9DC0E3
330
7DE1B343D9DC0C6
100
AcDbEntity
  8
ASHADE
 62
     4
100
AcDbBlockReference
  2
AVE_RENDER
 10
0.0
 20
0.0
 30
0.0
1001
AVE_RENDER
1002
{
1070
     0
1000
Quick Opt
1070
     0
1070
     1
1070
     1
1070
     1
1070
     0
1070
     0
1070
     1
1002
}
  0
INSERT
  5
7DE1B343D9DC0E4
330
7DE1B343D9DC0C6
100
AcDbEntity
  8
ASHADE
 62
     5
100
AcDbBlockReference
  2
AVE_RENDER
 10
0.0
 20
0.0
 30
0.0
1001
AVE_RENDER
1002
{
1070
     1
1000
Scanl Opt
1070
     2
1070
     0
1070
     2
1040
2.0
1040
4.0
1070
     0
1070
     1
1070
     0
1040
0.03
1002
}
  0
INSERT
  5
7DE1B343D9DC0E5
330
7DE1B343D9DC0C6
100
AcDbEntity
  8
ASHADE
 62
     6
100
AcDbBlockReference
  2
AVE_RENDER
 10
0.0
 20
0.0
 30
0.0
1001
AVE_RENDER
1002
{
1070
     2
1000
Raytr Opt
1070
     2
1070
     0
1070
     2
1040
2.0
1040
4.0
1070
     0
1070
     1
1070
     1
1040
0.03
1070
     3
1040
0.03
1002
}
  0
INSERT
  5
7DE1B343D9DC0E6
330
7DE1B343D9DC0C6
100
AcDbEntity
  8
ASHADE
 62
     7
100
AcDbBlockReference
  2
AVE_RENDER
 10
0.0
 20
0.0
 30
0.0
1001
AVE_RENDER
1002
{
1070
     0
1000
RFile Opt
1070
     5
1070
   640
1070
   480
1070
 10000
1070
     3
1070
    32
1070
    24
1070
     0
1070
     0
1070
     0
1070
     1
1070
     0
1070
     0
1070
     0
1002
}
  0
INSERT
  5
7DE1B343D9DC0E7
330
7DE1B343D9DC0C6
100
AcDbEntity
  8
ASHADE
 62
     8
100
AcDbBlockReference
  2
AVE_RENDER
 10
0.0
 20
0.0
 30
0.0
1001
AVE_RENDER
1002
{
1070
     0
1000
Fog Opt
1070
     0
1070
     0
1040
0.0
1040
1.0
1040
0.0
1040
1.0
1010
0.5
1020
0.5
1030
0.5
1002
}
  0
INSERT
  5
7DE1B343D9DC0E8
330
7DE1B343D9DC0C6
100
AcDbEntity
  8
ASHADE
 62
     9
100
AcDbBlockReference
  2
AVE_RENDER
 10
0.0
 20
0.0
 30
0.0
1001
AVE_RENDER
1002
{
1070
     0
1000
BG Opt
1070
     0
1070
     1
1010
0.0
1020
0.0
1030
0.0
1010
1.0
1020
0.0
1030
0.0
1010
0.0
1020
1.0
1030
0.0
1010
0.0
1020
0.0
1030
1.0
1040
0.5
1040
0.33
1040
0.0
1000

1070
     1
1000

1070
     1
1070
     1
1040
1.0
1040
1.0
1040
0.0
1040
0.0
1070
     0
1002
}
  0
INSERT
  5
7DE1B343D9DC0EF
330
7DE1B343D9DC0C6
100
AcDbEntity
  8
ASHADE
 62
     1
100
AcDbBlockReference
  2
AVE_GLOBAL
 10
0.0
 20
0.0
 30
0.0
1001
AVE_MATERIAL
1002
{
1000
*GLOBAL*
1000
1
1000
Global finish.
1002
{
1002
}
1002
{
1070
    63
1002
{
1002
{
1010
-1.0
1020
-1.0
1030
-1.0
1002
}
1040
0.1000000014901161
1000

1040
0.0
1002
{
1002
}
1040
0.0
1002
{
1002
}
1040
0.0
1002
}
1002
{
1002
{
1010
-1.0
1020
-1.0
1030
-1.0
1002
}
1040
0.6999999880790711
1000

1040
0.0
1002
{
1002
}
1040
0.0
1002
{
1002
}
1040
0.0
1002
}
1002
{
1002
{
1010
-1.0
1020
-1.0
1030
-1.0
1002
}
1040
0.2000000029802322
1000

1040
0.0
1002
{
1002
}
1040
0.0
1002
{
1002
}
1040
0.0
1002
}
1002
{
1070
     0
1002
{
1070
     1
1002
{
1040
1.0
1040
1.0
1000

1040
0.0
1002
{
1002
}
1040
0.0
1002
{
1002
}
1040
0.0
1002
}
1002
}
1040
1.0
1040
0.0
1040
0.0
1002
}
1002
{
1040
1.0
1040
1.0
1000

1040
0.0
1002
{
1002
}
1040
0.0
1002
{
1002
}
1040
0.0
1002
}
1002
{
1040
0.5
1040
1.0
1000

1040
0.0
1002
{
1002
}
1040
0.0
1002
{
1002
}
1040
0.0
1002
}
1002
{
1070
     0
1040
0.0
1002
{
1002
}
1040
1.0
1002
{
1002
}
1040
0.0
1002
}
1002
{
1040
0.0
1002
{
1002
{
1010
0.0
1020
0.0
1030
0.0
1002
}
1040
1.0
1000

1040
0.0
1002
{
1002
}
1040
0.0
1002
{
1002
}
1040
0.0
1002
}
1002
}
1002
{
1002
{
1070
     1
1002
{
1040
0.0
1040
1.0
1000

1040
0.0
1002
{
1002
}
1040
0.0
1002
{
1002
}
1040
0.0
1002
}
1002
}
1040
0.0
1002
{
1002
}
1010
1.0
1020
0.0
1030
0.0
1010
0.0
1020
1.0
1030
0.0
1010
0.0
1020
0.0
1030
1.0
1070
     0
1002
}
1002
{
1002
{
1040
1.0
1040
1.0
1002
{
1070
     1
1002
{
1040
1.0
1040
1.0
1000

1040
0.0
1002
{
1002
}
1040
0.0
1002
{
1002
}
1040
0.0
1002
}
1002
}
1002
}
1070
     0
1040
0.0
1002
{
1002
}
1002
}
1002
{
1002
}
1002
}
1002
{
1071
        3
1070
     3
1070
     0
1002
{
1070
     2
1070
     0
1070
     0
1040
0.0
1002
}
1070
     0
1070
     2
1002
{
1002
}
1002
}
1002
{
1040
8030.0
1040
190.3000030517578
1040
0.3050000071525574
1040
228.0
1040
545.0
1040
14.0
1040
17.39999961853027
1040
0.4560000002384186
1002
}
1002
}
  0
ENDSEC
  0
SECTION
  2
OBJECTS
  0
DICTIONARY
  5
7DE1B343D9DC0BA
330
0
100
AcDbDictionary
  3
ACAD_GROUP
350
7DE1B343D9DC0BB
  3
ACAD_LAYOUT
350
7DE1B343D9DC0FB
  3
ACAD_MLINESTYLE
350
7DE1B343D9DC0BC
  3
ACAD_PLOTSETTINGS
350
7DE1B343D9DC0FC
  3
ACAD_PLOTSTYLENAME
350
7DE1B343D9DC0F9
  3
ACDBHEADERROUNDTRIPXREC
350
7DE1B343D9DC106
  3
ACDBVARIABLEDICTIONARY
350
7DE1B343D9DC103
  0
DICTIONARY
  5
7DE1B343D9DC128
330
7DE1B343D9DC0C6
100
AcDbDictionary
280
     1
  3
ACAD_LAYOUTSELFREF
360
7DE1B343D9DC129
  0
DICTIONARY
  5
7DE1B343D9DC126
330
7DE1B343D9DC0C3
100
AcDbDictionary
280
     1
  3
ACAD_LAYOUTSELFREF
360
7DE1B343D9DC127
  0
DICTIONARY
  5
7DE1B343D9DC0BB
102
{ACAD_REACTORS
330
7DE1B343D9DC0BA
102
}
330
7DE1B343D9DC0BA
100
AcDbDictionary
  0
DICTIONARY
  5
7DE1B343D9DC0FB
102
{ACAD_REACTORS
330
7DE1B343D9DC0BA
102
}
330
7DE1B343D9DC0BA
100
AcDbDictionary
  0
DICTIONARY
  5
7DE1B343D9DC0BC
102
{ACAD_REACTORS
330
7DE1B343D9DC0BA
102
}
330
7DE1B343D9DC0BA
100
AcDbDictionary
  3
STANDARD
350
7DE1B343D9DC0C9
  0
DICTIONARY
  5
7DE1B343D9DC0FC
102
{ACAD_REACTORS
330
7DE1B343D9DC0BA
102
}
330
7DE1B343D9DC0BA
100
AcDbDictionary
  0
ACDBDICTIONARYWDFLT
  5
7DE1B343D9DC0F9
102
{ACAD_REACTORS
330
7DE1B343D9DC0BA
102
}
330
7DE1B343D9DC0BA
100
AcDbDictionary
281
     1
  3
Normal
350
7DE1B343D9DC0FA
100
AcDbDictionaryWithDefault
340
7DE1B343D9DC0FA
  0
DICTIONARY
  5
7DE1B343D9DC106
102
{ACAD_REACTORS
330
7DE1B343D9DC0BA
102
}
330
7DE1B343D9DC0BA
100
AcDbDictionary
  3
CEPSNTYPE
350
7DE1B343D9DC110
  3
FINGERPRINTGUID
350
7DE1B343D9DC111
  3
HYPERLINKBASE
350
7DE1B343D9DC109
  3
INSUNITS
350
7DE1B343D9DC10F
  3
LAYOUTDICT
350
7DE1B343D9DC10B
  3
LWETCUNION
350
7DE1B343D9DC10E
  3
PLOTSETDICT
350
7DE1B343D9DC10C
  3
PLOTSTYLNAMDICT
350
7DE1B343D9DC10D
  3
PSVPSCALE
350
7DE1B343D9DC113
  3
PUCSBASE
350
7DE1B343D9DC116
  3
PUCSORGBACK
350
7DE1B343D9DC11C
  3
PUCSORGBOTTOM
350
7DE1B343D9DC118
  3
PUCSORGFRONT
350
7DE1B343D9DC11B
  3
PUCSORGLEFT
350
7DE1B343D9DC119
  3
PUCSORGRIGHT
350
7DE1B343D9DC11A
  3
PUCSORGTOP
350
7DE1B343D9DC117
  3
PUCSORTHOREF
350
7DE1B343D9DC114
  3
PUCSORTHOVIEW
350
7DE1B343D9DC115
  3
STYLESHEET
350
7DE1B343D9DC10A
  3
TSTACKALIGN
350
7DE1B343D9DC107
  3
TSTACKSIZE
350
7DE1B343D9DC108
  3
UCSBASE
350
7DE1B343D9DC11F
  3
UCSORGBACK
350
7DE1B343D9DC125
  3
UCSORGBOTTOM
350
7DE1B343D9DC121
  3
UCSORGFRONT
350
7DE1B343D9DC124
  3
UCSORGLEFT
350
7DE1B343D9DC122
  3
UCSORGRIGHT
350
7DE1B343D9DC123
  3
UCSORGTOP
350
7DE1B343D9DC120
  3
UCSORTHOREF
350
7DE1B343D9DC11D
  3
UCSORTHOVIEW
350
7DE1B343D9DC11E
  3
VERSIONGUID
350
7DE1B343D9DC112
  0
DICTIONARY
  5
7DE1B343D9DC103
102
{ACAD_REACTORS
330
7DE1B343D9DC0BA
102
}
330
7DE1B343D9DC0BA
100
AcDbDictionary
  3
DIMASSOC
350
7DE1B343D9DC104
  0
XRECORD
  5
7DE1B343D9DC129
102
{ACAD_REACTORS
330
7DE1B343D9DC128
102
}
330
7DE1B343D9DC128
100
AcDbXrecord
340
7DE1B343D9DC0C6
  0
XRECORD
  5
7DE1B343D9DC127
102
{ACAD_REACTORS
330
7DE1B343D9DC126
102
}
330
7DE1B343D9DC126
100
AcDbXrecord
340
7DE1B343D9DC0C3
  0
MLINESTYLE
  5
7DE1B343D9DC0C9
102
{ACAD_REACTORS
330
7DE1B343D9DC0BC
102
}
330
7DE1B343D9DC0BC
100
AcDbMlineStyle
  2
STANDARD
 70
     0
  3

 62
     0
 51
90.0
 52
90.0
 71
     2
 49
0.5
 62
   256
  6
BYLAYER
 49
-0.5
 62
   256
  6
BYLAYER
  0
ACDBPLACEHOLDER
  5
7DE1B343D9DC0FA
102
{ACAD_REACTORS
330
7DE1B343D9DC0F9
102
}
330
7DE1B343D9DC0F9
100
AcDbPlaceHolder
280
     0
  0
XRECORD
  5
7DE1B343D9DC110
102
{ACAD_REACTORS
330
7DE1B343D9DC106
102
}
330
7DE1B343D9DC106
100
AcDbXrecord
 90
        0
  0
XRECORD
  5
7DE1B343D9DC111
102
{ACAD_REACTORS
330
7DE1B343D9DC106
102
}
330
7DE1B343D9DC106
100
AcDbXrecord
  1
{1A5E4D40-8DB5-11D6-88E6-0090279574E7}
  0
XRECORD
  5
7DE1B343D9DC109
102
{ACAD_REACTORS
330
7DE1B343D9DC106
102
}
330
7DE1B343D9DC106
100
AcDbXrecord
  1

  0
XRECORD
  5
7DE1B343D9DC10F
102
{ACAD_REACTORS
330
7DE1B343D9DC106
102
}
330
7DE1B343D9DC106
100
AcDbXrecord
 90
        0
  0
XRECORD
  5
7DE1B343D9DC10B
102
{ACAD_REACTORS
330
7DE1B343D9DC106
102
}
330
7DE1B343D9DC106
100
AcDbXrecord
340
7DE1B343D9DC0FB
  0
XRECORD
  5
7DE1B343D9DC10E
102
{ACAD_REACTORS
330
7DE1B343D9DC106
102
}
330
7DE1B343D9DC106
100
AcDbXrecord
 90
    14877
  0
XRECORD
  5
7DE1B343D9DC10C
102
{ACAD_REACTORS
330
7DE1B343D9DC106
102
}
330
7DE1B343D9DC106
100
AcDbXrecord
340
7DE1B343D9DC0FC
  0
XRECORD
  5
7DE1B343D9DC10D
102
{ACAD_REACTORS
330
7DE1B343D9DC106
102
}
330
7DE1B343D9DC106
100
AcDbXrecord
340
7DE1B343D9DC0F9
  0
XRECORD
  5
7DE1B343D9DC113
102
{ACAD_REACTORS
330
7DE1B343D9DC106
102
}
330
7DE1B343D9DC106
100
AcDbXrecord
 40
0.0
  0
XRECORD
  5
7DE1B343D9DC116
102
{ACAD_REACTORS
330
7DE1B343D9DC106
102
}
330
7DE1B343D9DC106
100
AcDbXrecord
340
0
  0
XRECORD
  5
7DE1B343D9DC11C
102
{ACAD_REACTORS
330
7DE1B343D9DC106
102
}
330
7DE1B343D9DC106
100
AcDbXrecord
 10
0.0
 20
0.0
 30
0.0
  0
XRECORD
  5
7DE1B343D9DC118
102
{ACAD_REACTORS
330
7DE1B343D9DC106
102
}
330
7DE1B343D9DC106
100
AcDbXrecord
 10
0.0
 20
0.0
 30
0.0
  0
XRECORD
  5
7DE1B343D9DC11B
102
{ACAD_REACTORS
330
7DE1B343D9DC106
102
}
330
7DE1B343D9DC106
100
AcDbXrecord
 10
0.0
 20
0.0
 30
0.0
  0
XRECORD
  5
7DE1B343D9DC119
102
{ACAD_REACTORS
330
7DE1B343D9DC106
102
}
330
7DE1B343D9DC106
100
AcDbXrecord
 10
0.0
 20
0.0
 30
0.0
  0
XRECORD
  5
7DE1B343D9DC11A
102
{ACAD_REACTORS
330
7DE1B343D9DC106
102
}
330
7DE1B343D9DC106
100
AcDbXrecord
 10
0.0
 20
0.0
 30
0.0
  0
XRECORD
  5
7DE1B343D9DC117
102
{ACAD_REACTORS
330
7DE1B343D9DC106
102
}
330
7DE1B343D9DC106
100
AcDbXrecord
 10
0.0
 20
0.0
 30
0.0
  0
XRECORD
  5
7DE1B343D9DC114
102
{ACAD_REACTORS
330
7DE1B343D9DC106
102
}
330
7DE1B343D9DC106
100
AcDbXrecord
340
0
  0
XRECORD
  5
7DE1B343D9DC115
102
{ACAD_REACTORS
330
7DE1B343D9DC106
102
}
330
7DE1B343D9DC106
100
AcDbXrecord
 70
     0
  0
XRECORD
  5
7DE1B343D9DC10A
102
{ACAD_REACTORS
330
7DE1B343D9DC106
102
}
330
7DE1B343D9DC106
100
AcDbXrecord
  1

  0
XRECORD
  5
7DE1B343D9DC107
102
{ACAD_REACTORS
330
7DE1B343D9DC106
102
}
330
7DE1B343D9DC106
100
AcDbXrecord
 90
        1
  0
XRECORD
  5
7DE1B343D9DC108
102
{ACAD_REACTORS
330
7DE1B343D9DC106
102
}
330
7DE1B343D9DC106
100
AcDbXrecord
 90
       70
  0
XRECORD
  5
7DE1B343D9DC11F
102
{ACAD_REACTORS
330
7DE1B343D9DC106
102
}
330
7DE1B343D9DC106
100
AcDbXrecord
340
0
  0
XRECORD
  5
7DE1B343D9DC125
102
{ACAD_REACTORS
330
7DE1B343D9DC106
102
}
330
7DE1B343D9DC106
100
AcDbXrecord
 10
0.0
 20
0.0
 30
0.0
  0
XRECORD
  5
7DE1B343D9DC121
102
{ACAD_REACTORS
330
7DE1B343D9DC106
102
}
330
7DE1B343D9DC106
100
AcDbXrecord
 10
0.0
 20
0.0
 30
0.0
  0
XRECORD
  5
7DE1B343D9DC124
102
{ACAD_REACTORS
330
7DE1B343D9DC106
102
}
330
7DE1B343D9DC106
100
AcDbXrecord
 10
0.0
 20
0.0
 30
0.0
  0
XRECORD
  5
7DE1B343D9DC122
102
{ACAD_REACTORS
330
7DE1B343D9DC106
102
}
330
7DE1B343D9DC106
100
AcDbXrecord
 10
0.0
 20
0.0
 30
0.0
  0
XRECORD
  5
7DE1B343D9DC123
102
{ACAD_REACTORS
330
7DE1B343D9DC106
102
}
330
7DE1B343D9DC106
100
AcDbXrecord
 10
0.0
 20
0.0
 30
0.0
  0
XRECORD
  5
7DE1B343D9DC120
102
{ACAD_REACTORS
330
7DE1B343D9DC106
102
}
330
7DE1B343D9DC106
100
AcDbXrecord
 10
0.0
 20
0.0
 30
0.0
  0
XRECORD
  5
7DE1B343D9DC11D
102
{ACAD_REACTORS
330
7DE1B343D9DC106
102
}
330
7DE1B343D9DC106
100
AcDbXrecord
340
0
  0
XRECORD
  5
7DE1B343D9DC11E
102
{ACAD_REACTORS
330
7DE1B343D9DC106
102
}
330
7DE1B343D9DC106
100
AcDbXrecord
 70
     0
  0
XRECORD
  5
7DE1B343D9DC112
102
{ACAD_REACTORS
330
7DE1B343D9DC106
102
}
330
7DE1B343D9DC106
100
AcDbXrecord
  1
{1A5E4D42-8DB5-11D6-88E6-0090279574E7}
  0
DICTIONARYVAR
  5
7DE1B343D9DC104
102
{ACAD_REACTORS
330
7DE1B343D9DC103
102
}
330
7DE1B343D9DC103
100
DictionaryVariables
280
     0
  1
1
  0
ENDSEC
  0
EOF
