  0
SECTION
  2
HEADER
  9
$ACADVER
  1
AC1014
  9
$ACADMAINTVER
 70
     9
  9
$DWGCODEPAGE
  3
ANSI_1252
  9
$INSBASE
 10
0.0
 20
0.0
 30
0.0
  9
$EXTMIN
 10
0.8341088363072284
 20
2.39495353692312
 30
0.0
  9
$EXTMAX
 10
6.846994384520815
 20
6.29684947691577
 30
0.0
  9
$LIMMIN
 10
0.0
 20
0.0
  9
$LIMMAX
 10
11.0
 20
8.5
  9
$ORTHOMODE
 70
     1
  9
$REGENMODE
 70
     1
  9
$FILLMODE
 70
     1
  9
$QTEXTMODE
 70
     0
  9
$MIRRTEXT
 70
     0
  9
$DRAGMODE
 70
     2
  9
$LTSCALE
 40
1.0
  9
$OSMODE
 70
    39
  9
$ATTMODE
 70
     1
  9
$TEXTSIZE
 40
0.125
  9
$TRACEWID
 40
0.05
  9
$TEXTSTYLE
  7
ROMANS
  9
$CLAYER
  8
TEXT
  9
$CELTYPE
  6
BYLAYER
  9
$CECOLOR
 62
   256
  9
$CELTSCALE
 40
1.0
  9
$DELOBJ
 70
     1
  9
$DISPSILH
 70
     1
  9
$DIMSCALE
 40
1.0
  9
$DIMASZ
 40
0.125
  9
$DIMEXO
 40
0.125
  9
$DIMDLI
 40
0.375
  9
$DIMRND
 40
0.0
  9
$DIMDLE
 40
0.0
  9
$DIMEXE
 40
0.125
  9
$DIMTP
 40
0.0
  9
$DIMTM
 40
0.05
  9
$DIMTXT
 40
0.125
  9
$DIMCEN
 40
-0.125
  9
$DIMTSZ
 40
0.0
  9
$DIMTOL
 70
     0
  9
$DIMLIM
 70
     0
  9
$DIMTIH
 70
     1
  9
$DIMTOH
 70
     1
  9
$DIMSE1
 70
     0
  9
$DIMSE2
 70
     0
  9
$DIMTAD
 70
     0
  9
$DIMZIN
 70
     4
  9
$DIMBLK
  1

  9
$DIMASO
 70
     1
  9
$DIMSHO
 70
     1
  9
$DIMPOST
  1

  9
$DIMAPOST
  1

  9
$DIMALT
 70
     0
  9
$DIMALTD
 70
     2
  9
$DIMALTF
 40
25.4
  9
$DIMLFAC
 40
1.0
  9
$DIMTOFL
 70
     0
  9
$DIMTVP
 40
0.0
  9
$DIMTIX
 70
     0
  9
$DIMSOXD
 70
     0
  9
$DIMSAH
 70
     0
  9
$DIMBLK1
  1

  9
$DIMBLK2
  1

  9
$DIMSTYLE
  2
STANDARD
  9
$DIMCLRD
 70
     0
  9
$DIMCLRE
 70
     0
  9
$DIMCLRT
 70
     0
  9
$DIMTFAC
 40
1.0
  9
$DIMGAP
 40
0.09
  9
$DIMJUST
 70
     0
  9
$DIMSD1
 70
     0
  9
$DIMSD2
 70
     0
  9
$DIMTOLJ
 70
     1
  9
$DIMTZIN
 70
     0
  9
$DIMALTZ
 70
     0
  9
$DIMALTTZ
 70
     0
  9
$DIMFIT
 70
     3
  9
$DIMUPT
 70
     0
  9
$DIMUNIT
 70
     2
  9
$DIMDEC
 70
     3
  9
$DIMTDEC
 70
     4
  9
$DIMALTU
 70
     2
  9
$DIMALTTD
 70
     2
  9
$DIMTXSTY
  7
ROMANS
  9
$DIMAUNIT
 70
     0
  9
$LUNITS
 70
     2
  9
$LUPREC
 70
     3
  9
$SKETCHINC
 40
0.1
  9
$FILLETRAD
 40
0.03125
  9
$AUNITS
 70
     0
  9
$AUPREC
 70
     0
  9
$MENU
  1
C:\R13\COM\SUPPORT\ACAD
  9
$ELEVATION
 40
0.0
  9
$PELEVATION
 40
0.0
  9
$THICKNESS
 40
0.0
  9
$LIMCHECK
 70
     0
  9
$BLIPMODE
 70
     0
  9
$CHAMFERA
 40
0.0
  9
$CHAMFERB
 40
0.0
  9
$CHAMFERC
 40
0.0
  9
$CHAMFERD
 40
0.0
  9
$SKPOLY
 70
     0
  9
$TDCREATE
 40
2448526.496017824
  9
$TDUPDATE
 40
2452458.300904525
  9
$TDINDWG
 40
0.0726384491
  9
$TDUSRTIMER
 40
0.0726384491
  9
$USRTIMER
 70
     1
  9
$ANGBASE
 50
0.0
  9
$ANGDIR
 70
     0
  9
$PDMODE
 70
     0
  9
$PDSIZE
 40
0.0
  9
$PLINEWID
 40
0.0
  9
$COORDS
 70
     2
  9
$SPLFRAME
 70
     0
  9
$SPLINETYPE
 70
     6
  9
$SPLINESEGS
 70
     8
  9
$ATTDIA
 70
     0
  9
$ATTREQ
 70
     1
  9
$HANDLING
 70
 22529
  9
$HANDSEED
  5
3A6
  9
$SURFTAB1
 70
     6
  9
$SURFTAB2
 70
     6
  9
$SURFTYPE
 70
     6
  9
$SURFU
 70
     6
  9
$SURFV
 70
     6
  9
$UCSNAME
  2

  9
$UCSORG
 10
0.0
 20
0.0
 30
0.0
  9
$UCSXDIR
 10
1.0
 20
0.0
 30
0.0
  9
$UCSYDIR
 10
0.0
 20
1.0
 30
0.0
  9
$PUCSNAME
  2

  9
$PUCSORG
 10
0.0
 20
0.0
 30
0.0
  9
$PUCSXDIR
 10
1.0
 20
0.0
 30
0.0
  9
$PUCSYDIR
 10
0.0
 20
1.0
 30
0.0
  9
$USERI1
 70
     0
  9
$USERI2
 70
     0
  9
$USERI3
 70
     0
  9
$USERI4
 70
     0
  9
$USERI5
 70
     0
  9
$USERR1
 40
0.0
  9
$USERR2
 40
0.0
  9
$USERR3
 40
0.0
  9
$USERR4
 40
0.0
  9
$USERR5
 40
0.0
  9
$WORLDVIEW
 70
     1
  9
$SHADEDGE
 70
     3
  9
$SHADEDIF
 70
    70
  9
$TILEMODE
 70
     1
  9
$MAXACTVP
 70
    16
  9
$PINSBASE
 10
0.0
 20
0.0
 30
0.0
  9
$PLIMCHECK
 70
     0
  9
$PEXTMIN
 10
1.000000000000000E+20
 20
1.000000000000000E+20
 30
1.000000000000000E+20
  9
$PEXTMAX
 10
-1.000000000000000E+20
 20
-1.000000000000000E+20
 30
-1.000000000000000E+20
  9
$PLIMMIN
 10
0.0
 20
0.0
  9
$PLIMMAX
 10
12.0
 20
9.0
  9
$UNITMODE
 70
     0
  9
$VISRETAIN
 70
     0
  9
$PLINEGEN
 70
     1
  9
$PSLTSCALE
 70
     0
  9
$TREEDEPTH
 70
  3020
  9
$PICKSTYLE
 70
     1
  9
$CMLSTYLE
  2
STANDARD
  9
$CMLJUST
 70
     0
  9
$CMLSCALE
 40
1.0
  9
$PROXYGRAPHICS
 70
     1
  9
$MEASUREMENT
 70
     0
  0
ENDSEC
  0
SECTION
  2
CLASSES
  0
CLASS
  1
LWPOLYLINE
  2
AcDbPolyline
  3
AutoCAD 2000
 90
        0
280
     0
281
     1
  0
CLASS
  1
ACDBDICTIONARYWDFLT
  2
AcDbDictionaryWithDefault
  3
AutoCAD 2000
 90
        0
280
     0
281
     0
  0
CLASS
  1
ACDBPLACEHOLDER
  2
AcDbPlaceHolder
  3
AutoCAD 2000
 90
        0
280
     0
281
     0
  0
CLASS
  1
LAYOUT
  2
AcDbLayout
  3
AutoCAD 2000
 90
        0
280
     0
281
     0
  0
CLASS
  1
DICTIONARYVAR
  2
AcDbDictionaryVar
  3
AutoCAD 2000
 90
        0
280
     0
281
     0
  0
CLASS
  1
LONG_TRANSACTION
  2
AcDbLongTransaction
  3
AutoCAD 2000
 90
        0
280
     0
281
     0
  0
CLASS
  1
LWPOLYLINE
  2
AcDbPolyline
  3
AutoCAD 2000
 90
        0
280
     0
281
     1
  0
CLASS
  1
HATCH
  2
AcDbHatch
  3
AutoCAD 2000
 90
        0
280
     0
281
     1
  0
CLASS
  1
XRECORD
  2
AcDbXrecord
  3
AutoCAD 2000
 90
        0
280
     0
281
     0
  0
ENDSEC
  0
SECTION
  2
TABLES
  0
TABLE
  2
VPORT
  5
8
330
0
100
AcDbSymbolTable
 70
     2
  0
VPORT
  5
381
330
8
100
AcDbSymbolTableRecord
100
AcDbViewportTableRecord
  2
*ACTIVE
 70
     0
 10
0.0
 20
0.0
 11
1.0
 21
1.0
 12
27.56283880157958
 22
3.836101229285911
 13
0.0
 23
0.0
 14
0.125
 24
0.125
 15
0.0
 25
0.0
 16
0.0
 26
0.0
 36
1.0
 17
0.0
 27
0.0
 37
0.0
 40
15.79976506142654
 41
4.320930232558139
 42
50.0
 43
0.0
 44
0.0
 50
0.0
 51
0.0
 71
     0
 72
  2000
 73
     1
 74
     1
 75
     0
 76
     0
 77
     0
 78
     0
  0
ENDTAB
  0
TABLE
  2
LTYPE
  5
5
330
0
100
AcDbSymbolTable
 70
     1
  0
LTYPE
  5
12
330
5
100
AcDbSymbolTableRecord
100
AcDbLinetypeTableRecord
  2
BYBLOCK
 70
     0
  3

 72
    65
 73
     0
 40
0.0
  0
LTYPE
  5
13
330
5
100
AcDbSymbolTableRecord
100
AcDbLinetypeTableRecord
  2
BYLAYER
 70
     0
  3

 72
    65
 73
     0
 40
0.0
  0
LTYPE
  5
14
330
5
100
AcDbSymbolTableRecord
100
AcDbLinetypeTableRecord
  2
CONTINUOUS
 70
     0
  3
Solid line
 72
    65
 73
     0
 40
0.0
  0
ENDTAB
  0
TABLE
  2
LAYER
  5
2
330
0
100
AcDbSymbolTable
 70
     2
  0
LAYER
  5
F
330
2
100
AcDbSymbolTableRecord
100
AcDbLayerTableRecord
  2
0
 70
     0
 62
     7
  6
CONTINUOUS
  0
LAYER
  5
2B
330
2
100
AcDbSymbolTableRecord
100
AcDbLayerTableRecord
  2
TEXT
 70
     0
 62
     3
  6
CONTINUOUS
  0
ENDTAB
  0
TABLE
  2
STYLE
  5
3
330
0
100
AcDbSymbolTable
 70
     3
  0
STYLE
  5
10
330
3
100
AcDbSymbolTableRecord
100
AcDbTextStyleTableRecord
  2
STANDARD
 70
     0
 40
0.0
 41
1.0
 50
0.0
 71
     0
 42
0.25
  3
txt
  4

  0
STYLE
  5
26D
330
3
100
AcDbSymbolTableRecord
100
AcDbTextStyleTableRecord
  2
ITALICC
 70
     0
 40
0.0
 41
1.0
 50
0.0
 71
     0
 42
0.125
  3
italicc
  4

  0
STYLE
  5
37D
330
3
100
AcDbSymbolTableRecord
100
AcDbTextStyleTableRecord
  2
ROMANS
 70
     0
 40
0.0
 41
1.0
 50
0.0
 71
     0
 42
0.125
  3
romans.shx
  4

  0
ENDTAB
  0
TABLE
  2
VIEW
  5
6
330
0
100
AcDbSymbolTable
 70
     0
  0
ENDTAB
  0
TABLE
  2
UCS
  5
7
330
0
100
AcDbSymbolTable
 70
     0
  0
ENDTAB
  0
TABLE
  2
APPID
  5
9
330
0
100
AcDbSymbolTable
 70
     1
  0
APPID
  5
11
330
9
100
AcDbSymbolTableRecord
100
AcDbRegAppTableRecord
  2
ACAD
 70
     0
  0
ENDTAB
  0
TABLE
  2
DIMSTYLE
  5
A
330
0
100
AcDbSymbolTable
 70
     1
  0
DIMSTYLE
105
256
330
A
100
AcDbSymbolTableRecord
100
AcDbDimStyleTableRecord
  2
STANDARD
 70
     0
  3

  4

  5

  6

  7

 40
1.0
 41
0.18
 42
0.0625
 43
0.38
 44
0.18
 45
0.0
 46
0.0
 47
0.0
 48
0.0
140
0.18
141
0.09
142
0.0
143
25.4
144
1.0
145
0.0
146
1.0
147
0.09
 71
     0
 72
     0
 73
     1
 74
     1
 75
     0
 76
     0
 77
     0
 78
     0
170
     0
171
     2
172
     0
173
     0
174
     0
175
     0
176
     0
177
     0
178
     0
270
     2
271
     4
272
     4
273
     2
274
     2
340
10
275
     0
280
     0
281
     0
282
     0
283
     1
284
     0
285
     0
286
     0
287
     3
288
     0
  0
ENDTAB
  0
TABLE
  2
BLOCK_RECORD
  5
1
330
0
100
AcDbSymbolTable
 70
     0
  0
BLOCK_RECORD
  5
18
102
{ACAD_XDICTIONARY
360
3A4
102
}
330
1
100
AcDbSymbolTableRecord
100
AcDbBlockTableRecord
  2
*MODEL_SPACE
  0
BLOCK_RECORD
  5
15
102
{ACAD_XDICTIONARY
360
3A2
102
}
330
1
100
AcDbSymbolTableRecord
100
AcDbBlockTableRecord
  2
*PAPER_SPACE
  0
ENDTAB
  0
ENDSEC
  0
SECTION
  2
BLOCKS
  0
BLOCK
  5
35
330
18
100
AcDbEntity
  8
0
100
AcDbBlockBegin
  2
*MODEL_SPACE
 70
     0
 10
0.0
 20
0.0
 30
0.0
  3
*MODEL_SPACE
  1

  0
ENDBLK
  5
36
330
18
100
AcDbEntity
  8
0
100
AcDbBlockEnd
  0
BLOCK
  5
33
330
15
100
AcDbEntity
 67
     1
  8
0
100
AcDbBlockBegin
  2
*PAPER_SPACE
 70
     0
 10
0.0
 20
0.0
 30
0.0
  3
*PAPER_SPACE
  1

  0
ENDBLK
  5
34
330
15
100
AcDbEntity
 67
     1
  8
0
100
AcDbBlockEnd
  0
ENDSEC
  0
SECTION
  2
ENTITIES
  0
LWPOLYLINE
  5
230
330
18
100
AcDbEntity
  8
0
100
AcDbPolyline
 90
       19
 70
     1
 43
0.0
 10
6.144482909122472
 20
3.346252094313845
 42
-0.2679491924311274
 10
6.117419615254208
 20
3.361877094313846
 10
6.090356321385946
 20
3.408752094313847
 10
6.205356321385942
 20
3.408752094313847
 10
6.215356321385942
 20
3.398752094313847
 10
6.225356321385942
 20
3.408752094313847
 10
6.274844372182826
 20
3.408752094313847
 42
0.3992654023230345
 10
3.840551610414021
 20
5.721252094313847
 42
0.3992654023230345
 10
1.406258848645216
 20
3.408752094313847
 10
1.590746899442096
 20
3.408752094313847
 10
1.563683605573832
 20
3.361877094313846
 42
-0.2679491924311238
 10
1.536620311705568
 20
3.346252094313846
 10
1.40385302421178
 20
3.346252094313846
 42
0.0032463289609347
 10
1.403246899442096
 20
3.314606524693592
 42
-0.9999999999999998
 10
1.340751906853072
 20
3.3153976639341
 42
-0.410510795621761
 10
3.840551610414021
 20
5.783752094313847
 42
-0.410510795621761
 10
6.34035131397497
 20
3.3153976639341
 42
-1.0
 10
6.277856321385946
 20
3.314606524693593
 42
0.0032463289609347
 10
6.277250196616262
 20
3.346252094313846
  0
TEXT
  5
2F3
330
18
100
AcDbEntity
  8
TEXT
100
AcDbText
 10
3.072709677826849
 20
2.852972141005702
 30
0.0
 40
0.125
  1
PART #110211
  7
ITALICC
 72
     1
 11
3.813781106398278
 21
2.852972141005702
 31
0.0
100
AcDbText
  0
LINE
  5
2F4
330
18
100
AcDbEntity
  8
TEXT
100
AcDbLine
 10
3.781514605350341
 20
2.608618454985868
 30
0.0
 11
3.858162586642898
 21
2.608618454985868
 31
0.0
  0
LINE
  5
2F5
330
18
100
AcDbEntity
  8
TEXT
100
AcDbLine
 10
3.853682699316398
 20
2.672895149642633
 30
0.0
 11
3.786182981666882
 21
2.672895149642633
 31
0.0
  0
LWPOLYLINE
  5
2F6
330
18
100
AcDbEntity
  8
TEXT
100
AcDbPolyline
 90
        5
 70
     0
 43
0.0001332181640625
 10
2.144402562815665
 20
2.54966834788482
 10
2.157724379221914
 20
2.54966834788482
 10
2.157724379221914
 20
2.58630334300201
 10
2.194359374339104
 20
2.58630334300201
 10
2.194359374339104
 20
2.599625159408257
  0
LWPOLYLINE
  5
2F7
330
18
100
AcDbEntity
  8
TEXT
100
AcDbPolyline
 90
        3
 70
     0
 43
0.0006660908203125
 10
2.184368012034413
 20
2.646251516830136
 10
2.097776205393789
 20
2.646251516830136
 10
2.097776205393789
 20
2.559659710189509
  0
LWPOLYLINE
  5
2F8
330
18
100
AcDbEntity
  8
TEXT
100
AcDbPolyline
 90
        3
 70
     0
 43
0.0006660908203125
 10
2.184368012034413
 20
2.672895149642637
 10
2.071132572581291
 20
2.672895149642637
 10
2.071132572581291
 20
2.559659710189509
  0
LWPOLYLINE
  5
2F9
330
18
100
AcDbEntity
  8
TEXT
100
AcDbPolyline
 90
        5
 70
     0
 43
0.0001332181640625
 10
2.194359374339104
 20
2.47972881175201
 10
2.194359374339104
 20
2.49305062815826
 10
2.157724379221916
 20
2.49305062815826
 10
2.157724379221916
 20
2.529685623275446
 10
2.144402562815665
 20
2.529685623275446
  0
LWPOLYLINE
  5
2FA
330
18
100
AcDbEntity
  8
TEXT
100
AcDbPolyline
 90
        3
 70
     0
 43
0.0006660908203125
 10
2.097776205393789
 20
2.519694260970761
 10
2.097776205393789
 20
2.433102454330135
 10
2.184368012034413
 20
2.433102454330135
  0
LWPOLYLINE
  5
2FB
330
18
100
AcDbEntity
  8
TEXT
100
AcDbPolyline
 90
        3
 70
     0
 43
0.0006660908203125
 10
2.071132572581291
 20
2.519694260970761
 10
2.071132572581291
 20
2.406458821517634
 10
2.184368012034413
 20
2.406458821517634
  0
LWPOLYLINE
  5
2FC
330
18
100
AcDbEntity
  8
TEXT
100
AcDbPolyline
 90
        2
 70
     0
 43
0.0001332181640625
 10
2.097776205393789
 20
2.519694260970761
 10
2.157724379221916
 20
2.529685623275446
  0
LWPOLYLINE
  5
2FD
330
18
100
AcDbEntity
  8
TEXT
100
AcDbPolyline
 90
        2
 70
     0
 43
0.0001332181640625
 10
2.144402562815665
 20
2.529685623275446
 10
2.071132572581291
 20
2.519694260970761
  0
LWPOLYLINE
  5
2FE
330
18
100
AcDbEntity
  8
TEXT
100
AcDbPolyline
 90
        2
 70
     0
 43
0.0006660908203125
 10
2.097776205393789
 20
2.519694260970761
 10
2.071132572581291
 20
2.519694260970761
  0
LWPOLYLINE
  5
2FF
330
18
100
AcDbEntity
  8
TEXT
100
AcDbPolyline
 90
        2
 70
     0
 43
0.0001332181640625
 10
2.097776205393789
 20
2.433102454330135
 10
2.157724379221916
 20
2.49305062815826
  0
LWPOLYLINE
  5
300
330
18
100
AcDbEntity
  8
TEXT
100
AcDbPolyline
 90
        2
 70
     0
 43
0.0006660908203125
 10
2.097776205393789
 20
2.559659710189509
 10
2.071132572581291
 20
2.559659710189509
  0
LWPOLYLINE
  5
301
330
18
100
AcDbEntity
  8
TEXT
100
AcDbPolyline
 90
        2
 70
     0
 43
0.0001332181640625
 10
2.071132572581291
 20
2.559659710189509
 10
2.144402562815665
 20
2.54966834788482
  0
LWPOLYLINE
  5
302
330
18
100
AcDbEntity
  8
TEXT
100
AcDbPolyline
 90
        2
 70
     0
 43
0.0001332181640625
 10
2.097776205393789
 20
2.559659710189509
 10
2.157724379221914
 20
2.54966834788482
  0
LWPOLYLINE
  5
303
330
18
100
AcDbEntity
  8
TEXT
100
AcDbPolyline
 90
        2
 70
     0
 43
0.0001332181640625
 10
2.097776205393789
 20
2.646251516830136
 10
2.157724379221914
 20
2.58630334300201
  0
LWPOLYLINE
  5
304
330
18
100
AcDbEntity
  8
TEXT
100
AcDbPolyline
 90
        5
 70
     0
 43
0.0001332181640625
 10
2.264298910471915
 20
2.529685623275446
 10
2.250977094065666
 20
2.529685623275446
 10
2.250977094065666
 20
2.49305062815826
 10
2.214342098948476
 20
2.49305062815826
 10
2.214342098948476
 20
2.47972881175201
  0
LWPOLYLINE
  5
305
330
18
100
AcDbEntity
  8
TEXT
100
AcDbPolyline
 90
        2
 70
     0
 43
0.0001332181640625
 10
2.31092526789379
 20
2.519694260970761
 10
2.250977094065666
 20
2.529685623275446
  0
LWPOLYLINE
  5
306
330
18
100
AcDbEntity
  8
TEXT
100
AcDbPolyline
 90
        2
 70
     0
 43
0.0001332181640625
 10
2.337568900706291
 20
2.519694260970761
 10
2.264298910471915
 20
2.529685623275446
  0
LWPOLYLINE
  5
307
330
18
100
AcDbEntity
  8
TEXT
100
AcDbPolyline
 90
        3
 70
     0
 43
0.0006660908203125
 10
2.224333461253165
 20
2.406458821517634
 10
2.337568900706291
 20
2.406458821517634
 10
2.337568900706291
 20
2.519694260970761
  0
LWPOLYLINE
  5
308
330
18
100
AcDbEntity
  8
TEXT
100
AcDbPolyline
 90
        3
 70
     0
 43
0.0006660908203125
 10
2.224333461253165
 20
2.433102454330135
 10
2.31092526789379
 20
2.433102454330135
 10
2.31092526789379
 20
2.519694260970761
  0
LWPOLYLINE
  5
309
330
18
100
AcDbEntity
  8
TEXT
100
AcDbPolyline
 90
        2
 70
     0
 43
0.0001332181640625
 10
2.31092526789379
 20
2.433102454330135
 10
2.250977094065666
 20
2.49305062815826
  0
LWPOLYLINE
  5
30A
330
18
100
AcDbEntity
  8
TEXT
100
AcDbPolyline
 90
        2
 70
     0
 43
0.0006660908203125
 10
2.224333461253165
 20
2.433102454330135
 10
2.224333461253165
 20
2.406458821517634
  0
LWPOLYLINE
  5
30B
330
18
100
AcDbEntity
  8
TEXT
100
AcDbPolyline
 90
        2
 70
     0
 43
0.0001332181640625
 10
2.214342098948476
 20
2.47972881175201
 10
2.224333461253165
 20
2.406458821517634
  0
LWPOLYLINE
  5
30C
330
18
100
AcDbEntity
  8
TEXT
100
AcDbPolyline
 90
        2
 70
     0
 43
0.0001332181640625
 10
2.224333461253165
 20
2.433102454330135
 10
2.214342098948476
 20
2.49305062815826
  0
LWPOLYLINE
  5
30D
330
18
100
AcDbEntity
  8
TEXT
100
AcDbPolyline
 90
        2
 70
     0
 43
0.0001332181640625
 10
2.184368012034413
 20
2.406458821517634
 10
2.194359374339104
 20
2.47972881175201
  0
LWPOLYLINE
  5
30E
330
18
100
AcDbEntity
  8
TEXT
100
AcDbPolyline
 90
        2
 70
     0
 43
0.0001332181640625
 10
2.184368012034413
 20
2.433102454330135
 10
2.194359374339104
 20
2.49305062815826
  0
LWPOLYLINE
  5
30F
330
18
100
AcDbEntity
  8
TEXT
100
AcDbPolyline
 90
        2
 70
     0
 43
0.0006660908203125
 10
2.184368012034413
 20
2.433102454330135
 10
2.184368012034413
 20
2.406458821517634
  0
LWPOLYLINE
  5
310
330
18
100
AcDbEntity
  8
TEXT
100
AcDbPolyline
 90
        2
 70
     0
 43
0.0006660908203125
 10
2.31092526789379
 20
2.519694260970761
 10
2.337568900706291
 20
2.519694260970761
  0
LWPOLYLINE
  5
311
330
18
100
AcDbEntity
  8
TEXT
100
AcDbPolyline
 90
        2
 70
     0
 43
0.0001332181640625
 10
2.31092526789379
 20
2.646251516830136
 10
2.250977094065666
 20
2.58630334300201
  0
LWPOLYLINE
  5
312
330
18
100
AcDbEntity
  8
TEXT
100
AcDbPolyline
 90
        2
 70
     0
 43
0.0001332181640625
 10
2.31092526789379
 20
2.559659710189509
 10
2.250977094065666
 20
2.54966834788482
  0
LWPOLYLINE
  5
313
330
18
100
AcDbEntity
  8
TEXT
100
AcDbPolyline
 90
        2
 70
     0
 43
0.0001332181640625
 10
2.264298910471915
 20
2.54966834788482
 10
2.337568900706291
 20
2.559659710189509
  0
LWPOLYLINE
  5
314
330
18
100
AcDbEntity
  8
TEXT
100
AcDbPolyline
 90
        3
 70
     0
 43
0.0006660908203125
 10
2.31092526789379
 20
2.559659710189509
 10
2.31092526789379
 20
2.646251516830136
 10
2.224333461253165
 20
2.646251516830136
  0
LWPOLYLINE
  5
315
330
18
100
AcDbEntity
  8
TEXT
100
AcDbPolyline
 90
        3
 70
     0
 43
0.0006660908203125
 10
2.337568900706291
 20
2.559659710189509
 10
2.337568900706291
 20
2.672895149642637
 10
2.224333461253165
 20
2.672895149642637
  0
LWPOLYLINE
  5
316
330
18
100
AcDbEntity
  8
TEXT
100
AcDbPolyline
 90
        2
 70
     0
 43
0.0001332181640625
 10
2.224333461253165
 20
2.672895149642637
 10
2.214342098948476
 20
2.599625159408257
  0
LWPOLYLINE
  5
317
330
18
100
AcDbEntity
  8
TEXT
100
AcDbPolyline
 90
        2
 70
     0
 43
0.0001332181640625
 10
2.224333461253165
 20
2.646251516830136
 10
2.214342098948476
 20
2.58630334300201
  0
LWPOLYLINE
  5
318
330
18
100
AcDbEntity
  8
TEXT
100
AcDbPolyline
 90
        2
 70
     0
 43
0.0006660908203125
 10
2.224333461253165
 20
2.646251516830136
 10
2.224333461253165
 20
2.672895149642637
  0
LWPOLYLINE
  5
319
330
18
100
AcDbEntity
  8
TEXT
100
AcDbPolyline
 90
        5
 70
     0
 43
0.0001332181640625
 10
2.214342098948476
 20
2.599625159408257
 10
2.214342098948476
 20
2.58630334300201
 10
2.250977094065666
 20
2.58630334300201
 10
2.250977094065666
 20
2.54966834788482
 10
2.264298910471915
 20
2.54966834788482
  0
LWPOLYLINE
  5
31A
330
18
100
AcDbEntity
  8
TEXT
100
AcDbPolyline
 90
        2
 70
     0
 43
0.0001332181640625
 10
2.184368012034413
 20
2.646251516830136
 10
2.194359374339104
 20
2.58630334300201
  0
LWPOLYLINE
  5
31B
330
18
100
AcDbEntity
  8
TEXT
100
AcDbPolyline
 90
        2
 70
     0
 43
0.0001332181640625
 10
2.194359374339104
 20
2.599625159408257
 10
2.184368012034413
 20
2.672895149642637
  0
LWPOLYLINE
  5
31C
330
18
100
AcDbEntity
  8
TEXT
100
AcDbPolyline
 90
        2
 70
     0
 43
0.0006660908203125
 10
2.184368012034413
 20
2.646251516830136
 10
2.184368012034413
 20
2.672895149642637
  0
LWPOLYLINE
  5
31D
330
18
100
AcDbEntity
  8
TEXT
100
AcDbPolyline
 90
        2
 70
     0
 43
0.0006660908203125
 10
2.31092526789379
 20
2.559659710189509
 10
2.337568900706291
 20
2.559659710189509
  0
LWPOLYLINE
  5
31E
330
18
100
AcDbEntity
  8
TEXT
100
AcDbPolyline
 90
        2
 70
     0
 43
0.0
 10
3.056348821454921
 20
2.457973458869051
 42
0.3318488747599744
 10
3.125468114020234
 20
2.406422116654122
 42
-6.868794160588311
  0
LINE
  5
31F
330
18
100
AcDbEntity
  8
TEXT
100
AcDbLine
 10
3.124328540524039
 20
2.740906627381444
 30
0.0
 11
3.057519827957674
 21
2.740906627381444
 31
0.0
  0
LINE
  5
320
330
18
100
AcDbEntity
  8
TEXT
100
AcDbLine
 10
2.77817746033858
 20
2.672895149642633
 30
0.0
 11
2.602445707440068
 21
2.672895149642633
 31
0.0
  0
ARC
  5
321
330
18
100
AcDbEntity
  8
TEXT
100
AcDbCircle
 10
2.673283173798618
 20
2.489617925014679
 30
0.0
 40
0.0831958083605586
100
AcDbArc
 50
270.0
 51
90.0
  0
LINE
  5
322
330
18
100
AcDbEntity
  8
TEXT
100
AcDbLine
 10
2.607683037554316
 20
2.608618454985868
 30
0.0
 11
2.774588691583287
 21
2.608618454985868
 31
0.0
  0
LINE
  5
323
330
18
100
AcDbEntity
  8
TEXT
100
AcDbLine
 10
2.678223547704897
 20
2.474779122987562
 30
0.0
 11
2.520358247993563
 21
2.474779122987562
 31
0.0
  0
LINE
  5
324
330
18
100
AcDbEntity
  8
TEXT
100
AcDbLine
 10
2.520358247993565
 20
2.406422116654122
 30
0.0
 11
2.673283173798617
 21
2.406422116654122
 31
0.0
  0
ARC
  5
325
330
18
100
AcDbEntity
  8
TEXT
100
AcDbCircle
 10
2.602445707440069
 20
2.590807690196132
 30
0.0
 40
0.0820874594465043
100
AcDbArc
 50
90.0
 51
270.0
  0
LINE
  5
326
330
18
100
AcDbEntity
  8
TEXT
100
AcDbLine
 10
2.520358247993563
 20
2.474779122987562
 30
0.0
 11
2.520358247993565
 21
2.406422116654122
 31
0.0
  0
LINE
  5
327
330
18
100
AcDbEntity
  8
TEXT
100
AcDbLine
 10
2.602445707440068
 20
2.508720230749626
 30
0.0
 11
2.678223547704897
 21
2.508720230749626
 31
0.0
  0
ARC
  5
328
330
18
100
AcDbEntity
  8
TEXT
100
AcDbCircle
 10
2.678223547704897
 20
2.491749676868596
 30
0.0
 40
0.0169705538810321
100
AcDbArc
 50
270.0
 51
90.0
  0
LINE
  5
329
330
18
100
AcDbEntity
  8
TEXT
100
AcDbLine
 10
2.673283173798617
 20
2.57281373337524
 30
0.0
 11
2.607683037554316
 21
2.57281373337524
 31
0.0
  0
ARC
  5
32A
330
18
100
AcDbEntity
  8
TEXT
100
AcDbCircle
 10
2.607683037554317
 20
2.590716094180556
 30
0.0
 40
0.017902360805315
100
AcDbArc
 50
90.0
 51
270.0
  0
LINE
  5
32B
330
18
100
AcDbEntity
  8
TEXT
100
AcDbLine
 10
2.968649352358432
 20
2.572023153529513
 30
0.0
 11
2.910019031326494
 21
2.672895149642633
 31
0.0
  0
LINE
  5
32C
330
18
100
AcDbEntity
  8
TEXT
100
AcDbLine
 10
2.828475299063392
 20
2.406422116654122
 30
0.0
 11
2.925115550138387
 21
2.406692755752405
 31
0.0
  0
LWPOLYLINE
  5
32D
330
18
100
AcDbEntity
  8
TEXT
100
AcDbPolyline
 90
        6
 70
     1
 43
0.0
 10
2.870999102638542
 20
2.608618454985868
 10
2.840682508418334
 20
2.608618454985868
 10
2.840682508418334
 20
2.485507456930974
 42
0.407328721240804
 10
2.85222615957981
 20
2.473688542254588
 10
2.912847858624541
 20
2.473688542254588
 10
2.930313199031859
 20
2.506500771298067
  0
LINE
  5
32E
330
18
100
AcDbEntity
  8
TEXT
100
AcDbLine
 10
2.774588691583287
 20
2.608618454985868
 30
0.0
 11
2.774588691583287
 21
2.466214507992172
 31
0.0
  0
ARC
  5
32F
330
18
100
AcDbEntity
  8
TEXT
100
AcDbCircle
 10
2.834704709557039
 20
2.466214507992172
 30
0.0
 40
0.0601160179737537
100
AcDbArc
 50
180.0000000000003
 51
264.0521544866073
  0
LINE
  5
330
330
18
100
AcDbEntity
  8
TEXT
100
AcDbLine
 10
2.838220065182587
 20
2.707283067236772
 30
0.0
 11
2.77817746033858
 21
2.707283067236772
 31
0.0
  0
LINE
  5
331
330
18
100
AcDbEntity
  8
TEXT
100
AcDbLine
 10
2.77817746033858
 20
2.707283067236772
 30
0.0
 11
2.77817746033858
 21
2.672895149642633
 31
0.0
  0
LINE
  5
332
330
18
100
AcDbEntity
  8
TEXT
100
AcDbLine
 10
2.838220065182587
 20
2.672895149642633
 30
0.0
 11
2.838220065182587
 21
2.707283067236772
 31
0.0
  0
LINE
  5
333
330
18
100
AcDbEntity
  8
TEXT
100
AcDbLine
 10
2.910019031326494
 20
2.672895149642633
 30
0.0
 11
2.838220065182587
 21
2.672895149642633
 31
0.0
  0
LINE
  5
334
330
18
100
AcDbEntity
  8
TEXT
100
AcDbLine
 10
2.959049115361477
 20
2.426380622759135
 30
0.0
 11
3.056348821454922
 21
2.590730833694403
 31
0.0
  0
LINE
  5
335
330
18
100
AcDbEntity
  8
TEXT
100
AcDbLine
 10
3.056348821454922
 20
2.590730833694403
 30
0.0
 11
3.056348821454922
 21
2.457973458869047
 31
0.0
  0
ARC
  5
336
330
18
100
AcDbEntity
  8
TEXT
100
AcDbCircle
 10
2.925005555449264
 20
2.445969838927818
 30
0.0
 40
0.0392772371940762
100
AcDbArc
 50
270.1604552698595
 51
330.0831797321295
  0
LINE
  5
337
330
18
100
AcDbEntity
  8
TEXT
100
AcDbLine
 10
3.027397915164297
 20
2.672895149642633
 30
0.0
 11
2.968649352358432
 21
2.572023153529513
 31
0.0
  0
LINE
  5
338
330
18
100
AcDbEntity
  8
TEXT
100
AcDbLine
 10
3.057519827957674
 20
2.740906627381444
 30
0.0
 11
3.057519827957674
 21
2.672895149642633
 31
0.0
  0
LINE
  5
339
330
18
100
AcDbEntity
  8
TEXT
100
AcDbLine
 10
3.057519827957674
 20
2.672895149642633
 30
0.0
 11
3.027397915164297
 21
2.672895149642633
 31
0.0
  0
LWPOLYLINE
  5
33A
330
18
100
AcDbEntity
  8
TEXT
100
AcDbPolyline
 90
        4
 70
     0
 43
0.0
 10
3.409605949577832
 20
2.601064665819758
 10
3.409605949577832
 20
2.406422116654122
 10
3.47808423286569
 20
2.406422116654122
 10
3.47808423286569
 20
2.449913061604561
 42
-1.714843617202739
  0
LWPOLYLINE
  5
33B
330
18
100
AcDbEntity
  8
TEXT
100
AcDbPolyline
 90
        2
 70
     0
 43
0.0
 10
3.444740300122042
 20
2.672895149642637
 42
-0.3277054968067132
 10
3.480521990835207
 20
2.644572603872993
 42
6.667889725900311
  0
LWPOLYLINE
  5
33C
330
18
100
AcDbEntity
  8
TEXT
100
AcDbPolyline
 90
        2
 70
     0
 43
0.0
 10
3.273306727542815
 20
2.608618454985868
 42
-0.4142135623731017
 10
3.280860516708928
 20
2.601064665819758
 42
-0.9999999999999998
  0
LINE
  5
33D
330
18
100
AcDbEntity
  8
TEXT
100
AcDbLine
 10
3.290658450592835
 20
2.672895149642633
 30
0.0
 11
3.156640394661699
 21
2.672895149642633
 31
0.0
  0
LINE
  5
33E
330
18
100
AcDbEntity
  8
TEXT
100
AcDbLine
 10
3.223471447719668
 20
2.406422116654122
 30
0.0
 11
3.223471447719668
 21
2.608618454985868
 31
0.0
  0
LINE
  5
33F
330
18
100
AcDbEntity
  8
TEXT
100
AcDbLine
 10
3.156640394661699
 20
2.672895149642633
 30
0.0
 11
3.156640394661699
 21
2.472030942910225
 31
0.0
  0
LINE
  5
340
330
18
100
AcDbEntity
  8
TEXT
100
AcDbLine
 10
3.124328540524039
 20
2.488809954757122
 30
0.0
 11
3.124328540524039
 21
2.740906627381444
 31
0.0
  0
LINE
  5
341
330
18
100
AcDbEntity
  8
TEXT
100
AcDbLine
 10
3.125468114020233
 20
2.406422116654122
 30
0.0
 11
3.223471447719668
 21
2.406422116654122
 31
0.0
  0
LINE
  5
342
330
18
100
AcDbEntity
  8
TEXT
100
AcDbLine
 10
3.156640394661699
 20
2.472030942910225
 30
0.0
 11
3.139646757777097
 21
2.472030942910225
 31
0.0
  0
ARC
  5
343
330
18
100
AcDbEntity
  8
TEXT
100
AcDbCircle
 10
3.139646757777097
 20
2.487412749153651
 30
0.0
 40
0.0153818062434269
100
AcDbArc
 50
174.7883570302258
 51
270.0
  0
LINE
  5
344
330
18
100
AcDbEntity
  8
TEXT
100
AcDbLine
 10
3.223471447719668
 20
2.608618454985868
 30
0.0
 11
3.273306727542816
 21
2.608618454985868
 31
0.0
  0
LINE
  5
345
330
18
100
AcDbEntity
  8
TEXT
100
AcDbLine
 10
3.280860516708929
 20
2.601064665819758
 30
0.0
 11
3.280860516708929
 21
2.406422116654122
 31
0.0
  0
LINE
  5
346
330
18
100
AcDbEntity
  8
TEXT
100
AcDbLine
 10
3.347918563490769
 20
2.406422116654122
 30
0.0
 11
3.347918563490769
 21
2.608618454985868
 31
0.0
  0
LINE
  5
347
330
18
100
AcDbEntity
  8
TEXT
100
AcDbLine
 10
3.280860516708929
 20
2.406422116654122
 30
0.0
 11
3.347918563490769
 21
2.406422116654122
 31
0.0
  0
LWPOLYLINE
  5
348
330
18
100
AcDbEntity
  8
TEXT
100
AcDbPolyline
 90
        3
 70
     0
 43
0.0
 10
3.444740300122042
 20
2.672895149642637
 10
3.326440141305997
 20
2.672895149642637
 10
3.326440141305997
 20
2.645727652881741
 42
-1.960274751411753
  0
LINE
  5
349
330
18
100
AcDbEntity
  8
TEXT
100
AcDbLine
 10
3.347918563490769
 20
2.608618454985868
 30
0.0
 11
3.402052160411719
 21
2.608618454985868
 31
0.0
  0
LWPOLYLINE
  5
34A
330
18
100
AcDbEntity
  8
TEXT
100
AcDbPolyline
 90
        2
 70
     0
 43
0.0
 10
3.290658450592836
 20
2.672895149642637
 42
-0.3328679258950098
 10
3.326440141305997
 20
2.645727652881741
 42
6.772930709997214
  0
LWPOLYLINE
  5
34B
330
18
100
AcDbEntity
  8
TEXT
100
AcDbPolyline
 90
        2
 70
     0
 43
0.0
 10
3.402052160411718
 20
2.608618454985868
 42
-0.4142135623731017
 10
3.409605949577832
 20
2.601064665819758
 42
-0.9999999999999998
  0
ARC
  5
34C
330
18
100
AcDbEntity
  8
TEXT
100
AcDbCircle
 10
3.613326960275198
 20
2.631311582521731
 30
0.0
 40
0.0416329381542859
100
AcDbArc
 50
26.56974201007528
 51
87.20939649401342
  0
LWPOLYLINE
  5
34D
330
18
100
AcDbEntity
  8
TEXT
100
AcDbPolyline
 90
        2
 70
     0
 43
0.0
 10
3.521160165733325
 20
2.406422116654122
 10
3.655177583364702
 20
2.406422116654122
 42
0.9999999999999998
  0
LWPOLYLINE
  5
34E
330
18
100
AcDbEntity
  8
TEXT
100
AcDbPolyline
 90
        4
 70
     1
 43
0.0
 10
3.635055118294809
 20
2.509386094638148
 10
3.546394799634951
 20
2.509386094638148
 42
0.9999999999999998
 10
3.546394799634951
 20
2.466987554134287
 10
3.635055118294809
 20
2.466987554134287
 42
1.0
  0
LWPOLYLINE
  5
34F
330
18
100
AcDbEntity
  8
TEXT
100
AcDbPolyline
 90
        2
 70
     0
 43
0.0
 10
3.47808423286569
 20
2.449913061604561
 42
0.2901071551932823
 10
3.521160165733325
 20
2.406422116654122
 42
5.328517124445801
  0
LINE
  5
350
330
18
100
AcDbEntity
  8
TEXT
100
AcDbLine
 10
3.615353900052267
 20
2.672895149642633
 30
0.0
 11
3.480521990835208
 21
2.672895149642633
 31
0.0
  0
LINE
  5
351
330
18
100
AcDbEntity
  8
TEXT
100
AcDbLine
 10
3.539836087228526
 20
2.571343481523736
 30
0.0
 11
3.62212407701191
 21
2.571343481523736
 31
0.0
  0
LINE
  5
352
330
18
100
AcDbEntity
  8
TEXT
100
AcDbLine
 10
3.586323001707788
 20
2.608618454985868
 30
0.0
 11
3.479116728320499
 21
2.608618454985868
 31
0.0
  0
LINE
  5
353
330
18
100
AcDbEntity
  8
TEXT
100
AcDbLine
 10
3.480521990835208
 20
2.672895149642633
 30
0.0
 11
3.480521990835208
 21
2.644572603872989
 31
0.0
  0
ARC
  5
354
330
18
100
AcDbEntity
  8
TEXT
100
AcDbCircle
 10
3.539836087228525
 20
2.503657900379617
 30
0.0
 40
0.0676855811441166
100
AcDbArc
 50
90.0
 51
153.7768192527749
  0
LINE
  5
355
330
18
100
AcDbEntity
  8
TEXT
100
AcDbLine
 10
3.479116728320499
 20
2.608618454985868
 30
0.0
 11
3.479116728320499
 21
2.533566048911661
 31
0.0
  0
LINE
  5
356
330
18
100
AcDbEntity
  8
TEXT
100
AcDbLine
 10
3.62212407701191
 20
2.571343481523736
 30
0.0
 11
3.611859316598345
 21
2.59259402109643
 31
0.0
  0
ARC
  5
357
330
18
100
AcDbEntity
  8
TEXT
100
AcDbCircle
 10
3.586323001707787
 20
2.580259079985871
 30
0.0
 40
0.028359375
100
AcDbArc
 50
25.78218179591245
 51
90.0
  0
LINE
  5
358
330
18
100
AcDbEntity
  8
TEXT
100
AcDbLine
 10
3.756608730067681
 20
2.406422116654122
 30
0.0
 11
3.756608730067676
 21
2.583712622085591
 31
0.0
  0
LWPOLYLINE
  5
359
330
18
100
AcDbEntity
  8
TEXT
100
AcDbPolyline
 90
        2
 70
     0
 43
0.0
 10
3.698253516232346
 20
2.406422116654122
 10
3.75660873006768
 20
2.406422116654122
  0
LWPOLYLINE
  5
35A
330
18
100
AcDbEntity
  8
TEXT
100
AcDbPolyline
 90
        2
 70
     0
 43
0.0
 10
3.698253516232346
 20
2.449913061604561
 42
-0.2901071551932486
 10
3.655177583364702
 20
2.406422116654122
 42
-5.328517124445184
  0
LWPOLYLINE
  5
35B
330
18
100
AcDbEntity
  8
TEXT
100
AcDbPolyline
 90
        2
 70
     0
 43
0.0
 10
3.698253516232346
 20
2.449913061604561
 10
3.698253516232346
 20
2.406422116654122
  0
LINE
  5
35C
330
18
100
AcDbEntity
  8
TEXT
100
AcDbLine
 10
3.758210745226809
 20
2.672895149642633
 30
0.0
 11
3.694313838927308
 21
2.672895149642633
 31
0.0
  0
LINE
  5
35D
330
18
100
AcDbEntity
  8
TEXT
100
AcDbLine
 10
3.694313838927308
 20
2.672895149642633
 30
0.0
 11
3.694313838927308
 21
2.567683171089206
 31
0.0
  0
LINE
  5
35E
330
18
100
AcDbEntity
  8
TEXT
100
AcDbLine
 10
3.694313838927308
 20
2.567683171089206
 30
0.0
 11
3.650563067745406
 21
2.649933447085351
 31
0.0
  0
ARC
  5
35F
330
18
100
AcDbEntity
  8
TEXT
100
AcDbCircle
 10
3.78151460535034
 20
2.583712579703205
 30
0.0
 40
0.0249058752826653
100
AcDbArc
 50
89.99971217465335
 51
179.9999999999985
  0
ARC
  5
360
330
18
100
AcDbEntity
  8
TEXT
100
AcDbCircle
 10
3.789403562289917
 20
2.641649422360369
 30
0.0
 40
0.0314112657011332
100
AcDbArc
 50
95.88484768694724
 51
173.2388340632136
  0
LINE
  5
361
330
18
100
AcDbEntity
  8
TEXT
100
AcDbLine
 10
3.758210745226809
 20
2.645347499781759
 30
0.0
 11
3.758210745226809
 21
2.672895149642633
 31
0.0
  0
TEXT
  5
362
330
18
100
AcDbEntity
  8
TEXT
100
AcDbText
 10
4.227086264648599
 20
2.499307925299619
 30
0.0
 40
0.0522247191011236
  1
Minneapolis, MN 55432-0008
 41
1.11444212721585
 72
     5
 11
5.556018848918263
 21
2.499307925299619
 31
0.0
100
AcDbText
  0
TEXT
  5
363
330
18
100
AcDbEntity
  8
TEXT
100
AcDbText
 10
4.227086264648599
 20
2.592566352265911
 30
0.0
 40
0.0522247191011236
  1
6536 Main St. N.E. * P.O. Box 32008
 41
0.8388932496075355
 72
     5
 11
5.556018848918263
 21
2.592566352265911
 31
0.0
100
AcDbText
  0
TEXT
  5
364
330
18
100
AcDbEntity
  8
TEXT
100
AcDbText
 10
4.227086264648599
 20
2.685824779232203
 30
0.0
 40
0.0522247191011236
  1
Stylmark  Incorporated
 41
1.221428571428571
 72
     5
 11
5.556018848918263
 21
2.685824779232203
 31
0.0
100
AcDbText
  0
TEXT
  5
365
330
18
100
AcDbEntity
  8
TEXT
100
AcDbText
 10
4.227086264648599
 20
2.406049498333326
 30
0.0
 40
0.0522247191011236
  1
Phone  1-800-328-2495
 41
1.272321428571429
 72
     5
 11
5.556018848918263
 21
2.406049498333326
 31
0.0
100
AcDbText
  0
LINE
  5
366
330
18
100
AcDbEntity
  8
TEXT
100
AcDbLine
 10
3.979530453185584
 20
2.56300190670166
 30
0.0
 11
4.044087569151289
 21
2.672895149642633
 31
0.0
  0
LINE
  5
367
330
18
100
AcDbEntity
  8
TEXT
100
AcDbLine
 10
4.044087569151289
 20
2.672895149642633
 30
0.0
 11
3.969095736421663
 21
2.672895149642633
 31
0.0
  0
LINE
  5
368
330
18
100
AcDbEntity
  8
TEXT
100
AcDbLine
 10
3.998444304172989
 20
2.406422116654122
 30
0.0
 11
4.075022676549195
 21
2.406422116654122
 31
0.0
  0
LINE
  5
369
330
18
100
AcDbEntity
  8
TEXT
100
AcDbLine
 10
4.075022676549195
 20
2.406422116654122
 30
0.0
 11
3.979530453185584
 21
2.56300190670166
 31
0.0
  0
LINE
  5
36A
330
18
100
AcDbEntity
  8
TEXT
100
AcDbLine
 10
3.922540770961524
 20
2.406422116654122
 30
0.0
 11
3.922540770961524
 21
2.538001685130303
 31
0.0
  0
LINE
  5
36B
330
18
100
AcDbEntity
  8
TEXT
100
AcDbLine
 10
3.922540770961524
 20
2.538001685130303
 30
0.0
 11
3.998444304172989
 21
2.406422116654122
 31
0.0
  0
LINE
  5
36C
330
18
100
AcDbEntity
  8
TEXT
100
AcDbLine
 10
3.858162586642898
 20
2.608618454985868
 30
0.0
 11
3.858162586642904
 21
2.406422116654122
 31
0.0
  0
LINE
  5
36D
330
18
100
AcDbEntity
  8
TEXT
100
AcDbLine
 10
3.858162586642904
 20
2.406422116654122
 30
0.0
 11
3.922540770961524
 21
2.406422116654122
 31
0.0
  0
LINE
  5
36E
330
18
100
AcDbEntity
  8
TEXT
100
AcDbLine
 10
3.921997577865677
 20
2.738359355410234
 30
0.0
 11
3.853682699316403
 21
2.738359355410234
 31
0.0
  0
LINE
  5
36F
330
18
100
AcDbEntity
  8
TEXT
100
AcDbLine
 10
3.853682699316403
 20
2.738359355410234
 30
0.0
 11
3.853682699316398
 21
2.672895149642633
 31
0.0
  0
LINE
  5
370
330
18
100
AcDbEntity
  8
TEXT
100
AcDbLine
 10
3.969095736421661
 20
2.672895149642633
 30
0.0
 11
3.921997577865677
 21
2.597029823231095
 31
0.0
  0
LINE
  5
371
330
18
100
AcDbEntity
  8
TEXT
100
AcDbLine
 10
3.921997577865677
 20
2.597029823231095
 30
0.0
 11
3.921997577865677
 21
2.738359355410234
 31
0.0
  0
ENDSEC
  0
SECTION
  2
OBJECTS
  0
DICTIONARY
  5
C
330
0
100
AcDbDictionary
  3
ACAD_GROUP
350
D
  3
ACAD_LAYOUT
350
376
  3
ACAD_MLINESTYLE
350
E
  3
ACAD_PLOTSETTINGS
350
377
  3
ACAD_PLOTSTYLENAME
350
374
  3
ACDBHEADERROUNDTRIPXREC
350
382
  3
ACDBVARIABLEDICTIONARY
350
37F
  0
DICTIONARY
  5
3A4
330
18
100
AcDbDictionary
280
     1
  3
ACAD_LAYOUTSELFREF
360
3A5
  0
DICTIONARY
  5
3A2
330
15
100
AcDbDictionary
280
     1
  3
ACAD_LAYOUTSELFREF
360
3A3
  0
DICTIONARY
  5
D
102
{ACAD_REACTORS
330
C
102
}
330
C
100
AcDbDictionary
  0
DICTIONARY
  5
376
102
{ACAD_REACTORS
330
C
102
}
330
C
100
AcDbDictionary
  0
DICTIONARY
  5
E
102
{ACAD_REACTORS
330
C
102
}
330
C
100
AcDbDictionary
  3
STANDARD
350
1B
  0
DICTIONARY
  5
377
102
{ACAD_REACTORS
330
C
102
}
330
C
100
AcDbDictionary
  0
ACDBDICTIONARYWDFLT
  5
374
102
{ACAD_REACTORS
330
C
102
}
330
C
100
AcDbDictionary
281
     1
  3
Normal
350
375
100
AcDbDictionaryWithDefault
340
375
  0
DICTIONARY
  5
382
102
{ACAD_REACTORS
330
C
102
}
330
C
100
AcDbDictionary
  3
CEPSNTYPE
350
38C
  3
FINGERPRINTGUID
350
38D
  3
HYPERLINKBASE
350
385
  3
INSUNITS
350
38B
  3
LAYOUTDICT
350
387
  3
LWETCUNION
350
38A
  3
PLOTSETDICT
350
388
  3
PLOTSTYLNAMDICT
350
389
  3
PSVPSCALE
350
38F
  3
PUCSBASE
350
392
  3
PUCSORGBACK
350
398
  3
PUCSORGBOTTOM
350
394
  3
PUCSORGFRONT
350
397
  3
PUCSORGLEFT
350
395
  3
PUCSORGRIGHT
350
396
  3
PUCSORGTOP
350
393
  3
PUCSORTHOREF
350
390
  3
PUCSORTHOVIEW
350
391
  3
STYLESHEET
350
386
  3
TSTACKALIGN
350
383
  3
TSTACKSIZE
350
384
  3
UCSBASE
350
39B
  3
UCSORGBACK
350
3A1
  3
UCSORGBOTTOM
350
39D
  3
UCSORGFRONT
350
3A0
  3
UCSORGLEFT
350
39E
  3
UCSORGRIGHT
350
39F
  3
UCSORGTOP
350
39C
  3
UCSORTHOREF
350
399
  3
UCSORTHOVIEW
350
39A
  3
VERSIONGUID
350
38E
  0
DICTIONARY
  5
37F
102
{ACAD_REACTORS
330
C
102
}
330
C
100
AcDbDictionary
  3
DIMASSOC
350
380
  0
XRECORD
  5
3A5
102
{ACAD_REACTORS
330
3A4
102
}
330
3A4
100
AcDbXrecord
340
18
  0
XRECORD
  5
3A3
102
{ACAD_REACTORS
330
3A2
102
}
330
3A2
100
AcDbXrecord
340
15
  0
MLINESTYLE
  5
1B
102
{ACAD_REACTORS
330
E
102
}
330
E
100
AcDbMlineStyle
  2
STANDARD
 70
     0
  3

 62
     0
 51
90.0
 52
90.0
 71
     2
 49
0.5
 62
   256
  6
BYLAYER
 49
-0.5
 62
   256
  6
BYLAYER
  0
ACDBPLACEHOLDER
  5
375
102
{ACAD_REACTORS
330
374
102
}
330
374
100
AcDbPlaceHolder
280
     0
  0
XRECORD
  5
38C
102
{ACAD_REACTORS
330
382
102
}
330
382
100
AcDbXrecord
 90
        0
  0
XRECORD
  5
38D
102
{ACAD_REACTORS
330
382
102
}
330
382
100
AcDbXrecord
  1
{163849F0-8DB5-11D6-88E6-0090279574E7}
  0
XRECORD
  5
385
102
{ACAD_REACTORS
330
382
102
}
330
382
100
AcDbXrecord
  1

  0
XRECORD
  5
38B
102
{ACAD_REACTORS
330
382
102
}
330
382
100
AcDbXrecord
 90
        0
  0
XRECORD
  5
387
102
{ACAD_REACTORS
330
382
102
}
330
382
100
AcDbXrecord
340
376
  0
XRECORD
  5
38A
102
{ACAD_REACTORS
330
382
102
}
330
382
100
AcDbXrecord
 90
    14877
  0
XRECORD
  5
388
102
{ACAD_REACTORS
330
382
102
}
330
382
100
AcDbXrecord
340
377
  0
XRECORD
  5
389
102
{ACAD_REACTORS
330
382
102
}
330
382
100
AcDbXrecord
340
374
  0
XRECORD
  5
38F
102
{ACAD_REACTORS
330
382
102
}
330
382
100
AcDbXrecord
 40
0.0
  0
XRECORD
  5
392
102
{ACAD_REACTORS
330
382
102
}
330
382
100
AcDbXrecord
340
0
  0
XRECORD
  5
398
102
{ACAD_REACTORS
330
382
102
}
330
382
100
AcDbXrecord
 10
0.0
 20
0.0
 30
0.0
  0
XRECORD
  5
394
102
{ACAD_REACTORS
330
382
102
}
330
382
100
AcDbXrecord
 10
0.0
 20
0.0
 30
0.0
  0
XRECORD
  5
397
102
{ACAD_REACTORS
330
382
102
}
330
382
100
AcDbXrecord
 10
0.0
 20
0.0
 30
0.0
  0
XRECORD
  5
395
102
{ACAD_REACTORS
330
382
102
}
330
382
100
AcDbXrecord
 10
0.0
 20
0.0
 30
0.0
  0
XRECORD
  5
396
102
{ACAD_REACTORS
330
382
102
}
330
382
100
AcDbXrecord
 10
0.0
 20
0.0
 30
0.0
  0
XRECORD
  5
393
102
{ACAD_REACTORS
330
382
102
}
330
382
100
AcDbXrecord
 10
0.0
 20
0.0
 30
0.0
  0
XRECORD
  5
390
102
{ACAD_REACTORS
330
382
102
}
330
382
100
AcDbXrecord
340
0
  0
XRECORD
  5
391
102
{ACAD_REACTORS
330
382
102
}
330
382
100
AcDbXrecord
 70
     0
  0
XRECORD
  5
386
102
{ACAD_REACTORS
330
382
102
}
330
382
100
AcDbXrecord
  1

  0
XRECORD
  5
383
102
{ACAD_REACTORS
330
382
102
}
330
382
100
AcDbXrecord
 90
        1
  0
XRECORD
  5
384
102
{ACAD_REACTORS
330
382
102
}
330
382
100
AcDbXrecord
 90
       70
  0
XRECORD
  5
39B
102
{ACAD_REACTORS
330
382
102
}
330
382
100
AcDbXrecord
340
0
  0
XRECORD
  5
3A1
102
{ACAD_REACTORS
330
382
102
}
330
382
100
AcDbXrecord
 10
0.0
 20
0.0
 30
0.0
  0
XRECORD
  5
39D
102
{ACAD_REACTORS
330
382
102
}
330
382
100
AcDbXrecord
 10
0.0
 20
0.0
 30
0.0
  0
XRECORD
  5
3A0
102
{ACAD_REACTORS
330
382
102
}
330
382
100
AcDbXrecord
 10
0.0
 20
0.0
 30
0.0
  0
XRECORD
  5
39E
102
{ACAD_REACTORS
330
382
102
}
330
382
100
AcDbXrecord
 10
0.0
 20
0.0
 30
0.0
  0
XRECORD
  5
39F
102
{ACAD_REACTORS
330
382
102
}
330
382
100
AcDbXrecord
 10
0.0
 20
0.0
 30
0.0
  0
XRECORD
  5
39C
102
{ACAD_REACTORS
330
382
102
}
330
382
100
AcDbXrecord
 10
0.0
 20
0.0
 30
0.0
  0
XRECORD
  5
399
102
{ACAD_REACTORS
330
382
102
}
330
382
100
AcDbXrecord
340
0
  0
XRECORD
  5
39A
102
{ACAD_REACTORS
330
382
102
}
330
382
100
AcDbXrecord
 70
     0
  0
XRECORD
  5
38E
102
{ACAD_REACTORS
330
382
102
}
330
382
100
AcDbXrecord
  1
{163849F2-8DB5-11D6-88E6-0090279574E7}
  0
DICTIONARYVAR
  5
380
102
{ACAD_REACTORS
330
37F
102
}
330
37F
100
DictionaryVariables
280
     0
  1
1
  0
ENDSEC
  0
EOF
