  0
SECTION
  2
HEADER
  9
$ACADVER
  1
AC1014
  9
$ACADMAINTVER
 70
     9
  9
$DWGCODEPAGE
  3
ANSI_1252
  9
$INSBASE
 10
2.058318959572396
 20
1.054195307839236
 30
0.0
  9
$EXTMIN
 10
0.058074896331302
 20
0.4072798020479674
 30
0.0
  9
$EXTMAX
 10
4.058563022813491
 20
3.054195307839236
 30
0.0
  9
$LIMMIN
 10
0.0
 20
0.0
  9
$LIMMAX
 10
18.0
 20
12.0
  9
$ORTHOMODE
 70
     1
  9
$REGENMODE
 70
     1
  9
$FILLMODE
 70
     1
  9
$QTEXTMODE
 70
     0
  9
$MIRRTEXT
 70
     0
  9
$DRAGMODE
 70
     2
  9
$LTSCALE
 40
1.0
  9
$OSMODE
 70
    39
  9
$ATTMODE
 70
     1
  9
$TEXTSIZE
 40
0.125
  9
$TRACEWID
 40
0.05
  9
$TEXTSTYLE
  7
ROMANS
  9
$CLAYER
  8
0
  9
$CELTYPE
  6
BYLAYER
  9
$CECOLOR
 62
   256
  9
$CELTSCALE
 40
1.0
  9
$DELOBJ
 70
     1
  9
$DISPSILH
 70
     1
  9
$DIMSCALE
 40
1.0
  9
$DIMASZ
 40
0.125
  9
$DIMEXO
 40
0.125
  9
$DIMDLI
 40
0.375
  9
$DIMRND
 40
0.0
  9
$DIMDLE
 40
0.0
  9
$DIMEXE
 40
0.125
  9
$DIMTP
 40
0.0
  9
$DIMTM
 40
0.0
  9
$DIMTXT
 40
0.125
  9
$DIMCEN
 40
-0.125
  9
$DIMTSZ
 40
0.0
  9
$DIMTOL
 70
     0
  9
$DIMLIM
 70
     0
  9
$DIMTIH
 70
     1
  9
$DIMTOH
 70
     1
  9
$DIMSE1
 70
     0
  9
$DIMSE2
 70
     0
  9
$DIMTAD
 70
     0
  9
$DIMZIN
 70
     4
  9
$DIMBLK
  1

  9
$DIMASO
 70
     1
  9
$DIMSHO
 70
     1
  9
$DIMPOST
  1

  9
$DIMAPOST
  1

  9
$DIMALT
 70
     0
  9
$DIMALTD
 70
     2
  9
$DIMALTF
 40
25.4
  9
$DIMLFAC
 40
1.0
  9
$DIMTOFL
 70
     0
  9
$DIMTVP
 40
0.0
  9
$DIMTIX
 70
     1
  9
$DIMSOXD
 70
     0
  9
$DIMSAH
 70
     0
  9
$DIMBLK1
  1

  9
$DIMBLK2
  1

  9
$DIMSTYLE
  2
STANDARD
  9
$DIMCLRD
 70
     0
  9
$DIMCLRE
 70
     0
  9
$DIMCLRT
 70
     0
  9
$DIMTFAC
 40
1.0
  9
$DIMGAP
 40
0.09
  9
$DIMJUST
 70
     0
  9
$DIMSD1
 70
     0
  9
$DIMSD2
 70
     0
  9
$DIMTOLJ
 70
     1
  9
$DIMTZIN
 70
     4
  9
$DIMALTZ
 70
     0
  9
$DIMALTTZ
 70
     0
  9
$DIMFIT
 70
     3
  9
$DIMUPT
 70
     0
  9
$DIMUNIT
 70
     2
  9
$DIMDEC
 70
     3
  9
$DIMTDEC
 70
     3
  9
$DIMALTU
 70
     2
  9
$DIMALTTD
 70
     2
  9
$DIMTXSTY
  7
ROMANS
  9
$DIMAUNIT
 70
     0
  9
$LUNITS
 70
     2
  9
$LUPREC
 70
     3
  9
$SKETCHINC
 40
0.1
  9
$FILLETRAD
 40
0.03125
  9
$AUNITS
 70
     0
  9
$AUPREC
 70
     0
  9
$MENU
  1
ACAD
  9
$ELEVATION
 40
0.0
  9
$PELEVATION
 40
0.0
  9
$THICKNESS
 40
0.0
  9
$LIMCHECK
 70
     0
  9
$BLIPMODE
 70
     0
  9
$CHAMFERA
 40
0.0
  9
$CHAMFERB
 40
0.0
  9
$CHAMFERC
 40
0.0
  9
$CHAMFERD
 40
0.0
  9
$SKPOLY
 70
     0
  9
$TDCREATE
 40
2448994.456038541
  9
$TDUPDATE
 40
2452458.300821886
  9
$TDINDWG
 40
0.0013767014
  9
$TDUSRTIMER
 40
0.0013767014
  9
$USRTIMER
 70
     1
  9
$ANGBASE
 50
0.0
  9
$ANGDIR
 70
     0
  9
$PDMODE
 70
     0
  9
$PDSIZE
 40
0.0
  9
$PLINEWID
 40
0.0
  9
$COORDS
 70
     2
  9
$SPLFRAME
 70
     0
  9
$SPLINETYPE
 70
     6
  9
$SPLINESEGS
 70
     8
  9
$ATTDIA
 70
     0
  9
$ATTREQ
 70
     1
  9
$HANDLING
 70
 22529
  9
$HANDSEED
  5
7DE1B343D9DB8E0
  9
$SURFTAB1
 70
     6
  9
$SURFTAB2
 70
     6
  9
$SURFTYPE
 70
     6
  9
$SURFU
 70
     6
  9
$SURFV
 70
     6
  9
$UCSNAME
  2

  9
$UCSORG
 10
0.0
 20
0.0
 30
0.0
  9
$UCSXDIR
 10
1.0
 20
0.0
 30
0.0
  9
$UCSYDIR
 10
0.0
 20
1.0
 30
0.0
  9
$PUCSNAME
  2

  9
$PUCSORG
 10
0.0
 20
0.0
 30
0.0
  9
$PUCSXDIR
 10
1.0
 20
0.0
 30
0.0
  9
$PUCSYDIR
 10
0.0
 20
1.0
 30
0.0
  9
$USERI1
 70
     0
  9
$USERI2
 70
     0
  9
$USERI3
 70
     0
  9
$USERI4
 70
     0
  9
$USERI5
 70
     0
  9
$USERR1
 40
0.0
  9
$USERR2
 40
0.0
  9
$USERR3
 40
0.0
  9
$USERR4
 40
0.0
  9
$USERR5
 40
0.0
  9
$WORLDVIEW
 70
     1
  9
$SHADEDGE
 70
     3
  9
$SHADEDIF
 70
    70
  9
$TILEMODE
 70
     1
  9
$MAXACTVP
 70
    16
  9
$PINSBASE
 10
0.9109705180471163
 20
50.00000000000001
 30
0.7225609775440045
  9
$PLIMCHECK
 70
     0
  9
$PEXTMIN
 10
1.000000000000000E+20
 20
1.000000000000000E+20
 30
1.000000000000000E+20
  9
$PEXTMAX
 10
-1.000000000000000E+20
 20
-1.000000000000000E+20
 30
-1.000000000000000E+20
  9
$PLIMMIN
 10
0.0
 20
0.0
  9
$PLIMMAX
 10
12.0
 20
9.0
  9
$UNITMODE
 70
     0
  9
$VISRETAIN
 70
     0
  9
$PLINEGEN
 70
     1
  9
$PSLTSCALE
 70
     0
  9
$TREEDEPTH
 70
  3020
  9
$PICKSTYLE
 70
     1
  9
$CMLSTYLE
  2
STANDARD
  9
$CMLJUST
 70
     0
  9
$CMLSCALE
 40
1.0
  9
$PROXYGRAPHICS
 70
     1
  9
$MEASUREMENT
 70
     0
  0
ENDSEC
  0
SECTION
  2
CLASSES
  0
CLASS
  1
LWPOLYLINE
  2
AcDbPolyline
  3
AutoCAD 2000
 90
        0
280
     0
281
     1
  0
CLASS
  1
ACDBDICTIONARYWDFLT
  2
AcDbDictionaryWithDefault
  3
AutoCAD 2000
 90
        0
280
     0
281
     0
  0
CLASS
  1
ACDBPLACEHOLDER
  2
AcDbPlaceHolder
  3
AutoCAD 2000
 90
        0
280
     0
281
     0
  0
CLASS
  1
LAYOUT
  2
AcDbLayout
  3
AutoCAD 2000
 90
        0
280
     0
281
     0
  0
CLASS
  1
DICTIONARYVAR
  2
AcDbDictionaryVar
  3
AutoCAD 2000
 90
        0
280
     0
281
     0
  0
CLASS
  1
LONG_TRANSACTION
  2
AcDbLongTransaction
  3
AutoCAD 2000
 90
        0
280
     0
281
     0
  0
CLASS
  1
LWPOLYLINE
  2
AcDbPolyline
  3
AutoCAD 2000
 90
        0
280
     0
281
     1
  0
CLASS
  1
HATCH
  2
AcDbHatch
  3
AutoCAD 2000
 90
        0
280
     0
281
     1
  0
CLASS
  1
XRECORD
  2
AcDbXrecord
  3
AutoCAD 2000
 90
        0
280
     0
281
     0
  0
ENDSEC
  0
SECTION
  2
TABLES
  0
TABLE
  2
VPORT
  5
7DE1B343D9DB86C
330
0
100
AcDbSymbolTable
 70
     2
  0
VPORT
  5
7DE1B343D9DB8BB
330
7DE1B343D9DB86C
100
AcDbSymbolTableRecord
100
AcDbViewportTableRecord
  2
*ACTIVE
 70
     0
 10
0.0
 20
0.0
 11
1.0
 21
1.0
 12
5.955479588248955
 22
1.730896019063536
 13
0.0
 23
0.0
 14
0.015625
 24
0.015625
 15
0.0
 25
0.0
 16
0.0
 26
0.0
 36
1.0
 17
0.0
 27
0.0
 37
0.0
 40
2.989090687909234
 41
4.320930232558139
 42
50.0
 43
0.0
 44
0.0
 50
0.0
 51
0.0
 71
     0
 72
  2000
 73
     1
 74
     0
 75
     0
 76
     0
 77
     0
 78
     0
  0
ENDTAB
  0
TABLE
  2
LTYPE
  5
7DE1B343D9DB869
330
0
100
AcDbSymbolTable
 70
     1
  0
LTYPE
  5
7DE1B343D9DB876
330
7DE1B343D9DB869
100
AcDbSymbolTableRecord
100
AcDbLinetypeTableRecord
  2
BYBLOCK
 70
     0
  3

 72
    65
 73
     0
 40
0.0
  0
LTYPE
  5
7DE1B343D9DB877
330
7DE1B343D9DB869
100
AcDbSymbolTableRecord
100
AcDbLinetypeTableRecord
  2
BYLAYER
 70
     0
  3

 72
    65
 73
     0
 40
0.0
  0
LTYPE
  5
7DE1B343D9DB878
330
7DE1B343D9DB869
100
AcDbSymbolTableRecord
100
AcDbLinetypeTableRecord
  2
CONTINUOUS
 70
     0
  3
Solid line
 72
    65
 73
     0
 40
0.0
  0
ENDTAB
  0
TABLE
  2
LAYER
  5
7DE1B343D9DB866
330
0
100
AcDbSymbolTable
 70
     3
  0
LAYER
  5
7DE1B343D9DB873
330
7DE1B343D9DB866
100
AcDbSymbolTableRecord
100
AcDbLayerTableRecord
  2
0
 70
     0
 62
     7
  6
CONTINUOUS
  0
LAYER
  5
7DE1B343D9DB883
330
7DE1B343D9DB866
100
AcDbSymbolTableRecord
100
AcDbLayerTableRecord
  2
TEXT
 70
     0
 62
     3
  6
CONTINUOUS
  0
LAYER
  5
7DE1B343D9DB893
330
7DE1B343D9DB866
100
AcDbSymbolTableRecord
100
AcDbLayerTableRecord
  2
ASHADE
 70
     4
 62
     7
  6
CONTINUOUS
  0
ENDTAB
  0
TABLE
  2
STYLE
  5
7DE1B343D9DB867
330
0
100
AcDbSymbolTable
 70
     4
  0
STYLE
  5
7DE1B343D9DB874
330
7DE1B343D9DB867
100
AcDbSymbolTableRecord
100
AcDbTextStyleTableRecord
  2
STANDARD
 70
     0
 40
0.0
 41
1.0
 50
0.0
 71
     0
 42
0.3125
  3
txt
  4

  0
STYLE
  5
7DE1B343D9DB880
330
7DE1B343D9DB867
100
AcDbSymbolTableRecord
100
AcDbTextStyleTableRecord
  2
ITALICC
 70
     0
 40
0.0
 41
1.0
 50
0.0
 71
     0
 42
0.125
  3
italicc
  4

  0
STYLE
  5
7DE1B343D9DB890
330
7DE1B343D9DB867
100
AcDbSymbolTableRecord
100
AcDbTextStyleTableRecord
  2
ASHADE
 70
     0
 40
0.2
 41
1.0
 50
0.0
 71
     0
 42
0.3125
  3
simplex
  4

  0
STYLE
  5
7DE1B343D9DB8AB
330
7DE1B343D9DB867
100
AcDbSymbolTableRecord
100
AcDbTextStyleTableRecord
  2
ROMANS
 70
     0
 40
0.0
 41
1.0
 50
0.0
 71
     0
 42
0.125
  3
romans.shx
  4

  0
ENDTAB
  0
TABLE
  2
VIEW
  5
7DE1B343D9DB86A
330
0
100
AcDbSymbolTable
 70
     0
  0
ENDTAB
  0
TABLE
  2
UCS
  5
7DE1B343D9DB86B
330
0
100
AcDbSymbolTable
 70
     0
  0
ENDTAB
  0
TABLE
  2
APPID
  5
7DE1B343D9DB86D
330
0
100
AcDbSymbolTable
 70
     6
  0
APPID
  5
7DE1B343D9DB875
330
7DE1B343D9DB86D
100
AcDbSymbolTableRecord
100
AcDbRegAppTableRecord
  2
ACAD
 70
     0
  0
APPID
  5
7DE1B343D9DB891
330
7DE1B343D9DB86D
100
AcDbSymbolTableRecord
100
AcDbRegAppTableRecord
  2
AVE_RENDER
 70
     0
  0
APPID
  5
7DE1B343D9DB892
330
7DE1B343D9DB86D
100
AcDbSymbolTableRecord
100
AcDbRegAppTableRecord
  2
AVE_ENTITY_MATERIAL
 70
     0
  0
APPID
  5
7DE1B343D9DB89F
330
7DE1B343D9DB86D
100
AcDbSymbolTableRecord
100
AcDbRegAppTableRecord
  2
AVE_FINISH
 70
     0
  0
APPID
  5
7DE1B343D9DB8A0
330
7DE1B343D9DB86D
100
AcDbSymbolTableRecord
100
AcDbRegAppTableRecord
  2
AVE_MATERIAL
 70
     0
  0
APPID
  5
7DE1B343D9DB8A1
330
7DE1B343D9DB86D
100
AcDbSymbolTableRecord
100
AcDbRegAppTableRecord
  2
AVE_GLOBAL
 70
     0
  0
ENDTAB
  0
TABLE
  2
DIMSTYLE
  5
7DE1B343D9DB86E
330
0
100
AcDbSymbolTable
 70
     1
  0
DIMSTYLE
105
7DE1B343D9DB888
330
7DE1B343D9DB86E
100
AcDbSymbolTableRecord
100
AcDbDimStyleTableRecord
  2
STANDARD
 70
     0
  3

  4

  5

  6

  7

 40
1.0
 41
0.125
 42
0.125
 43
0.375
 44
0.125
 45
0.0
 46
0.0
 47
0.0
 48
0.0
140
0.125
141
-0.125
142
0.0
143
25.4
144
1.0
145
0.0
146
1.0
147
0.09
 71
     0
 72
     0
 73
     1
 74
     1
 75
     0
 76
     0
 77
     0
 78
     4
170
     0
171
     2
172
     0
173
     0
174
     1
175
     0
176
     0
177
     0
178
     0
270
     2
271
     3
272
     3
273
     2
274
     2
340
7DE1B343D9DB8AB
275
     0
280
     0
281
     0
282
     0
283
     1
284
     4
285
     0
286
     0
287
     3
288
     0
  0
ENDTAB
  0
TABLE
  2
BLOCK_RECORD
  5
7DE1B343D9DB865
330
0
100
AcDbSymbolTable
 70
     2
  0
BLOCK_RECORD
  5
7DE1B343D9DB87C
102
{ACAD_XDICTIONARY
360
7DE1B343D9DB8DE
102
}
330
7DE1B343D9DB865
100
AcDbSymbolTableRecord
100
AcDbBlockTableRecord
  2
*MODEL_SPACE
  0
BLOCK_RECORD
  5
7DE1B343D9DB879
102
{ACAD_XDICTIONARY
360
7DE1B343D9DB8DC
102
}
330
7DE1B343D9DB865
100
AcDbSymbolTableRecord
100
AcDbBlockTableRecord
  2
*PAPER_SPACE
  0
BLOCK_RECORD
  5
7DE1B343D9DB894
330
7DE1B343D9DB865
100
AcDbSymbolTableRecord
100
AcDbBlockTableRecord
  2
AVE_RENDER
  0
BLOCK_RECORD
  5
7DE1B343D9DB8A2
330
7DE1B343D9DB865
100
AcDbSymbolTableRecord
100
AcDbBlockTableRecord
  2
AVE_GLOBAL
  0
ENDTAB
  0
ENDSEC
  0
SECTION
  2
BLOCKS
  0
BLOCK
  5
7DE1B343D9DB886
330
7DE1B343D9DB87C
100
AcDbEntity
  8
0
100
AcDbBlockBegin
  2
*MODEL_SPACE
 70
     0
 10
0.0
 20
0.0
 30
0.0
  3
*MODEL_SPACE
  1

  0
ENDBLK
  5
7DE1B343D9DB887
330
7DE1B343D9DB87C
100
AcDbEntity
  8
0
100
AcDbBlockEnd
  0
BLOCK
  5
7DE1B343D9DB884
330
7DE1B343D9DB879
100
AcDbEntity
 67
     1
  8
0
100
AcDbBlockBegin
  2
*PAPER_SPACE
 70
     0
 10
0.0
 20
0.0
 30
0.0
  3
*PAPER_SPACE
  1

  0
ENDBLK
  5
7DE1B343D9DB885
330
7DE1B343D9DB879
100
AcDbEntity
 67
     1
  8
0
100
AcDbBlockEnd
  0
BLOCK
  5
7DE1B343D9DB895
330
7DE1B343D9DB894
100
AcDbEntity
  8
0
100
AcDbBlockBegin
  2
AVE_RENDER
 70
     0
 10
0.0
 20
0.0
 30
0.0
  3
AVE_RENDER
  1
AVE_RENDER
  0
ENDBLK
  5
7DE1B343D9DB896
330
7DE1B343D9DB894
100
AcDbEntity
  8
0
100
AcDbBlockEnd
  0
BLOCK
  5
7DE1B343D9DB8A3
330
7DE1B343D9DB8A2
100
AcDbEntity
  8
0
100
AcDbBlockBegin
  2
AVE_GLOBAL
 70
     0
 10
0.0
 20
0.0
 30
0.0
  3
AVE_GLOBAL
  1
AVE_GLOBAL
  0
ENDBLK
  5
7DE1B343D9DB8A4
330
7DE1B343D9DB8A2
100
AcDbEntity
  8
0
100
AcDbBlockEnd
  0
ENDSEC
  0
SECTION
  2
ENTITIES
  0
LWPOLYLINE
  5
7DE1B343D9DA2E0
330
7DE1B343D9DB87C
100
AcDbEntity
  8
0
100
AcDbPolyline
 90
       14
 70
     1
 43
0.0
 10
3.585382253440659
 20
1.132320307839236
 10
3.558318959572396
 20
1.179195307839236
 10
3.991782496854648
 20
1.179195307839236
 42
0.9374368665610917
 10
0.1248554222901439
 20
1.179195307839236
 10
0.5583189595723966
 20
1.179195307839236
 10
0.5312556657041334
 20
1.132320307839236
 42
-0.2679491924311231
 10
0.5041923718358699
 20
1.116695307839236
 10
0.121827286468688
 20
1.116695307839236
 42
0.0040975177263067
 10
0.1210630540615538
 20
1.084949276093205
 42
-1.0
 10
0.0585709280773337
 20
1.085941339585268
 42
-0.9842509842514765
 10
4.058066991067459
 20
1.085941339585268
 42
-0.9999999999999998
 10
3.995574865083239
 20
1.084949276093205
 42
0.0040975177263067
 10
3.994810632676105
 20
1.116695307839236
 10
3.612445547308923
 20
1.116695307839236
 42
-0.2679491924311231
  0
TEXT
  5
7DE1B343D9DB727
330
7DE1B343D9DB87C
100
AcDbEntity
  8
TEXT
100
AcDbText
 10
1.305342769096206
 20
0.8652984061305488
 30
0.0
 40
0.125
  1
PART #110210
  7
ITALICC
 72
     1
 11
2.058318959572396
 21
0.8652984061305488
 31
0.0
100
AcDbText
  0
TEXT
  5
7DE1B343D9DB728
330
7DE1B343D9DB87C
100
AcDbEntity
  8
TEXT
100
AcDbText
 10
2.471624117822717
 20
0.4183757634581738
 30
0.0
 40
0.0522247191011236
  1
Phone  1-800-328-2495
 41
1.272321428571429
 72
     5
 11
3.80055670209238
 21
0.4183757634581738
 31
0.0
100
AcDbText
  0
TEXT
  5
7DE1B343D9DB729
330
7DE1B343D9DB87C
100
AcDbEntity
  8
TEXT
100
AcDbText
 10
2.471624117822717
 20
0.6981510443570503
 30
0.0
 40
0.0522247191011236
  1
Stylmark  Incorporated
 41
1.221428571428573
 72
     5
 11
3.80055670209238
 21
0.6981510443570503
 31
0.0
100
AcDbText
  0
TEXT
  5
7DE1B343D9DB72A
330
7DE1B343D9DB87C
100
AcDbEntity
  8
TEXT
100
AcDbText
 10
2.471624117822717
 20
0.6048926173907581
 30
0.0
 40
0.0522247191011236
  1
6536 Main St. N.E. * P.O. Box 32008
 41
0.8388932496075366
 72
     5
 11
3.80055670209238
 21
0.6048926173907581
 31
0.0
100
AcDbText
  0
TEXT
  5
7DE1B343D9DB72B
330
7DE1B343D9DB87C
100
AcDbEntity
  8
TEXT
100
AcDbText
 10
2.471624117822717
 20
0.5116341904244659
 30
0.0
 40
0.0522247191011236
  1
Minneapolis, MN 55432-0008
 41
1.11444212721585
 72
     5
 11
3.80055670209238
 21
0.5116341904244659
 31
0.0
100
AcDbText
  0
LWPOLYLINE
  5
7DE1B343D9DB72C
330
7DE1B343D9DB87C
100
AcDbEntity
  8
TEXT
100
AcDbPolyline
 90
        3
 70
     0
 43
0.0006660908203125
 10
0.3156704257554095
 20
0.5320205260956086
 10
0.3156704257554095
 20
0.418785086642481
 10
0.4289058652085318
 20
0.418785086642481
  0
LWPOLYLINE
  5
7DE1B343D9DB731
330
7DE1B343D9DB87C
100
AcDbEntity
  8
TEXT
100
AcDbPolyline
 90
        3
 70
     0
 43
0.0006660908203125
 10
0.342314058567907
 20
0.5320205260956086
 10
0.342314058567907
 20
0.445428719454982
 10
0.4289058652085318
 20
0.445428719454982
  0
LWPOLYLINE
  5
7DE1B343D9DB736
330
7DE1B343D9DB87C
100
AcDbEntity
  8
TEXT
100
AcDbPolyline
 90
        2
 70
     0
 43
0.0001332181640625
 10
0.3889404159897838
 20
0.5420118884002938
 10
0.3156704257554095
 20
0.5320205260956086
  0
LWPOLYLINE
  5
7DE1B343D9DB73A
330
7DE1B343D9DB87C
100
AcDbEntity
  8
TEXT
100
AcDbPolyline
 90
        2
 70
     0
 43
0.0001332181640625
 10
0.342314058567907
 20
0.5320205260956086
 10
0.4022622323960344
 20
0.5420118884002938
  0
LWPOLYLINE
  5
7DE1B343D9DB73E
330
7DE1B343D9DB87C
100
AcDbEntity
  8
TEXT
100
AcDbPolyline
 90
        2
 70
     0
 43
0.0001332181640625
 10
0.342314058567907
 20
0.445428719454982
 10
0.4022622323960344
 20
0.5053768932831076
  0
LWPOLYLINE
  5
7DE1B343D9DB742
330
7DE1B343D9DB87C
100
AcDbEntity
  8
TEXT
100
AcDbPolyline
 90
        3
 70
     0
 43
0.0006660908203125
 10
0.4289058652085318
 20
0.6852214147674843
 10
0.3156704257554095
 20
0.6852214147674843
 10
0.3156704257554095
 20
0.5719859753143566
  0
LWPOLYLINE
  5
7DE1B343D9DB747
330
7DE1B343D9DB87C
100
AcDbEntity
  8
TEXT
100
AcDbPolyline
 90
        3
 70
     0
 43
0.0006660908203125
 10
0.4289058652085318
 20
0.6585777819549832
 10
0.342314058567907
 20
0.6585777819549832
 10
0.342314058567907
 20
0.5719859753143566
  0
LWPOLYLINE
  5
7DE1B343D9DB74C
330
7DE1B343D9DB87C
100
AcDbEntity
  8
TEXT
100
AcDbPolyline
 90
        2
 70
     0
 43
0.0001332181640625
 10
0.342314058567907
 20
0.6585777819549832
 10
0.4022622323960326
 20
0.5986296081268577
  0
LWPOLYLINE
  5
7DE1B343D9DB750
330
7DE1B343D9DB87C
100
AcDbEntity
  8
TEXT
100
AcDbPolyline
 90
        2
 70
     0
 43
0.0001332181640625
 10
0.342314058567907
 20
0.5719859753143566
 10
0.4022622323960326
 20
0.5619946130096678
  0
LWPOLYLINE
  5
7DE1B343D9DB754
330
7DE1B343D9DB87C
100
AcDbEntity
  8
TEXT
100
AcDbPolyline
 90
        2
 70
     0
 43
0.0001332181640625
 10
0.3156704257554095
 20
0.5719859753143566
 10
0.3889404159897838
 20
0.5619946130096678
  0
LWPOLYLINE
  5
7DE1B343D9DB758
330
7DE1B343D9DB87C
100
AcDbEntity
  8
TEXT
100
AcDbPolyline
 90
        2
 70
     0
 43
0.0006660908203125
 10
0.342314058567907
 20
0.5320205260956086
 10
0.3156704257554095
 20
0.5320205260956086
  0
LWPOLYLINE
  5
7DE1B343D9DB75C
330
7DE1B343D9DB87C
100
AcDbEntity
  8
TEXT
100
AcDbPolyline
 90
        2
 70
     0
 43
0.0006660908203125
 10
0.342314058567907
 20
0.5719859753143566
 10
0.3156704257554095
 20
0.5719859753143566
  0
LINE
  5
7DE1B343D9DB760
330
7DE1B343D9DB87C
100
AcDbEntity
  8
TEXT
100
AcDbLine
 10
1.830860854881906
 20
0.6209447201107153
 30
0.0
 11
1.723654581494617
 21
0.6209447201107153
 31
0.0
  0
LINE
  5
7DE1B343D9DB761
330
7DE1B343D9DB87C
100
AcDbEntity
  8
TEXT
100
AcDbLine
 10
1.859891753226385
 20
0.6852214147674807
 30
0.0
 11
1.725059844009326
 21
0.6852214147674807
 31
0.0
  0
ARC
  5
7DE1B343D9DB762
330
7DE1B343D9DB87C
100
AcDbEntity
  8
TEXT
100
AcDbCircle
 10
1.784373940402643
 20
0.5159841655044644
 30
0.0
 40
0.0676855811441166
100
AcDbArc
 50
90.0
 51
153.7768192527749
  0
LWPOLYLINE
  5
7DE1B343D9DB763
330
7DE1B343D9DB87C
100
AcDbEntity
  8
TEXT
100
AcDbPolyline
 90
        2
 70
     0
 43
0.0
 10
1.722622086039807
 20
0.4622393267294079
 42
0.2901071551932823
 10
1.765698018907443
 20
0.4187483817789697
 42
5.328517124445801
  0
ARC
  5
7DE1B343D9DB767
330
7DE1B343D9DB87C
100
AcDbEntity
  8
TEXT
100
AcDbCircle
 10
1.079242562731157
 20
0.4785407731170195
 30
0.0
 40
0.0601160179737537
100
AcDbArc
 50
180.0000000000003
 51
264.0521544866073
  0
LINE
  5
7DE1B343D9DB768
330
7DE1B343D9DB87C
100
AcDbEntity
  8
TEXT
100
AcDbLine
 10
1.082757918356705
 20
0.7196093323616189
 30
0.0
 11
1.022715313512698
 21
0.7196093323616189
 31
0.0
  0
ARC
  5
7DE1B343D9DB769
330
7DE1B343D9DB87C
100
AcDbEntity
  8
TEXT
100
AcDbCircle
 10
0.8469835606141868
 20
0.6031339553209789
 30
0.0
 40
0.0820874594465043
100
AcDbArc
 50
90.0
 51
270.0
  0
LWPOLYLINE
  5
7DE1B343D9DB76A
330
7DE1B343D9DB87C
100
AcDbEntity
  8
TEXT
100
AcDbPolyline
 90
        2
 70
     0
 43
0.0001332181640625
 10
0.4388972275132224
 20
0.6119514245331046
 10
0.4289058652085318
 20
0.6852214147674843
  0
LWPOLYLINE
  5
7DE1B343D9DB76E
330
7DE1B343D9DB87C
100
AcDbEntity
  8
TEXT
100
AcDbPolyline
 90
        2
 70
     0
 43
0.0001332181640625
 10
0.4289058652085318
 20
0.6585777819549832
 10
0.4388972275132224
 20
0.5986296081268577
  0
LWPOLYLINE
  5
7DE1B343D9DB772
330
7DE1B343D9DB87C
100
AcDbEntity
  8
TEXT
100
AcDbPolyline
 90
        3
 70
     0
 43
0.0006660908203125
 10
0.5821067538804093
 20
0.5719859753143566
 10
0.5821067538804093
 20
0.6852214147674843
 10
0.4688713144272834
 20
0.6852214147674843
  0
LWPOLYLINE
  5
7DE1B343D9DB777
330
7DE1B343D9DB87C
100
AcDbEntity
  8
TEXT
100
AcDbPolyline
 90
        3
 70
     0
 43
0.0006660908203125
 10
0.5554631210679082
 20
0.5719859753143566
 10
0.5554631210679082
 20
0.6585777819549832
 10
0.4688713144272834
 20
0.6585777819549832
  0
LWPOLYLINE
  5
7DE1B343D9DB77C
330
7DE1B343D9DB87C
100
AcDbEntity
  8
TEXT
100
AcDbPolyline
 90
        2
 70
     0
 43
0.0001332181640625
 10
0.5554631210679082
 20
0.6585777819549832
 10
0.4955149472397844
 20
0.5986296081268577
  0
LWPOLYLINE
  5
7DE1B343D9DB780
330
7DE1B343D9DB87C
100
AcDbEntity
  8
TEXT
100
AcDbPolyline
 90
        2
 70
     0
 43
0.0001332181640625
 10
0.4688713144272834
 20
0.6585777819549832
 10
0.4588799521225946
 20
0.5986296081268577
  0
LWPOLYLINE
  5
7DE1B343D9DB784
330
7DE1B343D9DB87C
100
AcDbEntity
  8
TEXT
100
AcDbPolyline
 90
        2
 70
     0
 43
0.0001332181640625
 10
0.4688713144272834
 20
0.6852214147674843
 10
0.4588799521225946
 20
0.6119514245331046
  0
LWPOLYLINE
  5
7DE1B343D9DB788
330
7DE1B343D9DB87C
100
AcDbEntity
  8
TEXT
100
AcDbPolyline
 90
        2
 70
     0
 43
0.0001332181640625
 10
0.5088367636460332
 20
0.5619946130096678
 10
0.5821067538804093
 20
0.5719859753143566
  0
LWPOLYLINE
  5
7DE1B343D9DB78C
330
7DE1B343D9DB87C
100
AcDbEntity
  8
TEXT
100
AcDbPolyline
 90
        2
 70
     0
 43
0.0001332181640625
 10
0.5554631210679082
 20
0.5719859753143566
 10
0.4955149472397844
 20
0.5619946130096678
  0
LWPOLYLINE
  5
7DE1B343D9DB790
330
7DE1B343D9DB87C
100
AcDbEntity
  8
TEXT
100
AcDbPolyline
 90
        2
 70
     0
 43
0.0001332181640625
 10
0.5821067538804093
 20
0.5320205260956086
 10
0.5088367636460332
 20
0.5420118884002938
  0
LWPOLYLINE
  5
7DE1B343D9DB794
330
7DE1B343D9DB87C
100
AcDbEntity
  8
TEXT
100
AcDbPolyline
 90
        2
 70
     0
 43
0.0001332181640625
 10
0.5554631210679082
 20
0.5320205260956086
 10
0.4955149472397844
 20
0.5420118884002938
  0
LWPOLYLINE
  5
7DE1B343D9DB798
330
7DE1B343D9DB87C
100
AcDbEntity
  8
TEXT
100
AcDbPolyline
 90
        2
 70
     0
 43
0.0001332181640625
 10
0.5554631210679082
 20
0.445428719454982
 10
0.4955149472397844
 20
0.5053768932831076
  0
LWPOLYLINE
  5
7DE1B343D9DB79C
330
7DE1B343D9DB87C
100
AcDbEntity
  8
TEXT
100
AcDbPolyline
 90
        3
 70
     0
 43
0.0006660908203125
 10
0.4688713144272834
 20
0.445428719454982
 10
0.5554631210679082
 20
0.445428719454982
 10
0.5554631210679082
 20
0.5320205260956086
  0
LWPOLYLINE
  5
7DE1B343D9DB7A1
330
7DE1B343D9DB87C
100
AcDbEntity
  8
TEXT
100
AcDbPolyline
 90
        3
 70
     0
 43
0.0006660908203125
 10
0.4688713144272834
 20
0.418785086642481
 10
0.5821067538804093
 20
0.418785086642481
 10
0.5821067538804093
 20
0.5320205260956086
  0
LWPOLYLINE
  5
7DE1B343D9DB7A6
330
7DE1B343D9DB87C
100
AcDbEntity
  8
TEXT
100
AcDbPolyline
 90
        5
 70
     0
 43
0.0001332181640625
 10
0.4388972275132224
 20
0.4920550768768571
 10
0.4388972275132224
 20
0.5053768932831076
 10
0.4022622323960344
 20
0.5053768932831076
 10
0.4022622323960344
 20
0.5420118884002938
 10
0.3889404159897838
 20
0.5420118884002938
  0
LWPOLYLINE
  5
7DE1B343D9DB7AD
330
7DE1B343D9DB87C
100
AcDbEntity
  8
TEXT
100
AcDbPolyline
 90
        2
 70
     0
 43
0.0006660908203125
 10
0.4289058652085318
 20
0.445428719454982
 10
0.4289058652085318
 20
0.418785086642481
  0
LWPOLYLINE
  5
7DE1B343D9DB7B1
330
7DE1B343D9DB87C
100
AcDbEntity
  8
TEXT
100
AcDbPolyline
 90
        2
 70
     0
 43
0.0001332181640625
 10
0.4289058652085318
 20
0.445428719454982
 10
0.4388972275132224
 20
0.5053768932831076
  0
LWPOLYLINE
  5
7DE1B343D9DB7B5
330
7DE1B343D9DB87C
100
AcDbEntity
  8
TEXT
100
AcDbPolyline
 90
        2
 70
     0
 43
0.0001332181640625
 10
0.4289058652085318
 20
0.418785086642481
 10
0.4388972275132224
 20
0.4920550768768571
  0
LWPOLYLINE
  5
7DE1B343D9DB7B9
330
7DE1B343D9DB87C
100
AcDbEntity
  8
TEXT
100
AcDbPolyline
 90
        5
 70
     0
 43
0.0001332181640625
 10
0.3889404159897838
 20
0.5619946130096678
 10
0.4022622323960326
 20
0.5619946130096678
 10
0.4022622323960326
 20
0.5986296081268577
 10
0.4388972275132224
 20
0.5986296081268577
 10
0.4388972275132224
 20
0.6119514245331046
  0
LWPOLYLINE
  5
7DE1B343D9DB7C0
330
7DE1B343D9DB87C
100
AcDbEntity
  8
TEXT
100
AcDbPolyline
 90
        5
 70
     0
 43
0.0001332181640625
 10
0.4588799521225946
 20
0.6119514245331046
 10
0.4588799521225946
 20
0.5986296081268577
 10
0.4955149472397844
 20
0.5986296081268577
 10
0.4955149472397844
 20
0.5619946130096678
 10
0.5088367636460332
 20
0.5619946130096678
  0
LWPOLYLINE
  5
7DE1B343D9DB7C7
330
7DE1B343D9DB87C
100
AcDbEntity
  8
TEXT
100
AcDbPolyline
 90
        2
 70
     0
 43
0.0001332181640625
 10
0.4688713144272834
 20
0.445428719454982
 10
0.4588799521225946
 20
0.5053768932831076
  0
LWPOLYLINE
  5
7DE1B343D9DB7CB
330
7DE1B343D9DB87C
100
AcDbEntity
  8
TEXT
100
AcDbPolyline
 90
        2
 70
     0
 43
0.0001332181640625
 10
0.4588799521225946
 20
0.4920550768768571
 10
0.4688713144272834
 20
0.418785086642481
  0
LWPOLYLINE
  5
7DE1B343D9DB7CF
330
7DE1B343D9DB87C
100
AcDbEntity
  8
TEXT
100
AcDbPolyline
 90
        2
 70
     0
 43
0.0006660908203125
 10
0.4688713144272834
 20
0.445428719454982
 10
0.4688713144272834
 20
0.418785086642481
  0
LWPOLYLINE
  5
7DE1B343D9DB7D3
330
7DE1B343D9DB87C
100
AcDbEntity
  8
TEXT
100
AcDbPolyline
 90
        5
 70
     0
 43
0.0001332181640625
 10
0.5088367636460332
 20
0.5420118884002938
 10
0.4955149472397844
 20
0.5420118884002938
 10
0.4955149472397844
 20
0.5053768932831076
 10
0.4588799521225946
 20
0.5053768932831076
 10
0.4588799521225946
 20
0.4920550768768571
  0
LWPOLYLINE
  5
7DE1B343D9DB7DA
330
7DE1B343D9DB87C
100
AcDbEntity
  8
TEXT
100
AcDbPolyline
 90
        2
 70
     0
 43
0.0006660908203125
 10
0.5554631210679082
 20
0.5719859753143566
 10
0.5821067538804093
 20
0.5719859753143566
  0
LWPOLYLINE
  5
7DE1B343D9DB7DE
330
7DE1B343D9DB87C
100
AcDbEntity
  8
TEXT
100
AcDbPolyline
 90
        2
 70
     0
 43
0.0006660908203125
 10
0.5554631210679082
 20
0.5320205260956086
 10
0.5821067538804093
 20
0.5320205260956086
  0
LINE
  5
7DE1B343D9DB7E2
330
7DE1B343D9DB87C
100
AcDbEntity
  8
TEXT
100
AcDbLine
 10
0.852220890728434
 20
0.6209447201107153
 30
0.0
 11
1.019126544757405
 21
0.6209447201107153
 31
0.0
  0
LINE
  5
7DE1B343D9DB7E3
330
7DE1B343D9DB87C
100
AcDbEntity
  8
TEXT
100
AcDbLine
 10
0.9178210269727351
 20
0.5851399985000874
 30
0.0
 11
0.852220890728434
 21
0.5851399985000874
 31
0.0
  0
LINE
  5
7DE1B343D9DB7E4
330
7DE1B343D9DB87C
100
AcDbEntity
  8
TEXT
100
AcDbLine
 10
0.7648961011676825
 20
0.4187483817789697
 30
0.0
 11
0.9178210269727351
 21
0.4187483817789697
 31
0.0
  0
LINE
  5
7DE1B343D9DB7E5
330
7DE1B343D9DB87C
100
AcDbEntity
  8
TEXT
100
AcDbLine
 10
0.9227614008790148
 20
0.487105388112409
 30
0.0
 11
0.7648961011676807
 21
0.487105388112409
 31
0.0
  0
LINE
  5
7DE1B343D9DB7E6
330
7DE1B343D9DB87C
100
AcDbEntity
  8
TEXT
100
AcDbLine
 10
0.846983560614186
 20
0.5210464958744736
 30
0.0
 11
0.9227614008790148
 21
0.5210464958744736
 31
0.0
  0
ARC
  5
7DE1B343D9DB7E7
330
7DE1B343D9DB87C
100
AcDbEntity
  8
TEXT
100
AcDbCircle
 10
0.8522208907284349
 20
0.6030423593054031
 30
0.0
 40
0.017902360805315
100
AcDbArc
 50
90.0
 51
270.0
  0
LINE
  5
7DE1B343D9DB7E8
330
7DE1B343D9DB87C
100
AcDbEntity
  8
TEXT
100
AcDbLine
 10
0.7648961011676807
 20
0.487105388112409
 30
0.0
 11
0.7648961011676825
 21
0.4187483817789697
 31
0.0
  0
LINE
  5
7DE1B343D9DB7E9
330
7DE1B343D9DB87C
100
AcDbEntity
  8
TEXT
100
AcDbLine
 10
1.019126544757405
 20
0.6209447201107153
 30
0.0
 11
1.019126544757405
 21
0.4785407731170195
 31
0.0
  0
ARC
  5
7DE1B343D9DB7EA
330
7DE1B343D9DB87C
100
AcDbEntity
  8
TEXT
100
AcDbCircle
 10
0.917821026972736
 20
0.5019441901395268
 30
0.0
 40
0.0831958083605586
100
AcDbArc
 50
270.0
 51
90.0
  0
ARC
  5
7DE1B343D9DB7EB
330
7DE1B343D9DB87C
100
AcDbEntity
  8
TEXT
100
AcDbCircle
 10
0.9227614008790157
 20
0.5040759419934431
 30
0.0
 40
0.0169705538810321
100
AcDbArc
 50
270.0
 51
90.0
  0
LWPOLYLINE
  5
7DE1B343D9DB7EC
330
7DE1B343D9DB87C
100
AcDbEntity
  8
TEXT
100
AcDbPolyline
 90
        2
 70
     0
 43
0.0006660908203125
 10
0.4289058652085318
 20
0.6585777819549832
 10
0.4289058652085318
 20
0.6852214147674843
  0
LWPOLYLINE
  5
7DE1B343D9DB7F0
330
7DE1B343D9DB87C
100
AcDbEntity
  8
TEXT
100
AcDbPolyline
 90
        2
 70
     0
 43
0.0006660908203125
 10
0.4688713144272834
 20
0.6585777819549832
 10
0.4688713144272834
 20
0.6852214147674843
  0
LINE
  5
7DE1B343D9DB7F4
330
7DE1B343D9DB87C
100
AcDbEntity
  8
TEXT
100
AcDbLine
 10
1.022715313512698
 20
0.6852214147674807
 30
0.0
 11
0.846983560614186
 21
0.6852214147674807
 31
0.0
  0
LINE
  5
7DE1B343D9DB7F5
330
7DE1B343D9DB87C
100
AcDbEntity
  8
TEXT
100
AcDbLine
 10
1.022715313512698
 20
0.7196093323616189
 30
0.0
 11
1.022715313512698
 21
0.6852214147674807
 31
0.0
  0
LINE
  5
7DE1B343D9DB7F6
330
7DE1B343D9DB87C
100
AcDbEntity
  8
TEXT
100
AcDbLine
 10
1.21318720553255
 20
0.5843494186543601
 30
0.0
 11
1.154556884500612
 21
0.6852214147674807
 31
0.0
  0
LINE
  5
7DE1B343D9DB7F7
330
7DE1B343D9DB87C
100
AcDbEntity
  8
TEXT
100
AcDbLine
 10
1.271935768338416
 20
0.6852214147674807
 30
0.0
 11
1.21318720553255
 21
0.5843494186543601
 31
0.0
  0
LINE
  5
7DE1B343D9DB7F8
330
7DE1B343D9DB87C
100
AcDbEntity
  8
TEXT
100
AcDbLine
 10
1.368866393698157
 20
0.5011362198819689
 30
0.0
 11
1.368866393698157
 21
0.7532328925062913
 31
0.0
  0
LINE
  5
7DE1B343D9DB7F9
330
7DE1B343D9DB87C
100
AcDbEntity
  8
TEXT
100
AcDbLine
 10
1.401178247835817
 20
0.6852214147674807
 30
0.0
 11
1.401178247835817
 21
0.4843572080350725
 31
0.0
  0
LINE
  5
7DE1B343D9DB7FA
330
7DE1B343D9DB87C
100
AcDbEntity
  8
TEXT
100
AcDbLine
 10
1.401178247835817
 20
0.4843572080350725
 30
0.0
 11
1.384184610951216
 21
0.4843572080350725
 31
0.0
  0
LINE
  5
7DE1B343D9DB7FB
330
7DE1B343D9DB87C
100
AcDbEntity
  8
TEXT
100
AcDbLine
 10
1.370005967194352
 20
0.4187483817789697
 30
0.0
 11
1.468009300893786
 21
0.4187483817789697
 31
0.0
  0
LINE
  5
7DE1B343D9DB7FC
330
7DE1B343D9DB87C
100
AcDbEntity
  8
TEXT
100
AcDbLine
 10
1.203586968535596
 20
0.4387068878839826
 30
0.0
 11
1.30088667462904
 21
0.6030570988192508
 31
0.0
  0
ARC
  5
7DE1B343D9DB7FD
330
7DE1B343D9DB87C
100
AcDbEntity
  8
TEXT
100
AcDbCircle
 10
1.169543408623382
 20
0.4582961040526654
 30
0.0
 40
0.0392772371940762
100
AcDbArc
 50
270.1604552698595
 51
330.0831797321295
  0
LINE
  5
7DE1B343D9DB7FE
330
7DE1B343D9DB87C
100
AcDbEntity
  8
TEXT
100
AcDbLine
 10
1.073013152237511
 20
0.4187483817789697
 30
0.0
 11
1.169653403312505
 21
0.419019020877252
 31
0.0
  0
LWPOLYLINE
  5
7DE1B343D9DB7FF
330
7DE1B343D9DB87C
100
AcDbEntity
  8
TEXT
100
AcDbPolyline
 90
        6
 70
     1
 43
0.0
 10
1.11553695581266
 20
0.6209447201107153
 10
1.085220361592452
 20
0.6209447201107153
 10
1.085220361592452
 20
0.4978337220558209
 42
0.407328721240804
 10
1.096764012753928
 20
0.4860148073794348
 10
1.157385711798659
 20
0.4860148073794348
 10
1.174851052205977
 20
0.518827036422914
  0
LINE
  5
7DE1B343D9DB807
330
7DE1B343D9DB87C
100
AcDbEntity
  8
TEXT
100
AcDbLine
 10
1.30088667462904
 20
0.6030570988192508
 30
0.0
 11
1.30088667462904
 21
0.4702997239938945
 31
0.0
  0
ARC
  5
7DE1B343D9DB808
330
7DE1B343D9DB87C
100
AcDbEntity
  8
TEXT
100
AcDbCircle
 10
1.384184610951214
 20
0.4997390142784979
 30
0.0
 40
0.0153818062434269
100
AcDbArc
 50
174.7883570302258
 51
270.0
  0
LWPOLYLINE
  5
7DE1B343D9DB809
330
7DE1B343D9DB87C
100
AcDbEntity
  8
TEXT
100
AcDbPolyline
 90
        2
 70
     0
 43
0.0
 10
1.300886674629039
 20
0.470299723993898
 42
0.3318488747599744
 10
1.370005967194352
 20
0.4187483817789697
 42
-6.868794160588311
  0
LINE
  5
7DE1B343D9DB80D
330
7DE1B343D9DB87C
100
AcDbEntity
  8
TEXT
100
AcDbLine
 10
1.525398369883047
 20
0.4187483817789697
 30
0.0
 11
1.592456416664887
 21
0.4187483817789697
 31
0.0
  0
LINE
  5
7DE1B343D9DB80E
330
7DE1B343D9DB87C
100
AcDbEntity
  8
TEXT
100
AcDbLine
 10
1.525398369883047
 20
0.6133909309446053
 30
0.0
 11
1.525398369883047
 21
0.4187483817789697
 31
0.0
  0
LINE
  5
7DE1B343D9DB80F
330
7DE1B343D9DB87C
100
AcDbEntity
  8
TEXT
100
AcDbLine
 10
1.468009300893786
 20
0.6209447201107153
 30
0.0
 11
1.517844580716934
 21
0.6209447201107153
 31
0.0
  0
LINE
  5
7DE1B343D9DB810
330
7DE1B343D9DB87C
100
AcDbEntity
  8
TEXT
100
AcDbLine
 10
1.468009300893786
 20
0.4187483817789697
 30
0.0
 11
1.468009300893786
 21
0.6209447201107153
 31
0.0
  0
LWPOLYLINE
  5
7DE1B343D9DB811
330
7DE1B343D9DB87C
100
AcDbEntity
  8
TEXT
100
AcDbPolyline
 90
        2
 70
     0
 43
0.0
 10
1.517844580716932
 20
0.6209447201107153
 42
-0.4142135623731017
 10
1.525398369883046
 20
0.6133909309446053
 42
-0.9999999999999998
  0
LINE
  5
7DE1B343D9DB815
330
7DE1B343D9DB87C
100
AcDbEntity
  8
TEXT
100
AcDbLine
 10
1.723654581494617
 20
0.6209447201107153
 30
0.0
 11
1.723654581494617
 21
0.5458923140365087
 31
0.0
  0
LINE
  5
7DE1B343D9DB816
330
7DE1B343D9DB87C
100
AcDbEntity
  8
TEXT
100
AcDbLine
 10
1.592456416664887
 20
0.6209447201107153
 30
0.0
 11
1.646590013585838
 21
0.6209447201107153
 31
0.0
  0
LINE
  5
7DE1B343D9DB817
330
7DE1B343D9DB87C
100
AcDbEntity
  8
TEXT
100
AcDbLine
 10
1.592456416664887
 20
0.4187483817789697
 30
0.0
 11
1.592456416664887
 21
0.6209447201107153
 31
0.0
  0
LWPOLYLINE
  5
7DE1B343D9DB818
330
7DE1B343D9DB87C
100
AcDbEntity
  8
TEXT
100
AcDbPolyline
 90
        2
 70
     0
 43
0.0
 10
1.646590013585836
 20
0.6209447201107153
 42
-0.4142135623731017
 10
1.654143802751949
 20
0.6133909309446053
 42
-0.9999999999999998
  0
LWPOLYLINE
  5
7DE1B343D9DB81C
330
7DE1B343D9DB87C
100
AcDbEntity
  8
TEXT
100
AcDbPolyline
 90
        4
 70
     0
 43
0.0
 10
1.654143802751949
 20
0.6133909309446053
 10
1.654143802751949
 20
0.4187483817789697
 10
1.722622086039807
 20
0.4187483817789697
 10
1.722622086039807
 20
0.4622393267294079
 42
-1.714843617202739
  0
LINE
  5
7DE1B343D9DB822
330
7DE1B343D9DB87C
100
AcDbEntity
  8
TEXT
100
AcDbLine
 10
1.082757918356705
 20
0.6852214147674807
 30
0.0
 11
1.082757918356705
 21
0.7196093323616189
 31
0.0
  0
LINE
  5
7DE1B343D9DB823
330
7DE1B343D9DB87C
100
AcDbEntity
  8
TEXT
100
AcDbLine
 10
1.154556884500612
 20
0.6852214147674807
 30
0.0
 11
1.082757918356705
 21
0.6852214147674807
 31
0.0
  0
LINE
  5
7DE1B343D9DB824
330
7DE1B343D9DB87C
100
AcDbEntity
  8
TEXT
100
AcDbLine
 10
1.302057681131792
 20
0.6852214147674807
 30
0.0
 11
1.271935768338416
 21
0.6852214147674807
 31
0.0
  0
LINE
  5
7DE1B343D9DB825
330
7DE1B343D9DB87C
100
AcDbEntity
  8
TEXT
100
AcDbLine
 10
1.302057681131792
 20
0.7532328925062913
 30
0.0
 11
1.302057681131792
 21
0.6852214147674807
 31
0.0
  0
LINE
  5
7DE1B343D9DB826
330
7DE1B343D9DB87C
100
AcDbEntity
  8
TEXT
100
AcDbLine
 10
1.368866393698157
 20
0.7532328925062913
 30
0.0
 11
1.302057681131792
 21
0.7532328925062913
 31
0.0
  0
LWPOLYLINE
  5
7DE1B343D9DB827
330
7DE1B343D9DB87C
100
AcDbEntity
  8
TEXT
100
AcDbPolyline
 90
        3
 70
     0
 43
0.0
 10
1.689278153296159
 20
0.6852214147674843
 10
1.570977994480115
 20
0.6852214147674843
 10
1.570977994480115
 20
0.6580539180065883
 42
-1.960274751411753
  0
LINE
  5
7DE1B343D9DB82C
330
7DE1B343D9DB87C
100
AcDbEntity
  8
TEXT
100
AcDbLine
 10
1.535196303766953
 20
0.6852214147674807
 30
0.0
 11
1.401178247835817
 21
0.6852214147674807
 31
0.0
  0
LWPOLYLINE
  5
7DE1B343D9DB82D
330
7DE1B343D9DB87C
100
AcDbEntity
  8
TEXT
100
AcDbPolyline
 90
        2
 70
     0
 43
0.0
 10
1.535196303766953
 20
0.6852214147674843
 42
-0.3328679258950098
 10
1.570977994480115
 20
0.6580539180065883
 42
6.772930709997214
  0
LINE
  5
7DE1B343D9DB831
330
7DE1B343D9DB87C
100
AcDbEntity
  8
TEXT
100
AcDbLine
 10
1.725059844009326
 20
0.6852214147674807
 30
0.0
 11
1.725059844009326
 21
0.6568988689978368
 31
0.0
  0
LWPOLYLINE
  5
7DE1B343D9DB832
330
7DE1B343D9DB87C
100
AcDbEntity
  8
TEXT
100
AcDbPolyline
 90
        2
 70
     0
 43
0.0
 10
1.689278153296159
 20
0.6852214147674843
 42
-0.3277054968067132
 10
1.725059844009324
 20
0.6568988689978404
 42
6.667889725900311
  0
LINE
  5
7DE1B343D9DB836
330
7DE1B343D9DB87C
100
AcDbEntity
  8
TEXT
100
AcDbLine
 10
1.938851692101426
 20
0.5800094362140534
 30
0.0
 11
1.895100920919524
 21
0.6622597122101986
 31
0.0
  0
LINE
  5
7DE1B343D9DB837
330
7DE1B343D9DB87C
100
AcDbEntity
  8
TEXT
100
AcDbLine
 10
1.938851692101426
 20
0.6852214147674807
 30
0.0
 11
1.938851692101426
 21
0.5800094362140534
 31
0.0
  0
LINE
  5
7DE1B343D9DB838
330
7DE1B343D9DB87C
100
AcDbEntity
  8
TEXT
100
AcDbLine
 10
2.166535431039795
 20
0.6093560883559426
 30
0.0
 11
2.166535431039795
 21
0.7506856205350814
 31
0.0
  0
LINE
  5
7DE1B343D9DB839
330
7DE1B343D9DB87C
100
AcDbEntity
  8
TEXT
100
AcDbLine
 10
2.213633589595779
 20
0.6852214147674807
 30
0.0
 11
2.166535431039795
 21
0.6093560883559426
 31
0.0
  0
LINE
  5
7DE1B343D9DB83A
330
7DE1B343D9DB87C
100
AcDbEntity
  8
TEXT
100
AcDbLine
 10
2.224068306359702
 20
0.5753281718265071
 30
0.0
 11
2.288625422325408
 21
0.6852214147674807
 31
0.0
  0
LINE
  5
7DE1B343D9DB83B
330
7DE1B343D9DB87C
100
AcDbEntity
  8
TEXT
100
AcDbLine
 10
2.102700439817022
 20
0.4187483817789697
 30
0.0
 11
2.167078624135642
 21
0.4187483817789697
 31
0.0
  0
LWPOLYLINE
  5
7DE1B343D9DB83C
330
7DE1B343D9DB87C
100
AcDbEntity
  8
TEXT
100
AcDbPolyline
 90
        2
 70
     0
 43
0.0
 10
1.942791369406464
 20
0.4622393267294079
 42
-0.2901071551932486
 10
1.899715436538819
 20
0.4187483817789697
 42
-5.328517124445184
  0
ARC
  5
7DE1B343D9DB840
330
7DE1B343D9DB87C
100
AcDbEntity
  8
TEXT
100
AcDbCircle
 10
1.830860854881905
 20
0.592585345110718
 30
0.0
 40
0.028359375
100
AcDbArc
 50
25.78218179591245
 51
90.0
  0
LINE
  5
7DE1B343D9DB841
330
7DE1B343D9DB87C
100
AcDbEntity
  8
TEXT
100
AcDbLine
 10
1.866661930186028
 20
0.583669746648583
 30
0.0
 11
1.856397169772463
 21
0.6049202862212773
 31
0.0
  0
LINE
  5
7DE1B343D9DB842
330
7DE1B343D9DB87C
100
AcDbEntity
  8
TEXT
100
AcDbLine
 10
1.784373940402645
 20
0.583669746648583
 30
0.0
 11
1.866661930186028
 21
0.583669746648583
 31
0.0
  0
LWPOLYLINE
  5
7DE1B343D9DB843
330
7DE1B343D9DB87C
100
AcDbEntity
  8
TEXT
100
AcDbPolyline
 90
        4
 70
     1
 43
0.0
 10
1.879592971468927
 20
0.5217123597629949
 10
1.790932652809068
 20
0.5217123597629949
 42
0.9999999999999998
 10
1.790932652809068
 20
0.4793138192591342
 10
1.879592971468927
 20
0.4793138192591342
 42
1.0
  0
LWPOLYLINE
  5
7DE1B343D9DB849
330
7DE1B343D9DB87C
100
AcDbEntity
  8
TEXT
100
AcDbPolyline
 90
        2
 70
     0
 43
0.0
 10
1.765698018907443
 20
0.4187483817789697
 10
1.899715436538819
 20
0.4187483817789697
 42
0.9999999999999998
  0
LINE
  5
7DE1B343D9DB84D
330
7DE1B343D9DB87C
100
AcDbEntity
  8
TEXT
100
AcDbLine
 10
2.026052458524459
 20
0.6209447201107153
 30
0.0
 11
2.102700439817017
 21
0.6209447201107153
 31
0.0
  0
LINE
  5
7DE1B343D9DB84E
330
7DE1B343D9DB87C
100
AcDbEntity
  8
TEXT
100
AcDbLine
 10
2.102700439817017
 20
0.6209447201107153
 30
0.0
 11
2.102700439817022
 21
0.4187483817789697
 31
0.0
  0
ARC
  5
7DE1B343D9DB84F
330
7DE1B343D9DB87C
100
AcDbEntity
  8
TEXT
100
AcDbCircle
 10
2.026052458524457
 20
0.5960388448280525
 30
0.0
 40
0.0249058752826653
100
AcDbArc
 50
89.99971217465335
 51
179.9999999999985
  0
LINE
  5
7DE1B343D9DB850
330
7DE1B343D9DB87C
100
AcDbEntity
  8
TEXT
100
AcDbLine
 10
2.0011465832418
 20
0.4187483817789697
 30
0.0
 11
2.001146583241794
 21
0.5960388872104381
 31
0.0
  0
LWPOLYLINE
  5
7DE1B343D9DB851
330
7DE1B343D9DB87C
100
AcDbEntity
  8
TEXT
100
AcDbPolyline
 90
        2
 70
     0
 43
0.0
 10
1.942791369406464
 20
0.4187483817789697
 10
2.001146583241798
 20
0.4187483817789697
  0
LWPOLYLINE
  5
7DE1B343D9DB855
330
7DE1B343D9DB87C
100
AcDbEntity
  8
TEXT
100
AcDbPolyline
 90
        2
 70
     0
 43
0.0
 10
1.942791369406464
 20
0.4622393267294079
 10
1.942791369406464
 20
0.4187483817789697
  0
LINE
  5
7DE1B343D9DB859
330
7DE1B343D9DB87C
100
AcDbEntity
  8
TEXT
100
AcDbLine
 10
2.319560529723313
 20
0.4187483817789697
 30
0.0
 11
2.224068306359702
 21
0.5753281718265071
 31
0.0
  0
LINE
  5
7DE1B343D9DB85A
330
7DE1B343D9DB87C
100
AcDbEntity
  8
TEXT
100
AcDbLine
 10
2.242982157347107
 20
0.4187483817789697
 30
0.0
 11
2.319560529723313
 21
0.4187483817789697
 31
0.0
  0
LINE
  5
7DE1B343D9DB85B
330
7DE1B343D9DB87C
100
AcDbEntity
  8
TEXT
100
AcDbLine
 10
2.167078624135642
 20
0.55032795025515
 30
0.0
 11
2.242982157347107
 21
0.4187483817789697
 31
0.0
  0
LINE
  5
7DE1B343D9DB85C
330
7DE1B343D9DB87C
100
AcDbEntity
  8
TEXT
100
AcDbLine
 10
2.167078624135642
 20
0.4187483817789697
 30
0.0
 11
2.167078624135642
 21
0.55032795025515
 31
0.0
  0
LINE
  5
7DE1B343D9DB85D
330
7DE1B343D9DB87C
100
AcDbEntity
  8
TEXT
100
AcDbLine
 10
2.166535431039795
 20
0.7506856205350814
 30
0.0
 11
2.098220552490522
 21
0.7506856205350814
 31
0.0
  0
ARC
  5
7DE1B343D9DB85E
330
7DE1B343D9DB87C
100
AcDbEntity
  8
TEXT
100
AcDbCircle
 10
1.857864813449316
 20
0.6436378476465783
 30
0.0
 40
0.0416329381542859
100
AcDbArc
 50
26.56974201007528
 51
87.20939649401342
  0
LINE
  5
7DE1B343D9DB85F
330
7DE1B343D9DB87C
100
AcDbEntity
  8
TEXT
100
AcDbLine
 10
2.002748598400927
 20
0.6852214147674807
 30
0.0
 11
1.938851692101426
 21
0.6852214147674807
 31
0.0
  0
LINE
  5
7DE1B343D9DB860
330
7DE1B343D9DB87C
100
AcDbEntity
  8
TEXT
100
AcDbLine
 10
2.002748598400927
 20
0.657673764906606
 30
0.0
 11
2.002748598400927
 21
0.6852214147674807
 31
0.0
  0
ARC
  5
7DE1B343D9DB861
330
7DE1B343D9DB87C
100
AcDbEntity
  8
TEXT
100
AcDbCircle
 10
2.033941415464035
 20
0.6539756874852159
 30
0.0
 40
0.0314112657011332
100
AcDbArc
 50
95.88484768694724
 51
173.2388340632136
  0
LINE
  5
7DE1B343D9DB862
330
7DE1B343D9DB87C
100
AcDbEntity
  8
TEXT
100
AcDbLine
 10
2.098220552490516
 20
0.6852214147674807
 30
0.0
 11
2.030720834841
 21
0.6852214147674807
 31
0.0
  0
LINE
  5
7DE1B343D9DB863
330
7DE1B343D9DB87C
100
AcDbEntity
  8
TEXT
100
AcDbLine
 10
2.098220552490522
 20
0.7506856205350814
 30
0.0
 11
2.098220552490516
 21
0.6852214147674807
 31
0.0
  0
LINE
  5
7DE1B343D9DB864
330
7DE1B343D9DB87C
100
AcDbEntity
  8
TEXT
100
AcDbLine
 10
2.288625422325408
 20
0.6852214147674807
 30
0.0
 11
2.213633589595781
 21
0.6852214147674807
 31
0.0
  0
INSERT
  5
7DE1B343D9DB897
330
7DE1B343D9DB87C
100
AcDbEntity
  8
ASHADE
 62
     1
100
AcDbBlockReference
  2
AVE_RENDER
 10
0.0
 20
0.0
 30
0.0
1001
AVE_RENDER
1002
{
1070
     6
1000
Pref
1070
    30
1070
    20
1070
     1
1070
     0
1000

1070
    10
1070
     1
1070
    30
1040
1.0
1070
     1
1040
0.3
1040
0.7
1040
0.0
1040
10.0
1010
-1.0
1020
-1.0
1030
-1.0
1040
0.3
1070
    49
1070
     0
1070
     0
1010
1.0
1020
1.0
1030
1.0
1040
45.0
1070
     1
1070
     0
1000
WCS
1040
0.0
1002
}
  0
INSERT
  5
7DE1B343D9DB898
330
7DE1B343D9DB87C
100
AcDbEntity
  8
ASHADE
 62
     3
100
AcDbBlockReference
  2
AVE_RENDER
 10
0.0
 20
0.0
 30
0.0
1001
AVE_RENDER
1002
{
1070
     0
1000
Full Opt
1070
     0
1070
     1
1070
     1
1070
     1
1070
     0
1070
     0
1070
     0
1070
     1
1070
     1
1040
0.0001
1040
0.0001
1002
}
  0
INSERT
  5
7DE1B343D9DB899
330
7DE1B343D9DB87C
100
AcDbEntity
  8
ASHADE
 62
     4
100
AcDbBlockReference
  2
AVE_RENDER
 10
0.0
 20
0.0
 30
0.0
1001
AVE_RENDER
1002
{
1070
     0
1000
Quick Opt
1070
     0
1070
     1
1070
     1
1070
     1
1070
     0
1070
     0
1070
     1
1002
}
  0
INSERT
  5
7DE1B343D9DB89A
330
7DE1B343D9DB87C
100
AcDbEntity
  8
ASHADE
 62
     5
100
AcDbBlockReference
  2
AVE_RENDER
 10
0.0
 20
0.0
 30
0.0
1001
AVE_RENDER
1002
{
1070
     1
1000
Scanl Opt
1070
     2
1070
     0
1070
     2
1040
2.0
1040
4.0
1070
     0
1070
     1
1070
     0
1040
0.03
1002
}
  0
INSERT
  5
7DE1B343D9DB89B
330
7DE1B343D9DB87C
100
AcDbEntity
  8
ASHADE
 62
     6
100
AcDbBlockReference
  2
AVE_RENDER
 10
0.0
 20
0.0
 30
0.0
1001
AVE_RENDER
1002
{
1070
     2
1000
Raytr Opt
1070
     2
1070
     0
1070
     2
1040
2.0
1040
4.0
1070
     0
1070
     1
1070
     1
1040
0.03
1070
     3
1040
0.03
1002
}
  0
INSERT
  5
7DE1B343D9DB89C
330
7DE1B343D9DB87C
100
AcDbEntity
  8
ASHADE
 62
     7
100
AcDbBlockReference
  2
AVE_RENDER
 10
0.0
 20
0.0
 30
0.0
1001
AVE_RENDER
1002
{
1070
     0
1000
RFile Opt
1070
     5
1070
   640
1070
   480
1070
 10000
1070
     3
1070
    32
1070
    24
1070
     0
1070
     0
1070
     0
1070
     1
1070
     0
1070
     0
1070
     0
1002
}
  0
INSERT
  5
7DE1B343D9DB89D
330
7DE1B343D9DB87C
100
AcDbEntity
  8
ASHADE
 62
     8
100
AcDbBlockReference
  2
AVE_RENDER
 10
0.0
 20
0.0
 30
0.0
1001
AVE_RENDER
1002
{
1070
     0
1000
Fog Opt
1070
     0
1070
     0
1040
0.0
1040
1.0
1040
0.0
1040
1.0
1010
0.5
1020
0.5
1030
0.5
1002
}
  0
INSERT
  5
7DE1B343D9DB89E
330
7DE1B343D9DB87C
100
AcDbEntity
  8
ASHADE
 62
     9
100
AcDbBlockReference
  2
AVE_RENDER
 10
0.0
 20
0.0
 30
0.0
1001
AVE_RENDER
1002
{
1070
     0
1000
BG Opt
1070
     0
1070
     1
1010
0.0
1020
0.0
1030
0.0
1010
1.0
1020
0.0
1030
0.0
1010
0.0
1020
1.0
1030
0.0
1010
0.0
1020
0.0
1030
1.0
1040
0.5
1040
0.33
1040
0.0
1000

1070
     1
1000

1070
     1
1070
     1
1040
1.0
1040
1.0
1040
0.0
1040
0.0
1070
     0
1002
}
  0
INSERT
  5
7DE1B343D9DB8A5
330
7DE1B343D9DB87C
100
AcDbEntity
  8
ASHADE
 62
     1
100
AcDbBlockReference
  2
AVE_GLOBAL
 10
0.0
 20
0.0
 30
0.0
1001
AVE_MATERIAL
1002
{
1000
*GLOBAL*
1000
1
1000
Global finish.
1002
{
1002
}
1002
{
1070
    63
1002
{
1002
{
1010
-1.0
1020
-1.0
1030
-1.0
1002
}
1040
0.1000000014901161
1000

1040
0.0
1002
{
1002
}
1040
0.0
1002
{
1002
}
1040
0.0
1002
}
1002
{
1002
{
1010
-1.0
1020
-1.0
1030
-1.0
1002
}
1040
0.6999999880790711
1000

1040
0.0
1002
{
1002
}
1040
0.0
1002
{
1002
}
1040
0.0
1002
}
1002
{
1002
{
1010
-1.0
1020
-1.0
1030
-1.0
1002
}
1040
0.2000000029802322
1000

1040
0.0
1002
{
1002
}
1040
0.0
1002
{
1002
}
1040
0.0
1002
}
1002
{
1070
     0
1002
{
1070
     1
1002
{
1040
1.0
1040
1.0
1000

1040
0.0
1002
{
1002
}
1040
0.0
1002
{
1002
}
1040
0.0
1002
}
1002
}
1040
1.0
1040
0.0
1040
0.0
1002
}
1002
{
1040
1.0
1040
1.0
1000

1040
0.0
1002
{
1002
}
1040
0.0
1002
{
1002
}
1040
0.0
1002
}
1002
{
1040
0.5
1040
1.0
1000

1040
0.0
1002
{
1002
}
1040
0.0
1002
{
1002
}
1040
0.0
1002
}
1002
{
1070
     0
1040
0.0
1002
{
1002
}
1040
1.0
1002
{
1002
}
1040
0.0
1002
}
1002
{
1040
0.0
1002
{
1002
{
1010
0.0
1020
0.0
1030
0.0
1002
}
1040
1.0
1000

1040
0.0
1002
{
1002
}
1040
0.0
1002
{
1002
}
1040
0.0
1002
}
1002
}
1002
{
1002
{
1070
     1
1002
{
1040
0.0
1040
1.0
1000

1040
0.0
1002
{
1002
}
1040
0.0
1002
{
1002
}
1040
0.0
1002
}
1002
}
1040
0.0
1002
{
1002
}
1010
1.0
1020
0.0
1030
0.0
1010
0.0
1020
1.0
1030
0.0
1010
0.0
1020
0.0
1030
1.0
1070
     0
1002
}
1002
{
1002
{
1040
1.0
1040
1.0
1002
{
1070
     1
1002
{
1040
1.0
1040
1.0
1000

1040
0.0
1002
{
1002
}
1040
0.0
1002
{
1002
}
1040
0.0
1002
}
1002
}
1002
}
1070
     0
1040
0.0
1002
{
1002
}
1002
}
1002
{
1002
}
1002
}
1002
{
1071
        3
1070
     3
1070
     0
1002
{
1070
     2
1070
     0
1070
     0
1040
0.0
1002
}
1070
     0
1070
     2
1002
{
1002
}
1002
}
1002
{
1040
8030.0
1040
190.3000030517578
1040
0.3050000071525574
1040
228.0
1040
545.0
1040
14.0
1040
17.39999961853027
1040
0.4560000002384186
1002
}
1002
}
  0
ENDSEC
  0
SECTION
  2
OBJECTS
  0
DICTIONARY
  5
7DE1B343D9DB870
330
0
100
AcDbDictionary
  3
ACAD_GROUP
350
7DE1B343D9DB871
  3
ACAD_LAYOUT
350
7DE1B343D9DB8B1
  3
ACAD_MLINESTYLE
350
7DE1B343D9DB872
  3
ACAD_PLOTSETTINGS
350
7DE1B343D9DB8B2
  3
ACAD_PLOTSTYLENAME
350
7DE1B343D9DB8AF
  3
ACDBHEADERROUNDTRIPXREC
350
7DE1B343D9DB8BC
  3
ACDBVARIABLEDICTIONARY
350
7DE1B343D9DB8B9
  0
DICTIONARY
  5
7DE1B343D9DB8DE
330
7DE1B343D9DB87C
100
AcDbDictionary
280
     1
  3
ACAD_LAYOUTSELFREF
360
7DE1B343D9DB8DF
  0
DICTIONARY
  5
7DE1B343D9DB8DC
330
7DE1B343D9DB879
100
AcDbDictionary
280
     1
  3
ACAD_LAYOUTSELFREF
360
7DE1B343D9DB8DD
  0
DICTIONARY
  5
7DE1B343D9DB871
102
{ACAD_REACTORS
330
7DE1B343D9DB870
102
}
330
7DE1B343D9DB870
100
AcDbDictionary
  0
DICTIONARY
  5
7DE1B343D9DB8B1
102
{ACAD_REACTORS
330
7DE1B343D9DB870
102
}
330
7DE1B343D9DB870
100
AcDbDictionary
  0
DICTIONARY
  5
7DE1B343D9DB872
102
{ACAD_REACTORS
330
7DE1B343D9DB870
102
}
330
7DE1B343D9DB870
100
AcDbDictionary
  3
STANDARD
350
7DE1B343D9DB87F
  0
DICTIONARY
  5
7DE1B343D9DB8B2
102
{ACAD_REACTORS
330
7DE1B343D9DB870
102
}
330
7DE1B343D9DB870
100
AcDbDictionary
  0
ACDBDICTIONARYWDFLT
  5
7DE1B343D9DB8AF
102
{ACAD_REACTORS
330
7DE1B343D9DB870
102
}
330
7DE1B343D9DB870
100
AcDbDictionary
281
     1
  3
Normal
350
7DE1B343D9DB8B0
100
AcDbDictionaryWithDefault
340
7DE1B343D9DB8B0
  0
DICTIONARY
  5
7DE1B343D9DB8BC
102
{ACAD_REACTORS
330
7DE1B343D9DB870
102
}
330
7DE1B343D9DB870
100
AcDbDictionary
  3
CEPSNTYPE
350
7DE1B343D9DB8C6
  3
FINGERPRINTGUID
350
7DE1B343D9DB8C7
  3
HYPERLINKBASE
350
7DE1B343D9DB8BF
  3
INSUNITS
350
7DE1B343D9DB8C5
  3
LAYOUTDICT
350
7DE1B343D9DB8C1
  3
LWETCUNION
350
7DE1B343D9DB8C4
  3
PLOTSETDICT
350
7DE1B343D9DB8C2
  3
PLOTSTYLNAMDICT
350
7DE1B343D9DB8C3
  3
PSVPSCALE
350
7DE1B343D9DB8C9
  3
PUCSBASE
350
7DE1B343D9DB8CC
  3
PUCSORGBACK
350
7DE1B343D9DB8D2
  3
PUCSORGBOTTOM
350
7DE1B343D9DB8CE
  3
PUCSORGFRONT
350
7DE1B343D9DB8D1
  3
PUCSORGLEFT
350
7DE1B343D9DB8CF
  3
PUCSORGRIGHT
350
7DE1B343D9DB8D0
  3
PUCSORGTOP
350
7DE1B343D9DB8CD
  3
PUCSORTHOREF
350
7DE1B343D9DB8CA
  3
PUCSORTHOVIEW
350
7DE1B343D9DB8CB
  3
STYLESHEET
350
7DE1B343D9DB8C0
  3
TSTACKALIGN
350
7DE1B343D9DB8BD
  3
TSTACKSIZE
350
7DE1B343D9DB8BE
  3
UCSBASE
350
7DE1B343D9DB8D5
  3
UCSORGBACK
350
7DE1B343D9DB8DB
  3
UCSORGBOTTOM
350
7DE1B343D9DB8D7
  3
UCSORGFRONT
350
7DE1B343D9DB8DA
  3
UCSORGLEFT
350
7DE1B343D9DB8D8
  3
UCSORGRIGHT
350
7DE1B343D9DB8D9
  3
UCSORGTOP
350
7DE1B343D9DB8D6
  3
UCSORTHOREF
350
7DE1B343D9DB8D3
  3
UCSORTHOVIEW
350
7DE1B343D9DB8D4
  3
VERSIONGUID
350
7DE1B343D9DB8C8
  0
DICTIONARY
  5
7DE1B343D9DB8B9
102
{ACAD_REACTORS
330
7DE1B343D9DB870
102
}
330
7DE1B343D9DB870
100
AcDbDictionary
  3
DIMASSOC
350
7DE1B343D9DB8BA
  0
XRECORD
  5
7DE1B343D9DB8DF
102
{ACAD_REACTORS
330
7DE1B343D9DB8DE
102
}
330
7DE1B343D9DB8DE
100
AcDbXrecord
340
7DE1B343D9DB87C
  0
XRECORD
  5
7DE1B343D9DB8DD
102
{ACAD_REACTORS
330
7DE1B343D9DB8DC
102
}
330
7DE1B343D9DB8DC
100
AcDbXrecord
340
7DE1B343D9DB879
  0
MLINESTYLE
  5
7DE1B343D9DB87F
102
{ACAD_REACTORS
330
7DE1B343D9DB872
102
}
330
7DE1B343D9DB872
100
AcDbMlineStyle
  2
STANDARD
 70
     0
  3

 62
     0
 51
90.0
 52
90.0
 71
     2
 49
0.5
 62
   256
  6
BYLAYER
 49
-0.5
 62
   256
  6
BYLAYER
  0
ACDBPLACEHOLDER
  5
7DE1B343D9DB8B0
102
{ACAD_REACTORS
330
7DE1B343D9DB8AF
102
}
330
7DE1B343D9DB8AF
100
AcDbPlaceHolder
280
     0
  0
XRECORD
  5
7DE1B343D9DB8C6
102
{ACAD_REACTORS
330
7DE1B343D9DB8BC
102
}
330
7DE1B343D9DB8BC
100
AcDbXrecord
 90
        0
  0
XRECORD
  5
7DE1B343D9DB8C7
102
{ACAD_REACTORS
330
7DE1B343D9DB8BC
102
}
330
7DE1B343D9DB8BC
100
AcDbXrecord
  1
{11F6C540-8DB5-11D6-88E6-0090279574E7}
  0
XRECORD
  5
7DE1B343D9DB8BF
102
{ACAD_REACTORS
330
7DE1B343D9DB8BC
102
}
330
7DE1B343D9DB8BC
100
AcDbXrecord
  1

  0
XRECORD
  5
7DE1B343D9DB8C5
102
{ACAD_REACTORS
330
7DE1B343D9DB8BC
102
}
330
7DE1B343D9DB8BC
100
AcDbXrecord
 90
        0
  0
XRECORD
  5
7DE1B343D9DB8C1
102
{ACAD_REACTORS
330
7DE1B343D9DB8BC
102
}
330
7DE1B343D9DB8BC
100
AcDbXrecord
340
7DE1B343D9DB8B1
  0
XRECORD
  5
7DE1B343D9DB8C4
102
{ACAD_REACTORS
330
7DE1B343D9DB8BC
102
}
330
7DE1B343D9DB8BC
100
AcDbXrecord
 90
    14877
  0
XRECORD
  5
7DE1B343D9DB8C2
102
{ACAD_REACTORS
330
7DE1B343D9DB8BC
102
}
330
7DE1B343D9DB8BC
100
AcDbXrecord
340
7DE1B343D9DB8B2
  0
XRECORD
  5
7DE1B343D9DB8C3
102
{ACAD_REACTORS
330
7DE1B343D9DB8BC
102
}
330
7DE1B343D9DB8BC
100
AcDbXrecord
340
7DE1B343D9DB8AF
  0
XRECORD
  5
7DE1B343D9DB8C9
102
{ACAD_REACTORS
330
7DE1B343D9DB8BC
102
}
330
7DE1B343D9DB8BC
100
AcDbXrecord
 40
0.0
  0
XRECORD
  5
7DE1B343D9DB8CC
102
{ACAD_REACTORS
330
7DE1B343D9DB8BC
102
}
330
7DE1B343D9DB8BC
100
AcDbXrecord
340
0
  0
XRECORD
  5
7DE1B343D9DB8D2
102
{ACAD_REACTORS
330
7DE1B343D9DB8BC
102
}
330
7DE1B343D9DB8BC
100
AcDbXrecord
 10
0.0
 20
0.0
 30
0.0
  0
XRECORD
  5
7DE1B343D9DB8CE
102
{ACAD_REACTORS
330
7DE1B343D9DB8BC
102
}
330
7DE1B343D9DB8BC
100
AcDbXrecord
 10
0.0
 20
0.0
 30
0.0
  0
XRECORD
  5
7DE1B343D9DB8D1
102
{ACAD_REACTORS
330
7DE1B343D9DB8BC
102
}
330
7DE1B343D9DB8BC
100
AcDbXrecord
 10
0.0
 20
0.0
 30
0.0
  0
XRECORD
  5
7DE1B343D9DB8CF
102
{ACAD_REACTORS
330
7DE1B343D9DB8BC
102
}
330
7DE1B343D9DB8BC
100
AcDbXrecord
 10
0.0
 20
0.0
 30
0.0
  0
XRECORD
  5
7DE1B343D9DB8D0
102
{ACAD_REACTORS
330
7DE1B343D9DB8BC
102
}
330
7DE1B343D9DB8BC
100
AcDbXrecord
 10
0.0
 20
0.0
 30
0.0
  0
XRECORD
  5
7DE1B343D9DB8CD
102
{ACAD_REACTORS
330
7DE1B343D9DB8BC
102
}
330
7DE1B343D9DB8BC
100
AcDbXrecord
 10
0.0
 20
0.0
 30
0.0
  0
XRECORD
  5
7DE1B343D9DB8CA
102
{ACAD_REACTORS
330
7DE1B343D9DB8BC
102
}
330
7DE1B343D9DB8BC
100
AcDbXrecord
340
0
  0
XRECORD
  5
7DE1B343D9DB8CB
102
{ACAD_REACTORS
330
7DE1B343D9DB8BC
102
}
330
7DE1B343D9DB8BC
100
AcDbXrecord
 70
     0
  0
XRECORD
  5
7DE1B343D9DB8C0
102
{ACAD_REACTORS
330
7DE1B343D9DB8BC
102
}
330
7DE1B343D9DB8BC
100
AcDbXrecord
  1

  0
XRECORD
  5
7DE1B343D9DB8BD
102
{ACAD_REACTORS
330
7DE1B343D9DB8BC
102
}
330
7DE1B343D9DB8BC
100
AcDbXrecord
 90
        1
  0
XRECORD
  5
7DE1B343D9DB8BE
102
{ACAD_REACTORS
330
7DE1B343D9DB8BC
102
}
330
7DE1B343D9DB8BC
100
AcDbXrecord
 90
       70
  0
XRECORD
  5
7DE1B343D9DB8D5
102
{ACAD_REACTORS
330
7DE1B343D9DB8BC
102
}
330
7DE1B343D9DB8BC
100
AcDbXrecord
340
0
  0
XRECORD
  5
7DE1B343D9DB8DB
102
{ACAD_REACTORS
330
7DE1B343D9DB8BC
102
}
330
7DE1B343D9DB8BC
100
AcDbXrecord
 10
0.0
 20
0.0
 30
0.0
  0
XRECORD
  5
7DE1B343D9DB8D7
102
{ACAD_REACTORS
330
7DE1B343D9DB8BC
102
}
330
7DE1B343D9DB8BC
100
AcDbXrecord
 10
0.0
 20
0.0
 30
0.0
  0
XRECORD
  5
7DE1B343D9DB8DA
102
{ACAD_REACTORS
330
7DE1B343D9DB8BC
102
}
330
7DE1B343D9DB8BC
100
AcDbXrecord
 10
0.0
 20
0.0
 30
0.0
  0
XRECORD
  5
7DE1B343D9DB8D8
102
{ACAD_REACTORS
330
7DE1B343D9DB8BC
102
}
330
7DE1B343D9DB8BC
100
AcDbXrecord
 10
0.0
 20
0.0
 30
0.0
  0
XRECORD
  5
7DE1B343D9DB8D9
102
{ACAD_REACTORS
330
7DE1B343D9DB8BC
102
}
330
7DE1B343D9DB8BC
100
AcDbXrecord
 10
0.0
 20
0.0
 30
0.0
  0
XRECORD
  5
7DE1B343D9DB8D6
102
{ACAD_REACTORS
330
7DE1B343D9DB8BC
102
}
330
7DE1B343D9DB8BC
100
AcDbXrecord
 10
0.0
 20
0.0
 30
0.0
  0
XRECORD
  5
7DE1B343D9DB8D3
102
{ACAD_REACTORS
330
7DE1B343D9DB8BC
102
}
330
7DE1B343D9DB8BC
100
AcDbXrecord
340
0
  0
XRECORD
  5
7DE1B343D9DB8D4
102
{ACAD_REACTORS
330
7DE1B343D9DB8BC
102
}
330
7DE1B343D9DB8BC
100
AcDbXrecord
 70
     0
  0
XRECORD
  5
7DE1B343D9DB8C8
102
{ACAD_REACTORS
330
7DE1B343D9DB8BC
102
}
330
7DE1B343D9DB8BC
100
AcDbXrecord
  1
{11F6C542-8DB5-11D6-88E6-0090279574E7}
  0
DICTIONARYVAR
  5
7DE1B343D9DB8BA
102
{ACAD_REACTORS
330
7DE1B343D9DB8B9
102
}
330
7DE1B343D9DB8B9
100
DictionaryVariables
280
     0
  1
1
  0
ENDSEC
  0
EOF
