  0
SECTION
  2
HEADER
  9
$ACADVER
  1
AC1014
  9
$ACADMAINTVER
 70
     9
  9
$DWGCODEPAGE
  3
ANSI_1252
  9
$INSBASE
 10
1.567073175970001
 20
1.052596714643982
 30
0.0
  9
$EXTMIN
 10
-0.1759084032571417
 20
0.3081860249511579
 30
0.0
  9
$EXTMAX
 10
3.309310918489986
 20
1.552596714643982
 30
0.0
  9
$LIMMIN
 10
0.0
 20
0.0
  9
$LIMMAX
 10
18.0
 20
12.0
  9
$ORTHOMODE
 70
     1
  9
$REGENMODE
 70
     1
  9
$FILLMODE
 70
     1
  9
$QTEXTMODE
 70
     0
  9
$MIRRTEXT
 70
     0
  9
$DRAGMODE
 70
     2
  9
$LTSCALE
 40
1.0
  9
$OSMODE
 70
    39
  9
$ATTMODE
 70
     1
  9
$TEXTSIZE
 40
0.125
  9
$TRACEWID
 40
0.05
  9
$TEXTSTYLE
  7
ROMANS
  9
$CLAYER
  8
0
  9
$CELTYPE
  6
BYLAYER
  9
$CECOLOR
 62
   256
  9
$CELTSCALE
 40
1.0
  9
$DELOBJ
 70
     1
  9
$DISPSILH
 70
     1
  9
$DIMSCALE
 40
1.0
  9
$DIMASZ
 40
0.125
  9
$DIMEXO
 40
0.125
  9
$DIMDLI
 40
0.375
  9
$DIMRND
 40
0.0
  9
$DIMDLE
 40
0.0
  9
$DIMEXE
 40
0.125
  9
$DIMTP
 40
0.0
  9
$DIMTM
 40
0.0
  9
$DIMTXT
 40
0.125
  9
$DIMCEN
 40
-0.125
  9
$DIMTSZ
 40
0.0
  9
$DIMTOL
 70
     0
  9
$DIMLIM
 70
     0
  9
$DIMTIH
 70
     1
  9
$DIMTOH
 70
     1
  9
$DIMSE1
 70
     0
  9
$DIMSE2
 70
     0
  9
$DIMTAD
 70
     0
  9
$DIMZIN
 70
     4
  9
$DIMBLK
  1

  9
$DIMASO
 70
     1
  9
$DIMSHO
 70
     1
  9
$DIMPOST
  1

  9
$DIMAPOST
  1

  9
$DIMALT
 70
     0
  9
$DIMALTD
 70
     2
  9
$DIMALTF
 40
25.4
  9
$DIMLFAC
 40
1.0
  9
$DIMTOFL
 70
     0
  9
$DIMTVP
 40
0.0
  9
$DIMTIX
 70
     1
  9
$DIMSOXD
 70
     0
  9
$DIMSAH
 70
     0
  9
$DIMBLK1
  1

  9
$DIMBLK2
  1

  9
$DIMSTYLE
  2
STANDARD
  9
$DIMCLRD
 70
     0
  9
$DIMCLRE
 70
     0
  9
$DIMCLRT
 70
     0
  9
$DIMTFAC
 40
1.0
  9
$DIMGAP
 40
0.09
  9
$DIMJUST
 70
     0
  9
$DIMSD1
 70
     0
  9
$DIMSD2
 70
     0
  9
$DIMTOLJ
 70
     1
  9
$DIMTZIN
 70
     4
  9
$DIMALTZ
 70
     0
  9
$DIMALTTZ
 70
     0
  9
$DIMFIT
 70
     3
  9
$DIMUPT
 70
     0
  9
$DIMUNIT
 70
     2
  9
$DIMDEC
 70
     3
  9
$DIMTDEC
 70
     3
  9
$DIMALTU
 70
     2
  9
$DIMALTTD
 70
     2
  9
$DIMTXSTY
  7
ROMANS
  9
$DIMAUNIT
 70
     0
  9
$LUNITS
 70
     2
  9
$LUPREC
 70
     3
  9
$SKETCHINC
 40
0.1
  9
$FILLETRAD
 40
0.03125
  9
$AUNITS
 70
     0
  9
$AUPREC
 70
     0
  9
$MENU
  1
ACAD
  9
$ELEVATION
 40
0.0
  9
$PELEVATION
 40
0.0
  9
$THICKNESS
 40
0.0
  9
$LIMCHECK
 70
     0
  9
$BLIPMODE
 70
     0
  9
$CHAMFERA
 40
0.0
  9
$CHAMFERB
 40
0.0
  9
$CHAMFERC
 40
0.0
  9
$CHAMFERD
 40
0.0
  9
$SKPOLY
 70
     0
  9
$TDCREATE
 40
2448994.454346875
  9
$TDUPDATE
 40
2452458.300739248
  9
$TDINDWG
 40
0.0006284491
  9
$TDUSRTIMER
 40
0.0006284491
  9
$USRTIMER
 70
     1
  9
$ANGBASE
 50
0.0
  9
$ANGDIR
 70
     0
  9
$PDMODE
 70
     0
  9
$PDSIZE
 40
0.0
  9
$PLINEWID
 40
0.0
  9
$COORDS
 70
     2
  9
$SPLFRAME
 70
     0
  9
$SPLINETYPE
 70
     6
  9
$SPLINESEGS
 70
     8
  9
$ATTDIA
 70
     0
  9
$ATTREQ
 70
     1
  9
$HANDLING
 70
 22529
  9
$HANDSEED
  5
7DE1B343D9DB4F3
  9
$SURFTAB1
 70
     6
  9
$SURFTAB2
 70
     6
  9
$SURFTYPE
 70
     6
  9
$SURFU
 70
     6
  9
$SURFV
 70
     6
  9
$UCSNAME
  2

  9
$UCSORG
 10
0.0
 20
0.0
 30
0.0
  9
$UCSXDIR
 10
1.0
 20
0.0
 30
0.0
  9
$UCSYDIR
 10
0.0
 20
1.0
 30
0.0
  9
$PUCSNAME
  2

  9
$PUCSORG
 10
0.0
 20
0.0
 30
0.0
  9
$PUCSXDIR
 10
1.0
 20
0.0
 30
0.0
  9
$PUCSYDIR
 10
0.0
 20
1.0
 30
0.0
  9
$USERI1
 70
     0
  9
$USERI2
 70
     0
  9
$USERI3
 70
     0
  9
$USERI4
 70
     0
  9
$USERI5
 70
     0
  9
$USERR1
 40
0.0
  9
$USERR2
 40
0.0
  9
$USERR3
 40
0.0
  9
$USERR4
 40
0.0
  9
$USERR5
 40
0.0
  9
$WORLDVIEW
 70
     1
  9
$SHADEDGE
 70
     3
  9
$SHADEDIF
 70
    70
  9
$TILEMODE
 70
     1
  9
$MAXACTVP
 70
    16
  9
$PINSBASE
 10
0.5453636237630653
 20
50.00000000000001
 30
1.557926837581157
  9
$PLIMCHECK
 70
     0
  9
$PEXTMIN
 10
1.000000000000000E+20
 20
1.000000000000000E+20
 30
1.000000000000000E+20
  9
$PEXTMAX
 10
-1.000000000000000E+20
 20
-1.000000000000000E+20
 30
-1.000000000000000E+20
  9
$PLIMMIN
 10
0.0
 20
0.0
  9
$PLIMMAX
 10
12.0
 20
9.0
  9
$UNITMODE
 70
     0
  9
$VISRETAIN
 70
     0
  9
$PLINEGEN
 70
     1
  9
$PSLTSCALE
 70
     0
  9
$TREEDEPTH
 70
  3020
  9
$PICKSTYLE
 70
     1
  9
$CMLSTYLE
  2
STANDARD
  9
$CMLJUST
 70
     0
  9
$CMLSCALE
 40
1.0
  9
$PROXYGRAPHICS
 70
     1
  9
$MEASUREMENT
 70
     0
  0
ENDSEC
  0
SECTION
  2
CLASSES
  0
CLASS
  1
LWPOLYLINE
  2
AcDbPolyline
  3
AutoCAD 2000
 90
        0
280
     0
281
     1
  0
CLASS
  1
ACDBDICTIONARYWDFLT
  2
AcDbDictionaryWithDefault
  3
AutoCAD 2000
 90
        0
280
     0
281
     0
  0
CLASS
  1
ACDBPLACEHOLDER
  2
AcDbPlaceHolder
  3
AutoCAD 2000
 90
        0
280
     0
281
     0
  0
CLASS
  1
LAYOUT
  2
AcDbLayout
  3
AutoCAD 2000
 90
        0
280
     0
281
     0
  0
CLASS
  1
DICTIONARYVAR
  2
AcDbDictionaryVar
  3
AutoCAD 2000
 90
        0
280
     0
281
     0
  0
CLASS
  1
LONG_TRANSACTION
  2
AcDbLongTransaction
  3
AutoCAD 2000
 90
        0
280
     0
281
     0
  0
CLASS
  1
LWPOLYLINE
  2
AcDbPolyline
  3
AutoCAD 2000
 90
        0
280
     0
281
     1
  0
CLASS
  1
HATCH
  2
AcDbHatch
  3
AutoCAD 2000
 90
        0
280
     0
281
     1
  0
CLASS
  1
XRECORD
  2
AcDbXrecord
  3
AutoCAD 2000
 90
        0
280
     0
281
     0
  0
ENDSEC
  0
SECTION
  2
TABLES
  0
TABLE
  2
VPORT
  5
7DE1B343D9DB499
330
0
100
AcDbSymbolTable
 70
     2
  0
VPORT
  5
7DE1B343D9DB4CE
330
7DE1B343D9DB499
100
AcDbSymbolTableRecord
100
AcDbViewportTableRecord
  2
*ACTIVE
 70
     0
 10
0.0
 20
0.0
 11
1.0
 21
1.0
 12
4.542464141642687
 22
0.9307251196945145
 13
0.0
 23
0.0
 14
0.015625
 24
0.015625
 15
0.0
 25
0.0
 16
0.0
 26
0.0
 36
1.0
 17
0.0
 27
0.0
 37
0.0
 40
2.282259318112646
 41
4.320930232558139
 42
50.0
 43
0.0
 44
0.0
 50
0.0
 51
0.0
 71
     0
 72
  2000
 73
     1
 74
     0
 75
     0
 76
     0
 77
     0
 78
     0
  0
ENDTAB
  0
TABLE
  2
LTYPE
  5
7DE1B343D9DB496
330
0
100
AcDbSymbolTable
 70
     1
  0
LTYPE
  5
7DE1B343D9DB4A3
330
7DE1B343D9DB496
100
AcDbSymbolTableRecord
100
AcDbLinetypeTableRecord
  2
BYBLOCK
 70
     0
  3

 72
    65
 73
     0
 40
0.0
  0
LTYPE
  5
7DE1B343D9DB4A4
330
7DE1B343D9DB496
100
AcDbSymbolTableRecord
100
AcDbLinetypeTableRecord
  2
BYLAYER
 70
     0
  3

 72
    65
 73
     0
 40
0.0
  0
LTYPE
  5
7DE1B343D9DB4A5
330
7DE1B343D9DB496
100
AcDbSymbolTableRecord
100
AcDbLinetypeTableRecord
  2
CONTINUOUS
 70
     0
  3
Solid line
 72
    65
 73
     0
 40
0.0
  0
ENDTAB
  0
TABLE
  2
LAYER
  5
7DE1B343D9DB493
330
0
100
AcDbSymbolTable
 70
     2
  0
LAYER
  5
7DE1B343D9DB4A0
330
7DE1B343D9DB493
100
AcDbSymbolTableRecord
100
AcDbLayerTableRecord
  2
0
 70
     0
 62
     7
  6
CONTINUOUS
  0
LAYER
  5
7DE1B343D9DB4B0
330
7DE1B343D9DB493
100
AcDbSymbolTableRecord
100
AcDbLayerTableRecord
  2
TEXT
 70
     0
 62
     3
  6
CONTINUOUS
  0
ENDTAB
  0
TABLE
  2
STYLE
  5
7DE1B343D9DB494
330
0
100
AcDbSymbolTable
 70
     3
  0
STYLE
  5
7DE1B343D9DB4A1
330
7DE1B343D9DB494
100
AcDbSymbolTableRecord
100
AcDbTextStyleTableRecord
  2
STANDARD
 70
     0
 40
0.0
 41
1.0
 50
0.0
 71
     0
 42
0.3125
  3
txt
  4

  0
STYLE
  5
7DE1B343D9DB4AD
330
7DE1B343D9DB494
100
AcDbSymbolTableRecord
100
AcDbTextStyleTableRecord
  2
ITALICC
 70
     0
 40
0.0
 41
1.0
 50
0.0
 71
     0
 42
0.125
  3
italicc
  4

  0
STYLE
  5
7DE1B343D9DB4BE
330
7DE1B343D9DB494
100
AcDbSymbolTableRecord
100
AcDbTextStyleTableRecord
  2
ROMANS
 70
     0
 40
0.0
 41
1.0
 50
0.0
 71
     0
 42
0.125
  3
romans.shx
  4

  0
ENDTAB
  0
TABLE
  2
VIEW
  5
7DE1B343D9DB497
330
0
100
AcDbSymbolTable
 70
     0
  0
ENDTAB
  0
TABLE
  2
UCS
  5
7DE1B343D9DB498
330
0
100
AcDbSymbolTable
 70
     0
  0
ENDTAB
  0
TABLE
  2
APPID
  5
7DE1B343D9DB49A
330
0
100
AcDbSymbolTable
 70
     1
  0
APPID
  5
7DE1B343D9DB4A2
330
7DE1B343D9DB49A
100
AcDbSymbolTableRecord
100
AcDbRegAppTableRecord
  2
ACAD
 70
     0
  0
ENDTAB
  0
TABLE
  2
DIMSTYLE
  5
7DE1B343D9DB49B
330
0
100
AcDbSymbolTable
 70
     1
  0
DIMSTYLE
105
7DE1B343D9DB4B5
330
7DE1B343D9DB49B
100
AcDbSymbolTableRecord
100
AcDbDimStyleTableRecord
  2
STANDARD
 70
     0
  3

  4

  5

  6

  7

 40
1.0
 41
0.125
 42
0.125
 43
0.375
 44
0.125
 45
0.0
 46
0.0
 47
0.0
 48
0.0
140
0.125
141
-0.125
142
0.0
143
25.4
144
1.0
145
0.0
146
1.0
147
0.09
 71
     0
 72
     0
 73
     1
 74
     1
 75
     0
 76
     0
 77
     0
 78
     4
170
     0
171
     2
172
     0
173
     0
174
     1
175
     0
176
     0
177
     0
178
     0
270
     2
271
     3
272
     3
273
     2
274
     2
340
7DE1B343D9DB4BE
275
     0
280
     0
281
     0
282
     0
283
     1
284
     4
285
     0
286
     0
287
     3
288
     0
  0
ENDTAB
  0
TABLE
  2
BLOCK_RECORD
  5
7DE1B343D9DB492
330
0
100
AcDbSymbolTable
 70
     0
  0
BLOCK_RECORD
  5
7DE1B343D9DB4A9
102
{ACAD_XDICTIONARY
360
7DE1B343D9DB4F1
102
}
330
7DE1B343D9DB492
100
AcDbSymbolTableRecord
100
AcDbBlockTableRecord
  2
*MODEL_SPACE
  0
BLOCK_RECORD
  5
7DE1B343D9DB4A6
102
{ACAD_XDICTIONARY
360
7DE1B343D9DB4EF
102
}
330
7DE1B343D9DB492
100
AcDbSymbolTableRecord
100
AcDbBlockTableRecord
  2
*PAPER_SPACE
  0
ENDTAB
  0
ENDSEC
  0
SECTION
  2
BLOCKS
  0
BLOCK
  5
7DE1B343D9DB4B3
330
7DE1B343D9DB4A9
100
AcDbEntity
  8
0
100
AcDbBlockBegin
  2
*MODEL_SPACE
 70
     0
 10
0.0
 20
0.0
 30
0.0
  3
*MODEL_SPACE
  1

  0
ENDBLK
  5
7DE1B343D9DB4B4
330
7DE1B343D9DB4A9
100
AcDbEntity
  8
0
100
AcDbBlockEnd
  0
BLOCK
  5
7DE1B343D9DB4B1
330
7DE1B343D9DB4A6
100
AcDbEntity
 67
     1
  8
0
100
AcDbBlockBegin
  2
*PAPER_SPACE
 70
     0
 10
0.0
 20
0.0
 30
0.0
  3
*PAPER_SPACE
  1

  0
ENDBLK
  5
7DE1B343D9DB4B2
330
7DE1B343D9DB4A6
100
AcDbEntity
 67
     1
  8
0
100
AcDbBlockEnd
  0
ENDSEC
  0
SECTION
  2
ENTITIES
  0
LWPOLYLINE
  5
7DE1B343D9D9ED3
330
7DE1B343D9DB4A9
100
AcDbEntity
  8
0
100
AcDbPolyline
 90
       34
 70
     1
 43
0.0
 10
0.9420731759700014
 20
1.115096714643982
 10
0.9420731759700014
 20
1.246346714643982
 10
0.8983231759700014
 20
1.290096714643982
 42
-0.9999999999999948
 10
1.048323175970001
 20
1.290096714643982
 10
1.004573175970001
 20
1.246346714643982
 10
1.004573175970001
 20
1.115096714643982
 10
1.557073175970001
 20
1.115096714643982
 10
1.567073175970001
 20
1.105096714643982
 10
1.577073175970001
 20
1.115096714643982
 10
2.129573175970001
 20
1.115096714643982
 10
2.129573175970001
 20
1.246346714643982
 10
2.085823175970001
 20
1.290096714643982
 42
-0.9999999999999948
 10
2.235823175970001
 20
1.290096714643982
 10
2.192073175970001
 20
1.246346714643982
 10
2.192073175970001
 20
1.115096714643982
 10
2.629573175970001
 20
1.115096714643982
 10
2.629573175970001
 20
1.302596714643982
 10
2.432073175970001
 20
1.302596714643982
 10
2.432073175970001
 20
1.333846714643982
 42
-0.4142135623730951
 10
2.463323175970001
 20
1.365096714643982
 10
2.629573175970001
 20
1.365096714643982
 10
2.629573175970001
 20
1.521346714643982
 42
-1.0
 10
2.692073175970001
 20
1.521346714643982
 10
2.692073175970001
 20
1.052596714643982
 10
1.567073175970001
 20
1.052596714643982
 10
0.4420731759700015
 20
1.052596714643982
 10
0.4420731759700015
 20
1.521346714643982
 42
-1.0
 10
0.5045731759700015
 20
1.521346714643982
 10
0.5045731759700015
 20
1.365096714643982
 10
0.6708231759700016
 20
1.365096714643982
 42
-0.4142135623730951
 10
0.7020731759700016
 20
1.333846714643982
 10
0.7020731759700016
 20
1.302596714643982
 10
0.5045731759700015
 20
1.302596714643982
 10
0.5045731759700015
 20
1.115096714643982
  0
TEXT
  5
7DE1B343D9DB354
330
7DE1B343D9DB4A9
100
AcDbEntity
  8
TEXT
100
AcDbText
 10
0.8140969854938116
 20
0.7662046290337395
 30
0.0
 40
0.125
  1
PART #110208
  7
ITALICC
 72
     1
 11
1.567073175970001
 21
0.7662046290337395
 31
0.0
100
AcDbText
  0
TEXT
  5
7DE1B343D9DB355
330
7DE1B343D9DB4A9
100
AcDbEntity
  8
TEXT
100
AcDbText
 10
1.980378334220322
 20
0.3192819863613643
 30
0.0
 40
0.0522247191011236
  1
Phone  1-800-328-2495
 41
1.272321428571429
 72
     5
 11
3.309310918489986
 21
0.3192819863613643
 31
0.0
100
AcDbText
  0
TEXT
  5
7DE1B343D9DB356
330
7DE1B343D9DB4A9
100
AcDbEntity
  8
TEXT
100
AcDbText
 10
1.980378334220322
 20
0.5990572672602408
 30
0.0
 40
0.0522247191011236
  1
Stylmark  Incorporated
 41
1.221428571428573
 72
     5
 11
3.309310918489986
 21
0.5990572672602408
 31
0.0
100
AcDbText
  0
TEXT
  5
7DE1B343D9DB357
330
7DE1B343D9DB4A9
100
AcDbEntity
  8
TEXT
100
AcDbText
 10
1.980378334220322
 20
0.5057988402939487
 30
0.0
 40
0.0522247191011236
  1
6536 Main St. N.E. * P.O. Box 32008
 41
0.8388932496075366
 72
     5
 11
3.309310918489986
 21
0.5057988402939487
 31
0.0
100
AcDbText
  0
TEXT
  5
7DE1B343D9DB358
330
7DE1B343D9DB4A9
100
AcDbEntity
  8
TEXT
100
AcDbText
 10
1.980378334220322
 20
0.4125404133276565
 30
0.0
 40
0.0522247191011236
  1
Minneapolis, MN 55432-0008
 41
1.11444212721585
 72
     5
 11
3.309310918489986
 21
0.4125404133276565
 31
0.0
100
AcDbText
  0
LWPOLYLINE
  5
7DE1B343D9DB359
330
7DE1B343D9DB4A9
100
AcDbEntity
  8
TEXT
100
AcDbPolyline
 90
        3
 70
     0
 43
0.0006660908203125
 10
-0.1755753578469854
 20
0.4329267489987992
 10
-0.1755753578469854
 20
0.3196913095456715
 10
-0.0623399183938631
 20
0.3196913095456715
  0
LWPOLYLINE
  5
7DE1B343D9DB35E
330
7DE1B343D9DB4A9
100
AcDbEntity
  8
TEXT
100
AcDbPolyline
 90
        3
 70
     0
 43
0.0006660908203125
 10
-0.1489317250344879
 20
0.4329267489987992
 10
-0.1489317250344879
 20
0.3463349423581725
 10
-0.0623399183938631
 20
0.3463349423581725
  0
LWPOLYLINE
  5
7DE1B343D9DB363
330
7DE1B343D9DB4A9
100
AcDbEntity
  8
TEXT
100
AcDbPolyline
 90
        2
 70
     0
 43
0.0001332181640625
 10
-0.1023053676126111
 20
0.4429181113034844
 10
-0.1755753578469854
 20
0.4329267489987992
  0
LWPOLYLINE
  5
7DE1B343D9DB367
330
7DE1B343D9DB4A9
100
AcDbEntity
  8
TEXT
100
AcDbPolyline
 90
        2
 70
     0
 43
0.0001332181640625
 10
-0.1489317250344879
 20
0.4329267489987992
 10
-0.0889835512063606
 20
0.4429181113034844
  0
LWPOLYLINE
  5
7DE1B343D9DB36B
330
7DE1B343D9DB4A9
100
AcDbEntity
  8
TEXT
100
AcDbPolyline
 90
        2
 70
     0
 43
0.0001332181640625
 10
-0.1489317250344879
 20
0.3463349423581725
 10
-0.0889835512063606
 20
0.4062831161862981
  0
LWPOLYLINE
  5
7DE1B343D9DB36F
330
7DE1B343D9DB4A9
100
AcDbEntity
  8
TEXT
100
AcDbPolyline
 90
        3
 70
     0
 43
0.0006660908203125
 10
-0.0623399183938631
 20
0.5861276376706748
 10
-0.1755753578469854
 20
0.5861276376706748
 10
-0.1755753578469854
 20
0.4728921982175472
  0
LWPOLYLINE
  5
7DE1B343D9DB374
330
7DE1B343D9DB4A9
100
AcDbEntity
  8
TEXT
100
AcDbPolyline
 90
        3
 70
     0
 43
0.0006660908203125
 10
-0.0623399183938631
 20
0.5594840048581738
 10
-0.1489317250344879
 20
0.5594840048581738
 10
-0.1489317250344879
 20
0.4728921982175472
  0
LWPOLYLINE
  5
7DE1B343D9DB379
330
7DE1B343D9DB4A9
100
AcDbEntity
  8
TEXT
100
AcDbPolyline
 90
        2
 70
     0
 43
0.0001332181640625
 10
-0.1489317250344879
 20
0.5594840048581738
 10
-0.0889835512063624
 20
0.4995358310300482
  0
LWPOLYLINE
  5
7DE1B343D9DB37D
330
7DE1B343D9DB4A9
100
AcDbEntity
  8
TEXT
100
AcDbPolyline
 90
        2
 70
     0
 43
0.0001332181640625
 10
-0.1489317250344879
 20
0.4728921982175472
 10
-0.0889835512063624
 20
0.4629008359128584
  0
LWPOLYLINE
  5
7DE1B343D9DB381
330
7DE1B343D9DB4A9
100
AcDbEntity
  8
TEXT
100
AcDbPolyline
 90
        2
 70
     0
 43
0.0001332181640625
 10
-0.1755753578469854
 20
0.4728921982175472
 10
-0.1023053676126111
 20
0.4629008359128584
  0
LWPOLYLINE
  5
7DE1B343D9DB385
330
7DE1B343D9DB4A9
100
AcDbEntity
  8
TEXT
100
AcDbPolyline
 90
        2
 70
     0
 43
0.0006660908203125
 10
-0.1489317250344879
 20
0.4329267489987992
 10
-0.1755753578469854
 20
0.4329267489987992
  0
LWPOLYLINE
  5
7DE1B343D9DB389
330
7DE1B343D9DB4A9
100
AcDbEntity
  8
TEXT
100
AcDbPolyline
 90
        2
 70
     0
 43
0.0006660908203125
 10
-0.1489317250344879
 20
0.4728921982175472
 10
-0.1755753578469854
 20
0.4728921982175472
  0
LINE
  5
7DE1B343D9DB38D
330
7DE1B343D9DB4A9
100
AcDbEntity
  8
TEXT
100
AcDbLine
 10
1.339615071279512
 20
0.5218509430139058
 30
0.0
 11
1.232408797892222
 21
0.5218509430139058
 31
0.0
  0
LINE
  5
7DE1B343D9DB38E
330
7DE1B343D9DB4A9
100
AcDbEntity
  8
TEXT
100
AcDbLine
 10
1.36864596962399
 20
0.5861276376706713
 30
0.0
 11
1.233814060406931
 21
0.5861276376706713
 31
0.0
  0
ARC
  5
7DE1B343D9DB38F
330
7DE1B343D9DB4A9
100
AcDbEntity
  8
TEXT
100
AcDbCircle
 10
1.293128156800248
 20
0.4168903884076549
 30
0.0
 40
0.0676855811441166
100
AcDbArc
 50
90.0
 51
153.7768192527749
  0
LWPOLYLINE
  5
7DE1B343D9DB390
330
7DE1B343D9DB4A9
100
AcDbEntity
  8
TEXT
100
AcDbPolyline
 90
        2
 70
     0
 43
0.0
 10
1.231376302437412
 20
0.3631455496325984
 42
0.2901071551932823
 10
1.274452235305048
 20
0.3196546046821602
 42
5.328517124445801
  0
ARC
  5
7DE1B343D9DB394
330
7DE1B343D9DB4A9
100
AcDbEntity
  8
TEXT
100
AcDbCircle
 10
0.5879967791287627
 20
0.37944699602021
 30
0.0
 40
0.0601160179737537
100
AcDbArc
 50
180.0000000000003
 51
264.0521544866073
  0
LINE
  5
7DE1B343D9DB395
330
7DE1B343D9DB4A9
100
AcDbEntity
  8
TEXT
100
AcDbLine
 10
0.5915121347543105
 20
0.6205155552648094
 30
0.0
 11
0.5314695299103035
 21
0.6205155552648094
 31
0.0
  0
ARC
  5
7DE1B343D9DB396
330
7DE1B343D9DB4A9
100
AcDbEntity
  8
TEXT
100
AcDbCircle
 10
0.355737777011792
 20
0.5040401782241695
 30
0.0
 40
0.0820874594465043
100
AcDbArc
 50
90.0
 51
270.0
  0
LWPOLYLINE
  5
7DE1B343D9DB397
330
7DE1B343D9DB4A9
100
AcDbEntity
  8
TEXT
100
AcDbPolyline
 90
        2
 70
     0
 43
0.0001332181640625
 10
-0.0523485560891726
 20
0.5128576474362952
 10
-0.0623399183938631
 20
0.5861276376706748
  0
LWPOLYLINE
  5
7DE1B343D9DB39B
330
7DE1B343D9DB4A9
100
AcDbEntity
  8
TEXT
100
AcDbPolyline
 90
        2
 70
     0
 43
0.0001332181640625
 10
-0.0623399183938631
 20
0.5594840048581738
 10
-0.0523485560891726
 20
0.4995358310300482
  0
LWPOLYLINE
  5
7DE1B343D9DB39F
330
7DE1B343D9DB4A9
100
AcDbEntity
  8
TEXT
100
AcDbPolyline
 90
        3
 70
     0
 43
0.0006660908203125
 10
0.0908609702780143
 20
0.4728921982175472
 10
0.0908609702780143
 20
0.5861276376706748
 10
-0.0223744691751116
 20
0.5861276376706748
  0
LWPOLYLINE
  5
7DE1B343D9DB3A4
330
7DE1B343D9DB4A9
100
AcDbEntity
  8
TEXT
100
AcDbPolyline
 90
        3
 70
     0
 43
0.0006660908203125
 10
0.0642173374655133
 20
0.4728921982175472
 10
0.0642173374655133
 20
0.5594840048581738
 10
-0.0223744691751116
 20
0.5594840048581738
  0
LWPOLYLINE
  5
7DE1B343D9DB3A9
330
7DE1B343D9DB4A9
100
AcDbEntity
  8
TEXT
100
AcDbPolyline
 90
        2
 70
     0
 43
0.0001332181640625
 10
0.0642173374655133
 20
0.5594840048581738
 10
0.0042691636373895
 20
0.4995358310300482
  0
LWPOLYLINE
  5
7DE1B343D9DB3AD
330
7DE1B343D9DB4A9
100
AcDbEntity
  8
TEXT
100
AcDbPolyline
 90
        2
 70
     0
 43
0.0001332181640625
 10
-0.0223744691751116
 20
0.5594840048581738
 10
-0.0323658314798003
 20
0.4995358310300482
  0
LWPOLYLINE
  5
7DE1B343D9DB3B1
330
7DE1B343D9DB4A9
100
AcDbEntity
  8
TEXT
100
AcDbPolyline
 90
        2
 70
     0
 43
0.0001332181640625
 10
-0.0223744691751116
 20
0.5861276376706748
 10
-0.0323658314798003
 20
0.5128576474362952
  0
LWPOLYLINE
  5
7DE1B343D9DB3B5
330
7DE1B343D9DB4A9
100
AcDbEntity
  8
TEXT
100
AcDbPolyline
 90
        2
 70
     0
 43
0.0001332181640625
 10
0.0175909800436383
 20
0.4629008359128584
 10
0.0908609702780143
 20
0.4728921982175472
  0
LWPOLYLINE
  5
7DE1B343D9DB3B9
330
7DE1B343D9DB4A9
100
AcDbEntity
  8
TEXT
100
AcDbPolyline
 90
        2
 70
     0
 43
0.0001332181640625
 10
0.0642173374655133
 20
0.4728921982175472
 10
0.0042691636373895
 20
0.4629008359128584
  0
LWPOLYLINE
  5
7DE1B343D9DB3BD
330
7DE1B343D9DB4A9
100
AcDbEntity
  8
TEXT
100
AcDbPolyline
 90
        2
 70
     0
 43
0.0001332181640625
 10
0.0908609702780143
 20
0.4329267489987992
 10
0.0175909800436383
 20
0.4429181113034844
  0
LWPOLYLINE
  5
7DE1B343D9DB3C1
330
7DE1B343D9DB4A9
100
AcDbEntity
  8
TEXT
100
AcDbPolyline
 90
        2
 70
     0
 43
0.0001332181640625
 10
0.0642173374655133
 20
0.4329267489987992
 10
0.0042691636373895
 20
0.4429181113034844
  0
LWPOLYLINE
  5
7DE1B343D9DB3C5
330
7DE1B343D9DB4A9
100
AcDbEntity
  8
TEXT
100
AcDbPolyline
 90
        2
 70
     0
 43
0.0001332181640625
 10
0.0642173374655133
 20
0.3463349423581725
 10
0.0042691636373895
 20
0.4062831161862981
  0
LWPOLYLINE
  5
7DE1B343D9DB3C9
330
7DE1B343D9DB4A9
100
AcDbEntity
  8
TEXT
100
AcDbPolyline
 90
        3
 70
     0
 43
0.0006660908203125
 10
-0.0223744691751116
 20
0.3463349423581725
 10
0.0642173374655133
 20
0.3463349423581725
 10
0.0642173374655133
 20
0.4329267489987992
  0
LWPOLYLINE
  5
7DE1B343D9DB3CE
330
7DE1B343D9DB4A9
100
AcDbEntity
  8
TEXT
100
AcDbPolyline
 90
        3
 70
     0
 43
0.0006660908203125
 10
-0.0223744691751116
 20
0.3196913095456715
 10
0.0908609702780143
 20
0.3196913095456715
 10
0.0908609702780143
 20
0.4329267489987992
  0
LWPOLYLINE
  5
7DE1B343D9DB3D3
330
7DE1B343D9DB4A9
100
AcDbEntity
  8
TEXT
100
AcDbPolyline
 90
        5
 70
     0
 43
0.0001332181640625
 10
-0.0523485560891726
 20
0.3929612997800476
 10
-0.0523485560891726
 20
0.4062831161862981
 10
-0.0889835512063606
 20
0.4062831161862981
 10
-0.0889835512063606
 20
0.4429181113034844
 10
-0.1023053676126111
 20
0.4429181113034844
  0
LWPOLYLINE
  5
7DE1B343D9DB3DA
330
7DE1B343D9DB4A9
100
AcDbEntity
  8
TEXT
100
AcDbPolyline
 90
        2
 70
     0
 43
0.0006660908203125
 10
-0.0623399183938631
 20
0.3463349423581725
 10
-0.0623399183938631
 20
0.3196913095456715
  0
LWPOLYLINE
  5
7DE1B343D9DB3DE
330
7DE1B343D9DB4A9
100
AcDbEntity
  8
TEXT
100
AcDbPolyline
 90
        2
 70
     0
 43
0.0001332181640625
 10
-0.0623399183938631
 20
0.3463349423581725
 10
-0.0523485560891726
 20
0.4062831161862981
  0
LWPOLYLINE
  5
7DE1B343D9DB3E2
330
7DE1B343D9DB4A9
100
AcDbEntity
  8
TEXT
100
AcDbPolyline
 90
        2
 70
     0
 43
0.0001332181640625
 10
-0.0623399183938631
 20
0.3196913095456715
 10
-0.0523485560891726
 20
0.3929612997800476
  0
LWPOLYLINE
  5
7DE1B343D9DB3E6
330
7DE1B343D9DB4A9
100
AcDbEntity
  8
TEXT
100
AcDbPolyline
 90
        5
 70
     0
 43
0.0001332181640625
 10
-0.1023053676126111
 20
0.4629008359128584
 10
-0.0889835512063624
 20
0.4629008359128584
 10
-0.0889835512063624
 20
0.4995358310300482
 10
-0.0523485560891726
 20
0.4995358310300482
 10
-0.0523485560891726
 20
0.5128576474362952
  0
LWPOLYLINE
  5
7DE1B343D9DB3ED
330
7DE1B343D9DB4A9
100
AcDbEntity
  8
TEXT
100
AcDbPolyline
 90
        5
 70
     0
 43
0.0001332181640625
 10
-0.0323658314798003
 20
0.5128576474362952
 10
-0.0323658314798003
 20
0.4995358310300482
 10
0.0042691636373895
 20
0.4995358310300482
 10
0.0042691636373895
 20
0.4629008359128584
 10
0.0175909800436383
 20
0.4629008359128584
  0
LWPOLYLINE
  5
7DE1B343D9DB3F4
330
7DE1B343D9DB4A9
100
AcDbEntity
  8
TEXT
100
AcDbPolyline
 90
        2
 70
     0
 43
0.0001332181640625
 10
-0.0223744691751116
 20
0.3463349423581725
 10
-0.0323658314798003
 20
0.4062831161862981
  0
LWPOLYLINE
  5
7DE1B343D9DB3F8
330
7DE1B343D9DB4A9
100
AcDbEntity
  8
TEXT
100
AcDbPolyline
 90
        2
 70
     0
 43
0.0001332181640625
 10
-0.0323658314798003
 20
0.3929612997800476
 10
-0.0223744691751116
 20
0.3196913095456715
  0
LWPOLYLINE
  5
7DE1B343D9DB3FC
330
7DE1B343D9DB4A9
100
AcDbEntity
  8
TEXT
100
AcDbPolyline
 90
        2
 70
     0
 43
0.0006660908203125
 10
-0.0223744691751116
 20
0.3463349423581725
 10
-0.0223744691751116
 20
0.3196913095456715
  0
LWPOLYLINE
  5
7DE1B343D9DB400
330
7DE1B343D9DB4A9
100
AcDbEntity
  8
TEXT
100
AcDbPolyline
 90
        5
 70
     0
 43
0.0001332181640625
 10
0.0175909800436383
 20
0.4429181113034844
 10
0.0042691636373895
 20
0.4429181113034844
 10
0.0042691636373895
 20
0.4062831161862981
 10
-0.0323658314798003
 20
0.4062831161862981
 10
-0.0323658314798003
 20
0.3929612997800476
  0
LWPOLYLINE
  5
7DE1B343D9DB407
330
7DE1B343D9DB4A9
100
AcDbEntity
  8
TEXT
100
AcDbPolyline
 90
        2
 70
     0
 43
0.0006660908203125
 10
0.0642173374655133
 20
0.4728921982175472
 10
0.0908609702780143
 20
0.4728921982175472
  0
LWPOLYLINE
  5
7DE1B343D9DB40B
330
7DE1B343D9DB4A9
100
AcDbEntity
  8
TEXT
100
AcDbPolyline
 90
        2
 70
     0
 43
0.0006660908203125
 10
0.0642173374655133
 20
0.4329267489987992
 10
0.0908609702780143
 20
0.4329267489987992
  0
LINE
  5
7DE1B343D9DB40F
330
7DE1B343D9DB4A9
100
AcDbEntity
  8
TEXT
100
AcDbLine
 10
0.3609751071260392
 20
0.5218509430139058
 30
0.0
 11
0.5278807611550106
 21
0.5218509430139058
 31
0.0
  0
LINE
  5
7DE1B343D9DB410
330
7DE1B343D9DB4A9
100
AcDbEntity
  8
TEXT
100
AcDbLine
 10
0.4265752433703403
 20
0.486046221403278
 30
0.0
 11
0.3609751071260392
 21
0.486046221403278
 31
0.0
  0
LINE
  5
7DE1B343D9DB411
330
7DE1B343D9DB4A9
100
AcDbEntity
  8
TEXT
100
AcDbLine
 10
0.2736503175652876
 20
0.3196546046821602
 30
0.0
 11
0.4265752433703403
 21
0.3196546046821602
 31
0.0
  0
LINE
  5
7DE1B343D9DB412
330
7DE1B343D9DB4A9
100
AcDbEntity
  8
TEXT
100
AcDbLine
 10
0.43151561727662
 20
0.3880116110155995
 30
0.0
 11
0.2736503175652858
 21
0.3880116110155995
 31
0.0
  0
LINE
  5
7DE1B343D9DB413
330
7DE1B343D9DB4A9
100
AcDbEntity
  8
TEXT
100
AcDbLine
 10
0.3557377770117911
 20
0.4219527187776642
 30
0.0
 11
0.43151561727662
 21
0.4219527187776642
 31
0.0
  0
ARC
  5
7DE1B343D9DB414
330
7DE1B343D9DB4A9
100
AcDbEntity
  8
TEXT
100
AcDbCircle
 10
0.3609751071260401
 20
0.5039485822085937
 30
0.0
 40
0.017902360805315
100
AcDbArc
 50
90.0
 51
270.0
  0
LINE
  5
7DE1B343D9DB415
330
7DE1B343D9DB4A9
100
AcDbEntity
  8
TEXT
100
AcDbLine
 10
0.2736503175652858
 20
0.3880116110155995
 30
0.0
 11
0.2736503175652876
 21
0.3196546046821602
 31
0.0
  0
LINE
  5
7DE1B343D9DB416
330
7DE1B343D9DB4A9
100
AcDbEntity
  8
TEXT
100
AcDbLine
 10
0.5278807611550106
 20
0.5218509430139058
 30
0.0
 11
0.5278807611550106
 21
0.37944699602021
 31
0.0
  0
ARC
  5
7DE1B343D9DB417
330
7DE1B343D9DB4A9
100
AcDbEntity
  8
TEXT
100
AcDbCircle
 10
0.4265752433703412
 20
0.4028504130427173
 30
0.0
 40
0.0831958083605586
100
AcDbArc
 50
270.0
 51
90.0
  0
ARC
  5
7DE1B343D9DB418
330
7DE1B343D9DB4A9
100
AcDbEntity
  8
TEXT
100
AcDbCircle
 10
0.4315156172766209
 20
0.4049821648966337
 30
0.0
 40
0.0169705538810321
100
AcDbArc
 50
270.0
 51
90.0
  0
LWPOLYLINE
  5
7DE1B343D9DB419
330
7DE1B343D9DB4A9
100
AcDbEntity
  8
TEXT
100
AcDbPolyline
 90
        2
 70
     0
 43
0.0006660908203125
 10
-0.0623399183938631
 20
0.5594840048581738
 10
-0.0623399183938631
 20
0.5861276376706748
  0
LWPOLYLINE
  5
7DE1B343D9DB41D
330
7DE1B343D9DB4A9
100
AcDbEntity
  8
TEXT
100
AcDbPolyline
 90
        2
 70
     0
 43
0.0006660908203125
 10
-0.0223744691751116
 20
0.5594840048581738
 10
-0.0223744691751116
 20
0.5861276376706748
  0
LINE
  5
7DE1B343D9DB421
330
7DE1B343D9DB4A9
100
AcDbEntity
  8
TEXT
100
AcDbLine
 10
0.5314695299103035
 20
0.5861276376706713
 30
0.0
 11
0.3557377770117911
 21
0.5861276376706713
 31
0.0
  0
LINE
  5
7DE1B343D9DB422
330
7DE1B343D9DB4A9
100
AcDbEntity
  8
TEXT
100
AcDbLine
 10
0.5314695299103035
 20
0.6205155552648094
 30
0.0
 11
0.5314695299103035
 21
0.5861276376706713
 31
0.0
  0
LINE
  5
7DE1B343D9DB423
330
7DE1B343D9DB4A9
100
AcDbEntity
  8
TEXT
100
AcDbLine
 10
0.7219414219301557
 20
0.4852556415575507
 30
0.0
 11
0.6633111008982178
 21
0.5861276376706713
 31
0.0
  0
LINE
  5
7DE1B343D9DB424
330
7DE1B343D9DB4A9
100
AcDbEntity
  8
TEXT
100
AcDbLine
 10
0.7806899847360212
 20
0.5861276376706713
 30
0.0
 11
0.7219414219301557
 21
0.4852556415575507
 31
0.0
  0
LINE
  5
7DE1B343D9DB425
330
7DE1B343D9DB4A9
100
AcDbEntity
  8
TEXT
100
AcDbLine
 10
0.8776206100957624
 20
0.4020424427851595
 30
0.0
 11
0.8776206100957624
 21
0.6541391154094818
 31
0.0
  0
LINE
  5
7DE1B343D9DB426
330
7DE1B343D9DB4A9
100
AcDbEntity
  8
TEXT
100
AcDbLine
 10
0.9099324642334225
 20
0.5861276376706713
 30
0.0
 11
0.9099324642334225
 21
0.385263430938263
 31
0.0
  0
LINE
  5
7DE1B343D9DB427
330
7DE1B343D9DB4A9
100
AcDbEntity
  8
TEXT
100
AcDbLine
 10
0.9099324642334225
 20
0.385263430938263
 30
0.0
 11
0.8929388273488212
 21
0.385263430938263
 31
0.0
  0
LINE
  5
7DE1B343D9DB428
330
7DE1B343D9DB4A9
100
AcDbEntity
  8
TEXT
100
AcDbLine
 10
0.8787601835919572
 20
0.3196546046821602
 30
0.0
 11
0.9767635172913918
 21
0.3196546046821602
 31
0.0
  0
LINE
  5
7DE1B343D9DB429
330
7DE1B343D9DB4A9
100
AcDbEntity
  8
TEXT
100
AcDbLine
 10
0.7123411849332014
 20
0.3396131107871732
 30
0.0
 11
0.8096408910266459
 21
0.5039633217224413
 31
0.0
  0
ARC
  5
7DE1B343D9DB42A
330
7DE1B343D9DB4A9
100
AcDbEntity
  8
TEXT
100
AcDbCircle
 10
0.6782976250209874
 20
0.359202326955856
 30
0.0
 40
0.0392772371940762
100
AcDbArc
 50
270.1604552698595
 51
330.0831797321295
  0
LINE
  5
7DE1B343D9DB42B
330
7DE1B343D9DB4A9
100
AcDbEntity
  8
TEXT
100
AcDbLine
 10
0.5817673686351162
 20
0.3196546046821602
 30
0.0
 11
0.6784076197101106
 21
0.3199252437804425
 31
0.0
  0
LWPOLYLINE
  5
7DE1B343D9DB42C
330
7DE1B343D9DB4A9
100
AcDbEntity
  8
TEXT
100
AcDbPolyline
 90
        6
 70
     1
 43
0.0
 10
0.6242911722102658
 20
0.5218509430139058
 10
0.5939745779900577
 20
0.5218509430139058
 10
0.5939745779900577
 20
0.3987399449590114
 42
0.407328721240804
 10
0.6055182291515341
 20
0.3869210302826254
 10
0.6661399281962649
 20
0.3869210302826254
 10
0.6836052686035828
 20
0.4197332593261045
  0
LINE
  5
7DE1B343D9DB434
330
7DE1B343D9DB4A9
100
AcDbEntity
  8
TEXT
100
AcDbLine
 10
0.8096408910266459
 20
0.5039633217224413
 30
0.0
 11
0.8096408910266459
 21
0.371205946897085
 31
0.0
  0
ARC
  5
7DE1B343D9DB435
330
7DE1B343D9DB4A9
100
AcDbEntity
  8
TEXT
100
AcDbCircle
 10
0.8929388273488195
 20
0.4006452371816885
 30
0.0
 40
0.0153818062434269
100
AcDbArc
 50
174.7883570302258
 51
270.0
  0
LWPOLYLINE
  5
7DE1B343D9DB436
330
7DE1B343D9DB4A9
100
AcDbEntity
  8
TEXT
100
AcDbPolyline
 90
        2
 70
     0
 43
0.0
 10
0.8096408910266442
 20
0.3712059468970885
 42
0.3318488747599744
 10
0.8787601835919572
 20
0.3196546046821602
 42
-6.868794160588311
  0
LINE
  5
7DE1B343D9DB43A
330
7DE1B343D9DB4A9
100
AcDbEntity
  8
TEXT
100
AcDbLine
 10
1.034152586280652
 20
0.3196546046821602
 30
0.0
 11
1.101210633062492
 21
0.3196546046821602
 31
0.0
  0
LINE
  5
7DE1B343D9DB43B
330
7DE1B343D9DB4A9
100
AcDbEntity
  8
TEXT
100
AcDbLine
 10
1.034152586280652
 20
0.5142971538477959
 30
0.0
 11
1.034152586280652
 21
0.3196546046821602
 31
0.0
  0
LINE
  5
7DE1B343D9DB43C
330
7DE1B343D9DB4A9
100
AcDbEntity
  8
TEXT
100
AcDbLine
 10
0.9767635172913918
 20
0.5218509430139058
 30
0.0
 11
1.026598797114539
 21
0.5218509430139058
 31
0.0
  0
LINE
  5
7DE1B343D9DB43D
330
7DE1B343D9DB4A9
100
AcDbEntity
  8
TEXT
100
AcDbLine
 10
0.9767635172913918
 20
0.3196546046821602
 30
0.0
 11
0.9767635172913918
 21
0.5218509430139058
 31
0.0
  0
LWPOLYLINE
  5
7DE1B343D9DB43E
330
7DE1B343D9DB4A9
100
AcDbEntity
  8
TEXT
100
AcDbPolyline
 90
        2
 70
     0
 43
0.0
 10
1.026598797114537
 20
0.5218509430139058
 42
-0.4142135623731017
 10
1.034152586280651
 20
0.5142971538477959
 42
-0.9999999999999998
  0
LINE
  5
7DE1B343D9DB442
330
7DE1B343D9DB4A9
100
AcDbEntity
  8
TEXT
100
AcDbLine
 10
1.232408797892222
 20
0.5218509430139058
 30
0.0
 11
1.232408797892222
 21
0.4467985369396992
 31
0.0
  0
LINE
  5
7DE1B343D9DB443
330
7DE1B343D9DB4A9
100
AcDbEntity
  8
TEXT
100
AcDbLine
 10
1.101210633062492
 20
0.5218509430139058
 30
0.0
 11
1.155344229983443
 21
0.5218509430139058
 31
0.0
  0
LINE
  5
7DE1B343D9DB444
330
7DE1B343D9DB4A9
100
AcDbEntity
  8
TEXT
100
AcDbLine
 10
1.101210633062492
 20
0.3196546046821602
 30
0.0
 11
1.101210633062492
 21
0.5218509430139058
 31
0.0
  0
LWPOLYLINE
  5
7DE1B343D9DB445
330
7DE1B343D9DB4A9
100
AcDbEntity
  8
TEXT
100
AcDbPolyline
 90
        2
 70
     0
 43
0.0
 10
1.155344229983441
 20
0.5218509430139058
 42
-0.4142135623731017
 10
1.162898019149554
 20
0.5142971538477959
 42
-0.9999999999999998
  0
LWPOLYLINE
  5
7DE1B343D9DB449
330
7DE1B343D9DB4A9
100
AcDbEntity
  8
TEXT
100
AcDbPolyline
 90
        4
 70
     0
 43
0.0
 10
1.162898019149554
 20
0.5142971538477959
 10
1.162898019149554
 20
0.3196546046821602
 10
1.231376302437412
 20
0.3196546046821602
 10
1.231376302437412
 20
0.3631455496325984
 42
-1.714843617202739
  0
LINE
  5
7DE1B343D9DB44F
330
7DE1B343D9DB4A9
100
AcDbEntity
  8
TEXT
100
AcDbLine
 10
0.5915121347543105
 20
0.5861276376706713
 30
0.0
 11
0.5915121347543105
 21
0.6205155552648094
 31
0.0
  0
LINE
  5
7DE1B343D9DB450
330
7DE1B343D9DB4A9
100
AcDbEntity
  8
TEXT
100
AcDbLine
 10
0.6633111008982178
 20
0.5861276376706713
 30
0.0
 11
0.5915121347543105
 21
0.5861276376706713
 31
0.0
  0
LINE
  5
7DE1B343D9DB451
330
7DE1B343D9DB4A9
100
AcDbEntity
  8
TEXT
100
AcDbLine
 10
0.8108118975293974
 20
0.5861276376706713
 30
0.0
 11
0.7806899847360212
 21
0.5861276376706713
 31
0.0
  0
LINE
  5
7DE1B343D9DB452
330
7DE1B343D9DB4A9
100
AcDbEntity
  8
TEXT
100
AcDbLine
 10
0.8108118975293974
 20
0.6541391154094818
 30
0.0
 11
0.8108118975293974
 21
0.5861276376706713
 31
0.0
  0
LINE
  5
7DE1B343D9DB453
330
7DE1B343D9DB4A9
100
AcDbEntity
  8
TEXT
100
AcDbLine
 10
0.8776206100957624
 20
0.6541391154094818
 30
0.0
 11
0.8108118975293974
 21
0.6541391154094818
 31
0.0
  0
LWPOLYLINE
  5
7DE1B343D9DB454
330
7DE1B343D9DB4A9
100
AcDbEntity
  8
TEXT
100
AcDbPolyline
 90
        3
 70
     0
 43
0.0
 10
1.198032369693764
 20
0.5861276376706748
 10
1.07973221087772
 20
0.5861276376706748
 10
1.07973221087772
 20
0.5589601409097789
 42
-1.960274751411753
  0
LINE
  5
7DE1B343D9DB459
330
7DE1B343D9DB4A9
100
AcDbEntity
  8
TEXT
100
AcDbLine
 10
1.043950520164558
 20
0.5861276376706713
 30
0.0
 11
0.9099324642334225
 21
0.5861276376706713
 31
0.0
  0
LWPOLYLINE
  5
7DE1B343D9DB45A
330
7DE1B343D9DB4A9
100
AcDbEntity
  8
TEXT
100
AcDbPolyline
 90
        2
 70
     0
 43
0.0
 10
1.043950520164558
 20
0.5861276376706748
 42
-0.3328679258950098
 10
1.07973221087772
 20
0.5589601409097789
 42
6.772930709997214
  0
LINE
  5
7DE1B343D9DB45E
330
7DE1B343D9DB4A9
100
AcDbEntity
  8
TEXT
100
AcDbLine
 10
1.233814060406931
 20
0.5861276376706713
 30
0.0
 11
1.233814060406931
 21
0.5578050919010274
 31
0.0
  0
LWPOLYLINE
  5
7DE1B343D9DB45F
330
7DE1B343D9DB4A9
100
AcDbEntity
  8
TEXT
100
AcDbPolyline
 90
        2
 70
     0
 43
0.0
 10
1.198032369693764
 20
0.5861276376706748
 42
-0.3277054968067132
 10
1.233814060406929
 20
0.5578050919010309
 42
6.667889725900311
  0
LINE
  5
7DE1B343D9DB463
330
7DE1B343D9DB4A9
100
AcDbEntity
  8
TEXT
100
AcDbLine
 10
1.447605908499031
 20
0.4809156591172439
 30
0.0
 11
1.40385513731713
 21
0.5631659351133891
 31
0.0
  0
LINE
  5
7DE1B343D9DB464
330
7DE1B343D9DB4A9
100
AcDbEntity
  8
TEXT
100
AcDbLine
 10
1.447605908499031
 20
0.5861276376706713
 30
0.0
 11
1.447605908499031
 21
0.4809156591172439
 31
0.0
  0
LINE
  5
7DE1B343D9DB465
330
7DE1B343D9DB4A9
100
AcDbEntity
  8
TEXT
100
AcDbLine
 10
1.6752896474374
 20
0.5102623112591332
 30
0.0
 11
1.6752896474374
 21
0.651591843438272
 31
0.0
  0
LINE
  5
7DE1B343D9DB466
330
7DE1B343D9DB4A9
100
AcDbEntity
  8
TEXT
100
AcDbLine
 10
1.722387805993385
 20
0.5861276376706713
 30
0.0
 11
1.6752896474374
 21
0.5102623112591332
 31
0.0
  0
LINE
  5
7DE1B343D9DB467
330
7DE1B343D9DB4A9
100
AcDbEntity
  8
TEXT
100
AcDbLine
 10
1.732822522757308
 20
0.4762343947296977
 30
0.0
 11
1.797379638723013
 21
0.5861276376706713
 31
0.0
  0
LINE
  5
7DE1B343D9DB468
330
7DE1B343D9DB4A9
100
AcDbEntity
  8
TEXT
100
AcDbLine
 10
1.611454656214627
 20
0.3196546046821602
 30
0.0
 11
1.675832840533247
 21
0.3196546046821602
 31
0.0
  0
LWPOLYLINE
  5
7DE1B343D9DB469
330
7DE1B343D9DB4A9
100
AcDbEntity
  8
TEXT
100
AcDbPolyline
 90
        2
 70
     0
 43
0.0
 10
1.451545585804069
 20
0.3631455496325984
 42
-0.2901071551932486
 10
1.408469652936424
 20
0.3196546046821602
 42
-5.328517124445184
  0
ARC
  5
7DE1B343D9DB46D
330
7DE1B343D9DB4A9
100
AcDbEntity
  8
TEXT
100
AcDbCircle
 10
1.33961507127951
 20
0.4934915680139085
 30
0.0
 40
0.028359375
100
AcDbArc
 50
25.78218179591245
 51
90.0
  0
LINE
  5
7DE1B343D9DB46E
330
7DE1B343D9DB4A9
100
AcDbEntity
  8
TEXT
100
AcDbLine
 10
1.375416146583633
 20
0.4845759695517735
 30
0.0
 11
1.365151386170069
 21
0.5058265091244678
 31
0.0
  0
LINE
  5
7DE1B343D9DB46F
330
7DE1B343D9DB4A9
100
AcDbEntity
  8
TEXT
100
AcDbLine
 10
1.29312815680025
 20
0.4845759695517735
 30
0.0
 11
1.375416146583633
 21
0.4845759695517735
 31
0.0
  0
LWPOLYLINE
  5
7DE1B343D9DB470
330
7DE1B343D9DB4A9
100
AcDbEntity
  8
TEXT
100
AcDbPolyline
 90
        4
 70
     1
 43
0.0
 10
1.388347187866532
 20
0.4226185826661855
 10
1.299686869206673
 20
0.4226185826661855
 42
0.9999999999999998
 10
1.299686869206673
 20
0.3802200421623247
 10
1.388347187866532
 20
0.3802200421623247
 42
1.0
  0
LWPOLYLINE
  5
7DE1B343D9DB476
330
7DE1B343D9DB4A9
100
AcDbEntity
  8
TEXT
100
AcDbPolyline
 90
        2
 70
     0
 43
0.0
 10
1.274452235305048
 20
0.3196546046821602
 10
1.408469652936424
 20
0.3196546046821602
 42
0.9999999999999998
  0
LINE
  5
7DE1B343D9DB47A
330
7DE1B343D9DB4A9
100
AcDbEntity
  8
TEXT
100
AcDbLine
 10
1.534806674922064
 20
0.5218509430139058
 30
0.0
 11
1.611454656214622
 21
0.5218509430139058
 31
0.0
  0
LINE
  5
7DE1B343D9DB47B
330
7DE1B343D9DB4A9
100
AcDbEntity
  8
TEXT
100
AcDbLine
 10
1.611454656214622
 20
0.5218509430139058
 30
0.0
 11
1.611454656214627
 21
0.3196546046821602
 31
0.0
  0
ARC
  5
7DE1B343D9DB47C
330
7DE1B343D9DB4A9
100
AcDbEntity
  8
TEXT
100
AcDbCircle
 10
1.534806674922062
 20
0.4969450677312431
 30
0.0
 40
0.0249058752826653
100
AcDbArc
 50
89.99971217465335
 51
179.9999999999985
  0
LINE
  5
7DE1B343D9DB47D
330
7DE1B343D9DB4A9
100
AcDbEntity
  8
TEXT
100
AcDbLine
 10
1.509900799639405
 20
0.3196546046821602
 30
0.0
 11
1.509900799639399
 21
0.4969451101136287
 31
0.0
  0
LWPOLYLINE
  5
7DE1B343D9DB47E
330
7DE1B343D9DB4A9
100
AcDbEntity
  8
TEXT
100
AcDbPolyline
 90
        2
 70
     0
 43
0.0
 10
1.451545585804069
 20
0.3196546046821602
 10
1.509900799639403
 20
0.3196546046821602
  0
LWPOLYLINE
  5
7DE1B343D9DB482
330
7DE1B343D9DB4A9
100
AcDbEntity
  8
TEXT
100
AcDbPolyline
 90
        2
 70
     0
 43
0.0
 10
1.451545585804069
 20
0.3631455496325984
 10
1.451545585804069
 20
0.3196546046821602
  0
LINE
  5
7DE1B343D9DB486
330
7DE1B343D9DB4A9
100
AcDbEntity
  8
TEXT
100
AcDbLine
 10
1.828314746120918
 20
0.3196546046821602
 30
0.0
 11
1.732822522757308
 21
0.4762343947296977
 31
0.0
  0
LINE
  5
7DE1B343D9DB487
330
7DE1B343D9DB4A9
100
AcDbEntity
  8
TEXT
100
AcDbLine
 10
1.751736373744712
 20
0.3196546046821602
 30
0.0
 11
1.828314746120918
 21
0.3196546046821602
 31
0.0
  0
LINE
  5
7DE1B343D9DB488
330
7DE1B343D9DB4A9
100
AcDbEntity
  8
TEXT
100
AcDbLine
 10
1.675832840533247
 20
0.4512341731583405
 30
0.0
 11
1.751736373744712
 21
0.3196546046821602
 31
0.0
  0
LINE
  5
7DE1B343D9DB489
330
7DE1B343D9DB4A9
100
AcDbEntity
  8
TEXT
100
AcDbLine
 10
1.675832840533247
 20
0.3196546046821602
 30
0.0
 11
1.675832840533247
 21
0.4512341731583405
 31
0.0
  0
LINE
  5
7DE1B343D9DB48A
330
7DE1B343D9DB4A9
100
AcDbEntity
  8
TEXT
100
AcDbLine
 10
1.6752896474374
 20
0.651591843438272
 30
0.0
 11
1.606974768888127
 21
0.651591843438272
 31
0.0
  0
ARC
  5
7DE1B343D9DB48B
330
7DE1B343D9DB4A9
100
AcDbEntity
  8
TEXT
100
AcDbCircle
 10
1.366619029846921
 20
0.5445440705497689
 30
0.0
 40
0.0416329381542859
100
AcDbArc
 50
26.56974201007528
 51
87.20939649401342
  0
LINE
  5
7DE1B343D9DB48C
330
7DE1B343D9DB4A9
100
AcDbEntity
  8
TEXT
100
AcDbLine
 10
1.511502814798532
 20
0.5861276376706713
 30
0.0
 11
1.447605908499031
 21
0.5861276376706713
 31
0.0
  0
LINE
  5
7DE1B343D9DB48D
330
7DE1B343D9DB4A9
100
AcDbEntity
  8
TEXT
100
AcDbLine
 10
1.511502814798532
 20
0.5585799878097966
 30
0.0
 11
1.511502814798532
 21
0.5861276376706713
 31
0.0
  0
ARC
  5
7DE1B343D9DB48E
330
7DE1B343D9DB4A9
100
AcDbEntity
  8
TEXT
100
AcDbCircle
 10
1.54269563186164
 20
0.5548819103884064
 30
0.0
 40
0.0314112657011332
100
AcDbArc
 50
95.88484768694724
 51
173.2388340632136
  0
LINE
  5
7DE1B343D9DB48F
330
7DE1B343D9DB4A9
100
AcDbEntity
  8
TEXT
100
AcDbLine
 10
1.606974768888122
 20
0.5861276376706713
 30
0.0
 11
1.539475051238605
 21
0.5861276376706713
 31
0.0
  0
LINE
  5
7DE1B343D9DB490
330
7DE1B343D9DB4A9
100
AcDbEntity
  8
TEXT
100
AcDbLine
 10
1.606974768888127
 20
0.651591843438272
 30
0.0
 11
1.606974768888122
 21
0.5861276376706713
 31
0.0
  0
LINE
  5
7DE1B343D9DB491
330
7DE1B343D9DB4A9
100
AcDbEntity
  8
TEXT
100
AcDbLine
 10
1.797379638723013
 20
0.5861276376706713
 30
0.0
 11
1.722387805993386
 21
0.5861276376706713
 31
0.0
  0
ENDSEC
  0
SECTION
  2
OBJECTS
  0
DICTIONARY
  5
7DE1B343D9DB49D
330
0
100
AcDbDictionary
  3
ACAD_GROUP
350
7DE1B343D9DB49E
  3
ACAD_LAYOUT
350
7DE1B343D9DB4C4
  3
ACAD_MLINESTYLE
350
7DE1B343D9DB49F
  3
ACAD_PLOTSETTINGS
350
7DE1B343D9DB4C5
  3
ACAD_PLOTSTYLENAME
350
7DE1B343D9DB4C2
  3
ACDBHEADERROUNDTRIPXREC
350
7DE1B343D9DB4CF
  3
ACDBVARIABLEDICTIONARY
350
7DE1B343D9DB4CC
  0
DICTIONARY
  5
7DE1B343D9DB4F1
330
7DE1B343D9DB4A9
100
AcDbDictionary
280
     1
  3
ACAD_LAYOUTSELFREF
360
7DE1B343D9DB4F2
  0
DICTIONARY
  5
7DE1B343D9DB4EF
330
7DE1B343D9DB4A6
100
AcDbDictionary
280
     1
  3
ACAD_LAYOUTSELFREF
360
7DE1B343D9DB4F0
  0
DICTIONARY
  5
7DE1B343D9DB49E
102
{ACAD_REACTORS
330
7DE1B343D9DB49D
102
}
330
7DE1B343D9DB49D
100
AcDbDictionary
  0
DICTIONARY
  5
7DE1B343D9DB4C4
102
{ACAD_REACTORS
330
7DE1B343D9DB49D
102
}
330
7DE1B343D9DB49D
100
AcDbDictionary
  0
DICTIONARY
  5
7DE1B343D9DB49F
102
{ACAD_REACTORS
330
7DE1B343D9DB49D
102
}
330
7DE1B343D9DB49D
100
AcDbDictionary
  3
STANDARD
350
7DE1B343D9DB4AC
  0
DICTIONARY
  5
7DE1B343D9DB4C5
102
{ACAD_REACTORS
330
7DE1B343D9DB49D
102
}
330
7DE1B343D9DB49D
100
AcDbDictionary
  0
ACDBDICTIONARYWDFLT
  5
7DE1B343D9DB4C2
102
{ACAD_REACTORS
330
7DE1B343D9DB49D
102
}
330
7DE1B343D9DB49D
100
AcDbDictionary
281
     1
  3
Normal
350
7DE1B343D9DB4C3
100
AcDbDictionaryWithDefault
340
7DE1B343D9DB4C3
  0
DICTIONARY
  5
7DE1B343D9DB4CF
102
{ACAD_REACTORS
330
7DE1B343D9DB49D
102
}
330
7DE1B343D9DB49D
100
AcDbDictionary
  3
CEPSNTYPE
350
7DE1B343D9DB4D9
  3
FINGERPRINTGUID
350
7DE1B343D9DB4DA
  3
HYPERLINKBASE
350
7DE1B343D9DB4D2
  3
INSUNITS
350
7DE1B343D9DB4D8
  3
LAYOUTDICT
350
7DE1B343D9DB4D4
  3
LWETCUNION
350
7DE1B343D9DB4D7
  3
PLOTSETDICT
350
7DE1B343D9DB4D5
  3
PLOTSTYLNAMDICT
350
7DE1B343D9DB4D6
  3
PSVPSCALE
350
7DE1B343D9DB4DC
  3
PUCSBASE
350
7DE1B343D9DB4DF
  3
PUCSORGBACK
350
7DE1B343D9DB4E5
  3
PUCSORGBOTTOM
350
7DE1B343D9DB4E1
  3
PUCSORGFRONT
350
7DE1B343D9DB4E4
  3
PUCSORGLEFT
350
7DE1B343D9DB4E2
  3
PUCSORGRIGHT
350
7DE1B343D9DB4E3
  3
PUCSORGTOP
350
7DE1B343D9DB4E0
  3
PUCSORTHOREF
350
7DE1B343D9DB4DD
  3
PUCSORTHOVIEW
350
7DE1B343D9DB4DE
  3
STYLESHEET
350
7DE1B343D9DB4D3
  3
TSTACKALIGN
350
7DE1B343D9DB4D0
  3
TSTACKSIZE
350
7DE1B343D9DB4D1
  3
UCSBASE
350
7DE1B343D9DB4E8
  3
UCSORGBACK
350
7DE1B343D9DB4EE
  3
UCSORGBOTTOM
350
7DE1B343D9DB4EA
  3
UCSORGFRONT
350
7DE1B343D9DB4ED
  3
UCSORGLEFT
350
7DE1B343D9DB4EB
  3
UCSORGRIGHT
350
7DE1B343D9DB4EC
  3
UCSORGTOP
350
7DE1B343D9DB4E9
  3
UCSORTHOREF
350
7DE1B343D9DB4E6
  3
UCSORTHOVIEW
350
7DE1B343D9DB4E7
  3
VERSIONGUID
350
7DE1B343D9DB4DB
  0
DICTIONARY
  5
7DE1B343D9DB4CC
102
{ACAD_REACTORS
330
7DE1B343D9DB49D
102
}
330
7DE1B343D9DB49D
100
AcDbDictionary
  3
DIMASSOC
350
7DE1B343D9DB4CD
  0
XRECORD
  5
7DE1B343D9DB4F2
102
{ACAD_REACTORS
330
7DE1B343D9DB4F1
102
}
330
7DE1B343D9DB4F1
100
AcDbXrecord
340
7DE1B343D9DB4A9
  0
XRECORD
  5
7DE1B343D9DB4F0
102
{ACAD_REACTORS
330
7DE1B343D9DB4EF
102
}
330
7DE1B343D9DB4EF
100
AcDbXrecord
340
7DE1B343D9DB4A6
  0
MLINESTYLE
  5
7DE1B343D9DB4AC
102
{ACAD_REACTORS
330
7DE1B343D9DB49F
102
}
330
7DE1B343D9DB49F
100
AcDbMlineStyle
  2
STANDARD
 70
     0
  3

 62
     0
 51
90.0
 52
90.0
 71
     2
 49
0.5
 62
   256
  6
BYLAYER
 49
-0.5
 62
   256
  6
BYLAYER
  0
ACDBPLACEHOLDER
  5
7DE1B343D9DB4C3
102
{ACAD_REACTORS
330
7DE1B343D9DB4C2
102
}
330
7DE1B343D9DB4C2
100
AcDbPlaceHolder
280
     0
  0
XRECORD
  5
7DE1B343D9DB4D9
102
{ACAD_REACTORS
330
7DE1B343D9DB4CF
102
}
330
7DE1B343D9DB4CF
100
AcDbXrecord
 90
        0
  0
XRECORD
  5
7DE1B343D9DB4DA
102
{ACAD_REACTORS
330
7DE1B343D9DB4CF
102
}
330
7DE1B343D9DB4CF
100
AcDbXrecord
  1
{0DBCE480-8DB5-11D6-88E6-0090279574E7}
  0
XRECORD
  5
7DE1B343D9DB4D2
102
{ACAD_REACTORS
330
7DE1B343D9DB4CF
102
}
330
7DE1B343D9DB4CF
100
AcDbXrecord
  1

  0
XRECORD
  5
7DE1B343D9DB4D8
102
{ACAD_REACTORS
330
7DE1B343D9DB4CF
102
}
330
7DE1B343D9DB4CF
100
AcDbXrecord
 90
        0
  0
XRECORD
  5
7DE1B343D9DB4D4
102
{ACAD_REACTORS
330
7DE1B343D9DB4CF
102
}
330
7DE1B343D9DB4CF
100
AcDbXrecord
340
7DE1B343D9DB4C4
  0
XRECORD
  5
7DE1B343D9DB4D7
102
{ACAD_REACTORS
330
7DE1B343D9DB4CF
102
}
330
7DE1B343D9DB4CF
100
AcDbXrecord
 90
    14877
  0
XRECORD
  5
7DE1B343D9DB4D5
102
{ACAD_REACTORS
330
7DE1B343D9DB4CF
102
}
330
7DE1B343D9DB4CF
100
AcDbXrecord
340
7DE1B343D9DB4C5
  0
XRECORD
  5
7DE1B343D9DB4D6
102
{ACAD_REACTORS
330
7DE1B343D9DB4CF
102
}
330
7DE1B343D9DB4CF
100
AcDbXrecord
340
7DE1B343D9DB4C2
  0
XRECORD
  5
7DE1B343D9DB4DC
102
{ACAD_REACTORS
330
7DE1B343D9DB4CF
102
}
330
7DE1B343D9DB4CF
100
AcDbXrecord
 40
0.0
  0
XRECORD
  5
7DE1B343D9DB4DF
102
{ACAD_REACTORS
330
7DE1B343D9DB4CF
102
}
330
7DE1B343D9DB4CF
100
AcDbXrecord
340
0
  0
XRECORD
  5
7DE1B343D9DB4E5
102
{ACAD_REACTORS
330
7DE1B343D9DB4CF
102
}
330
7DE1B343D9DB4CF
100
AcDbXrecord
 10
0.0
 20
0.0
 30
0.0
  0
XRECORD
  5
7DE1B343D9DB4E1
102
{ACAD_REACTORS
330
7DE1B343D9DB4CF
102
}
330
7DE1B343D9DB4CF
100
AcDbXrecord
 10
0.0
 20
0.0
 30
0.0
  0
XRECORD
  5
7DE1B343D9DB4E4
102
{ACAD_REACTORS
330
7DE1B343D9DB4CF
102
}
330
7DE1B343D9DB4CF
100
AcDbXrecord
 10
0.0
 20
0.0
 30
0.0
  0
XRECORD
  5
7DE1B343D9DB4E2
102
{ACAD_REACTORS
330
7DE1B343D9DB4CF
102
}
330
7DE1B343D9DB4CF
100
AcDbXrecord
 10
0.0
 20
0.0
 30
0.0
  0
XRECORD
  5
7DE1B343D9DB4E3
102
{ACAD_REACTORS
330
7DE1B343D9DB4CF
102
}
330
7DE1B343D9DB4CF
100
AcDbXrecord
 10
0.0
 20
0.0
 30
0.0
  0
XRECORD
  5
7DE1B343D9DB4E0
102
{ACAD_REACTORS
330
7DE1B343D9DB4CF
102
}
330
7DE1B343D9DB4CF
100
AcDbXrecord
 10
0.0
 20
0.0
 30
0.0
  0
XRECORD
  5
7DE1B343D9DB4DD
102
{ACAD_REACTORS
330
7DE1B343D9DB4CF
102
}
330
7DE1B343D9DB4CF
100
AcDbXrecord
340
0
  0
XRECORD
  5
7DE1B343D9DB4DE
102
{ACAD_REACTORS
330
7DE1B343D9DB4CF
102
}
330
7DE1B343D9DB4CF
100
AcDbXrecord
 70
     0
  0
XRECORD
  5
7DE1B343D9DB4D3
102
{ACAD_REACTORS
330
7DE1B343D9DB4CF
102
}
330
7DE1B343D9DB4CF
100
AcDbXrecord
  1

  0
XRECORD
  5
7DE1B343D9DB4D0
102
{ACAD_REACTORS
330
7DE1B343D9DB4CF
102
}
330
7DE1B343D9DB4CF
100
AcDbXrecord
 90
        1
  0
XRECORD
  5
7DE1B343D9DB4D1
102
{ACAD_REACTORS
330
7DE1B343D9DB4CF
102
}
330
7DE1B343D9DB4CF
100
AcDbXrecord
 90
       70
  0
XRECORD
  5
7DE1B343D9DB4E8
102
{ACAD_REACTORS
330
7DE1B343D9DB4CF
102
}
330
7DE1B343D9DB4CF
100
AcDbXrecord
340
0
  0
XRECORD
  5
7DE1B343D9DB4EE
102
{ACAD_REACTORS
330
7DE1B343D9DB4CF
102
}
330
7DE1B343D9DB4CF
100
AcDbXrecord
 10
0.0
 20
0.0
 30
0.0
  0
XRECORD
  5
7DE1B343D9DB4EA
102
{ACAD_REACTORS
330
7DE1B343D9DB4CF
102
}
330
7DE1B343D9DB4CF
100
AcDbXrecord
 10
0.0
 20
0.0
 30
0.0
  0
XRECORD
  5
7DE1B343D9DB4ED
102
{ACAD_REACTORS
330
7DE1B343D9DB4CF
102
}
330
7DE1B343D9DB4CF
100
AcDbXrecord
 10
0.0
 20
0.0
 30
0.0
  0
XRECORD
  5
7DE1B343D9DB4EB
102
{ACAD_REACTORS
330
7DE1B343D9DB4CF
102
}
330
7DE1B343D9DB4CF
100
AcDbXrecord
 10
0.0
 20
0.0
 30
0.0
  0
XRECORD
  5
7DE1B343D9DB4EC
102
{ACAD_REACTORS
330
7DE1B343D9DB4CF
102
}
330
7DE1B343D9DB4CF
100
AcDbXrecord
 10
0.0
 20
0.0
 30
0.0
  0
XRECORD
  5
7DE1B343D9DB4E9
102
{ACAD_REACTORS
330
7DE1B343D9DB4CF
102
}
330
7DE1B343D9DB4CF
100
AcDbXrecord
 10
0.0
 20
0.0
 30
0.0
  0
XRECORD
  5
7DE1B343D9DB4E6
102
{ACAD_REACTORS
330
7DE1B343D9DB4CF
102
}
330
7DE1B343D9DB4CF
100
AcDbXrecord
340
0
  0
XRECORD
  5
7DE1B343D9DB4E7
102
{ACAD_REACTORS
330
7DE1B343D9DB4CF
102
}
330
7DE1B343D9DB4CF
100
AcDbXrecord
 70
     0
  0
XRECORD
  5
7DE1B343D9DB4DB
102
{ACAD_REACTORS
330
7DE1B343D9DB4CF
102
}
330
7DE1B343D9DB4CF
100
AcDbXrecord
  1
{0DBCE482-8DB5-11D6-88E6-0090279574E7}
  0
DICTIONARYVAR
  5
7DE1B343D9DB4CD
102
{ACAD_REACTORS
330
7DE1B343D9DB4CC
102
}
330
7DE1B343D9DB4CC
100
DictionaryVariables
280
     0
  1
1
  0
ENDSEC
  0
EOF
