  0
SECTION
  2
HEADER
  9
$ACADVER
  1
AC1014
  9
$ACADMAINTVER
 70
     9
  9
$DWGCODEPAGE
  3
ANSI_1252
  9
$INSBASE
 10
5.23866502227433
 20
5.368424913311497
 30
0.0
  9
$EXTMIN
 10
-0.7764839186230831
 20
-0.0831473635652793
 30
0.0
  9
$EXTMAX
 10
2.708735403124045
 20
1.600476818660162
 30
0.0
  9
$LIMMIN
 10
0.0
 20
0.0
  9
$LIMMAX
 10
8.5
 20
11.0
  9
$ORTHOMODE
 70
     1
  9
$REGENMODE
 70
     1
  9
$FILLMODE
 70
     1
  9
$QTEXTMODE
 70
     0
  9
$MIRRTEXT
 70
     0
  9
$DRAGMODE
 70
     2
  9
$LTSCALE
 40
1.0
  9
$OSMODE
 70
    39
  9
$ATTMODE
 70
     1
  9
$TEXTSIZE
 40
0.125
  9
$TRACEWID
 40
0.05
  9
$TEXTSTYLE
  7
ROMANS
  9
$CLAYER
  8
0
  9
$CELTYPE
  6
BYLAYER
  9
$CECOLOR
 62
   256
  9
$CELTSCALE
 40
1.0
  9
$DELOBJ
 70
     1
  9
$DISPSILH
 70
     1
  9
$DIMSCALE
 40
1.0
  9
$DIMASZ
 40
0.125
  9
$DIMEXO
 40
0.125
  9
$DIMDLI
 40
0.375
  9
$DIMRND
 40
0.0
  9
$DIMDLE
 40
0.0
  9
$DIMEXE
 40
0.125
  9
$DIMTP
 40
0.0
  9
$DIMTM
 40
0.0
  9
$DIMTXT
 40
0.125
  9
$DIMCEN
 40
-0.125
  9
$DIMTSZ
 40
0.0
  9
$DIMTOL
 70
     0
  9
$DIMLIM
 70
     0
  9
$DIMTIH
 70
     1
  9
$DIMTOH
 70
     1
  9
$DIMSE1
 70
     0
  9
$DIMSE2
 70
     0
  9
$DIMTAD
 70
     0
  9
$DIMZIN
 70
     4
  9
$DIMBLK
  1

  9
$DIMASO
 70
     1
  9
$DIMSHO
 70
     1
  9
$DIMPOST
  1

  9
$DIMAPOST
  1

  9
$DIMALT
 70
     0
  9
$DIMALTD
 70
     2
  9
$DIMALTF
 40
25.4
  9
$DIMLFAC
 40
0.5
  9
$DIMTOFL
 70
     0
  9
$DIMTVP
 40
0.0
  9
$DIMTIX
 70
     0
  9
$DIMSOXD
 70
     0
  9
$DIMSAH
 70
     0
  9
$DIMBLK1
  1

  9
$DIMBLK2
  1

  9
$DIMSTYLE
  2
STANDARD
  9
$DIMCLRD
 70
     0
  9
$DIMCLRE
 70
     0
  9
$DIMCLRT
 70
     0
  9
$DIMTFAC
 40
1.0
  9
$DIMGAP
 40
0.09
  9
$DIMJUST
 70
     0
  9
$DIMSD1
 70
     0
  9
$DIMSD2
 70
     0
  9
$DIMTOLJ
 70
     1
  9
$DIMTZIN
 70
     0
  9
$DIMALTZ
 70
     0
  9
$DIMALTTZ
 70
     0
  9
$DIMFIT
 70
     3
  9
$DIMUPT
 70
     0
  9
$DIMUNIT
 70
     2
  9
$DIMDEC
 70
     3
  9
$DIMTDEC
 70
     4
  9
$DIMALTU
 70
     2
  9
$DIMALTTD
 70
     2
  9
$DIMTXSTY
  7
ROMANS
  9
$DIMAUNIT
 70
     0
  9
$LUNITS
 70
     2
  9
$LUPREC
 70
     3
  9
$SKETCHINC
 40
0.1
  9
$FILLETRAD
 40
0.03125
  9
$AUNITS
 70
     0
  9
$AUPREC
 70
     0
  9
$MENU
  1
ACAD
  9
$ELEVATION
 40
0.0
  9
$PELEVATION
 40
0.0
  9
$THICKNESS
 40
0.0
  9
$LIMCHECK
 70
     0
  9
$BLIPMODE
 70
     0
  9
$CHAMFERA
 40
0.0
  9
$CHAMFERB
 40
0.0
  9
$CHAMFERC
 40
0.0
  9
$CHAMFERD
 40
0.0
  9
$SKPOLY
 70
     0
  9
$TDCREATE
 40
2449695.446704398
  9
$TDUPDATE
 40
2452458.300656481
  9
$TDINDWG
 40
0.0065708565
  9
$TDUSRTIMER
 40
0.0065708565
  9
$USRTIMER
 70
     1
  9
$ANGBASE
 50
0.0
  9
$ANGDIR
 70
     0
  9
$PDMODE
 70
     0
  9
$PDSIZE
 40
0.0
  9
$PLINEWID
 40
0.0
  9
$COORDS
 70
     2
  9
$SPLFRAME
 70
     0
  9
$SPLINETYPE
 70
     6
  9
$SPLINESEGS
 70
     8
  9
$ATTDIA
 70
     0
  9
$ATTREQ
 70
     1
  9
$HANDLING
 70
 22529
  9
$HANDSEED
  5
39F
  9
$SURFTAB1
 70
     6
  9
$SURFTAB2
 70
     6
  9
$SURFTYPE
 70
     6
  9
$SURFU
 70
     6
  9
$SURFV
 70
     6
  9
$UCSNAME
  2

  9
$UCSORG
 10
0.0
 20
0.0
 30
0.0
  9
$UCSXDIR
 10
1.0
 20
0.0
 30
0.0
  9
$UCSYDIR
 10
0.0
 20
1.0
 30
0.0
  9
$PUCSNAME
  2

  9
$PUCSORG
 10
0.0
 20
0.0
 30
0.0
  9
$PUCSXDIR
 10
1.0
 20
0.0
 30
0.0
  9
$PUCSYDIR
 10
0.0
 20
1.0
 30
0.0
  9
$USERI1
 70
     0
  9
$USERI2
 70
     0
  9
$USERI3
 70
     0
  9
$USERI4
 70
     0
  9
$USERI5
 70
     0
  9
$USERR1
 40
0.0
  9
$USERR2
 40
0.0
  9
$USERR3
 40
0.0
  9
$USERR4
 40
0.0
  9
$USERR5
 40
0.0
  9
$WORLDVIEW
 70
     1
  9
$SHADEDGE
 70
     3
  9
$SHADEDIF
 70
    70
  9
$TILEMODE
 70
     1
  9
$MAXACTVP
 70
    16
  9
$PINSBASE
 10
0.0
 20
0.0
 30
0.0
  9
$PLIMCHECK
 70
     0
  9
$PEXTMIN
 10
1.000000000000000E+20
 20
1.000000000000000E+20
 30
1.000000000000000E+20
  9
$PEXTMAX
 10
-1.000000000000000E+20
 20
-1.000000000000000E+20
 30
-1.000000000000000E+20
  9
$PLIMMIN
 10
0.0
 20
0.0
  9
$PLIMMAX
 10
12.0
 20
9.0
  9
$UNITMODE
 70
     0
  9
$VISRETAIN
 70
     0
  9
$PLINEGEN
 70
     1
  9
$PSLTSCALE
 70
     0
  9
$TREEDEPTH
 70
  3020
  9
$PICKSTYLE
 70
     1
  9
$CMLSTYLE
  2
STANDARD
  9
$CMLJUST
 70
     0
  9
$CMLSCALE
 40
1.0
  9
$PROXYGRAPHICS
 70
     1
  9
$MEASUREMENT
 70
     0
  0
ENDSEC
  0
SECTION
  2
CLASSES
  0
CLASS
  1
LWPOLYLINE
  2
AcDbPolyline
  3
AutoCAD 2000
 90
        0
280
     0
281
     1
  0
CLASS
  1
ACDBDICTIONARYWDFLT
  2
AcDbDictionaryWithDefault
  3
AutoCAD 2000
 90
        0
280
     0
281
     0
  0
CLASS
  1
ACDBPLACEHOLDER
  2
AcDbPlaceHolder
  3
AutoCAD 2000
 90
        0
280
     0
281
     0
  0
CLASS
  1
LAYOUT
  2
AcDbLayout
  3
AutoCAD 2000
 90
        0
280
     0
281
     0
  0
CLASS
  1
DICTIONARYVAR
  2
AcDbDictionaryVar
  3
AutoCAD 2000
 90
        0
280
     0
281
     0
  0
CLASS
  1
LONG_TRANSACTION
  2
AcDbLongTransaction
  3
AutoCAD 2000
 90
        0
280
     0
281
     0
  0
CLASS
  1
LWPOLYLINE
  2
AcDbPolyline
  3
AutoCAD 2000
 90
        0
280
     0
281
     1
  0
CLASS
  1
HATCH
  2
AcDbHatch
  3
AutoCAD 2000
 90
        0
280
     0
281
     1
  0
CLASS
  1
XRECORD
  2
AcDbXrecord
  3
AutoCAD 2000
 90
        0
280
     0
281
     0
  0
ENDSEC
  0
SECTION
  2
TABLES
  0
TABLE
  2
VPORT
  5
8
330
0
100
AcDbSymbolTable
 70
     2
  0
VPORT
  5
37A
330
8
100
AcDbSymbolTableRecord
100
AcDbViewportTableRecord
  2
*ACTIVE
 70
     0
 10
0.0
 20
0.0
 11
1.0
 21
1.0
 12
3.888147589207179
 22
0.7588491259778359
 13
0.0
 23
0.0
 14
0.015625
 24
0.015625
 15
0.0
 25
0.0
 16
0.0
 26
0.0
 36
1.0
 17
0.0
 27
0.0
 37
0.0
 40
2.163783105556757
 41
4.320930232558139
 42
50.0
 43
0.0
 44
0.0
 50
0.0
 51
0.0
 71
     0
 72
  2000
 73
     1
 74
     1
 75
     0
 76
     0
 77
     0
 78
     0
  0
ENDTAB
  0
TABLE
  2
LTYPE
  5
5
330
0
100
AcDbSymbolTable
 70
     1
  0
LTYPE
  5
12
330
5
100
AcDbSymbolTableRecord
100
AcDbLinetypeTableRecord
  2
BYBLOCK
 70
     0
  3

 72
    65
 73
     0
 40
0.0
  0
LTYPE
  5
13
330
5
100
AcDbSymbolTableRecord
100
AcDbLinetypeTableRecord
  2
BYLAYER
 70
     0
  3

 72
    65
 73
     0
 40
0.0
  0
LTYPE
  5
14
330
5
100
AcDbSymbolTableRecord
100
AcDbLinetypeTableRecord
  2
CONTINUOUS
 70
     0
  3
Solid line
 72
    65
 73
     0
 40
0.0
  0
ENDTAB
  0
TABLE
  2
LAYER
  5
2
330
0
100
AcDbSymbolTable
 70
     2
  0
LAYER
  5
F
330
2
100
AcDbSymbolTableRecord
100
AcDbLayerTableRecord
  2
0
 70
     0
 62
     7
  6
CONTINUOUS
  0
LAYER
  5
23
330
2
100
AcDbSymbolTableRecord
100
AcDbLayerTableRecord
  2
TEXT
 70
     0
 62
     3
  6
CONTINUOUS
  0
ENDTAB
  0
TABLE
  2
STYLE
  5
3
330
0
100
AcDbSymbolTable
 70
     3
  0
STYLE
  5
10
330
3
100
AcDbSymbolTableRecord
100
AcDbTextStyleTableRecord
  2
STANDARD
 70
     0
 40
0.0
 41
1.0
 50
0.0
 71
     0
 42
0.125
  3
txt
  4

  0
STYLE
  5
267
330
3
100
AcDbSymbolTableRecord
100
AcDbTextStyleTableRecord
  2
ITALICC
 70
     0
 40
0.0
 41
1.0
 50
0.0
 71
     0
 42
0.125
  3
italicc
  4

  0
STYLE
  5
376
330
3
100
AcDbSymbolTableRecord
100
AcDbTextStyleTableRecord
  2
ROMANS
 70
     0
 40
0.0
 41
1.0
 50
0.0
 71
     0
 42
0.125
  3
romans.shx
  4

  0
ENDTAB
  0
TABLE
  2
VIEW
  5
6
330
0
100
AcDbSymbolTable
 70
     0
  0
ENDTAB
  0
TABLE
  2
UCS
  5
7
330
0
100
AcDbSymbolTable
 70
     0
  0
ENDTAB
  0
TABLE
  2
APPID
  5
9
330
0
100
AcDbSymbolTable
 70
     1
  0
APPID
  5
11
330
9
100
AcDbSymbolTableRecord
100
AcDbRegAppTableRecord
  2
ACAD
 70
     0
  0
ENDTAB
  0
TABLE
  2
DIMSTYLE
  5
A
330
0
100
AcDbSymbolTable
 70
     1
  0
DIMSTYLE
105
25C
330
A
100
AcDbSymbolTableRecord
100
AcDbDimStyleTableRecord
  2
STANDARD
 70
     0
  3

  4

  5

  6

  7

 40
1.0
 41
0.18
 42
0.0625
 43
0.38
 44
0.18
 45
0.0
 46
0.0
 47
0.0
 48
0.0
140
0.18
141
0.09
142
0.0
143
25.4
144
1.0
145
0.0
146
1.0
147
0.09
 71
     0
 72
     0
 73
     1
 74
     1
 75
     0
 76
     0
 77
     0
 78
     0
170
     0
171
     2
172
     0
173
     0
174
     0
175
     0
176
     0
177
     0
178
     0
270
     2
271
     4
272
     4
273
     2
274
     2
340
10
275
     0
280
     0
281
     0
282
     0
283
     1
284
     0
285
     0
286
     0
287
     3
288
     0
  0
ENDTAB
  0
TABLE
  2
BLOCK_RECORD
  5
1
330
0
100
AcDbSymbolTable
 70
     0
  0
BLOCK_RECORD
  5
18
102
{ACAD_XDICTIONARY
360
39D
102
}
330
1
100
AcDbSymbolTableRecord
100
AcDbBlockTableRecord
  2
*MODEL_SPACE
  0
BLOCK_RECORD
  5
15
102
{ACAD_XDICTIONARY
360
39B
102
}
330
1
100
AcDbSymbolTableRecord
100
AcDbBlockTableRecord
  2
*PAPER_SPACE
  0
ENDTAB
  0
ENDSEC
  0
SECTION
  2
BLOCKS
  0
BLOCK
  5
29
330
18
100
AcDbEntity
  8
0
100
AcDbBlockBegin
  2
*MODEL_SPACE
 70
     0
 10
0.0
 20
0.0
 30
0.0
  3
*MODEL_SPACE
  1

  0
ENDBLK
  5
2A
330
18
100
AcDbEntity
  8
0
100
AcDbBlockEnd
  0
BLOCK
  5
27
330
15
100
AcDbEntity
 67
     1
  8
0
100
AcDbBlockBegin
  2
*PAPER_SPACE
 70
     0
 10
0.0
 20
0.0
 30
0.0
  3
*PAPER_SPACE
  1

  0
ENDBLK
  5
28
330
15
100
AcDbEntity
 67
     1
  8
0
100
AcDbBlockEnd
  0
ENDSEC
  0
SECTION
  2
ENTITIES
  0
LWPOLYLINE
  5
56
330
18
100
AcDbEntity
  8
0
100
AcDbPolyline
 90
       26
 70
     1
 43
0.0
 10
0.8037834024498145
 20
0.7309768186601627
 10
0.6075334024498145
 20
0.7309768186601627
 10
0.6075334024498145
 20
0.6997268186601627
 42
0.4142135623730951
 10
0.6387834024498145
 20
0.6684768186601627
 10
0.8450334024498145
 20
0.6684768186601627
 42
0.4142135623730951
 10
0.8762834024498143
 20
0.6997268186601627
 10
0.8762834024498147
 20
1.528476818660162
 10
1.013783402449814
 20
1.528476818660162
 10
1.151283402449814
 20
1.528476818660162
 10
1.151283402449814
 20
0.6997268186601627
 42
0.4142135623730951
 10
1.182533402449814
 20
0.6684768186601627
 10
1.388783402449814
 20
0.6684768186601627
 42
0.4142135623730951
 10
1.420033402449814
 20
0.6997268186601627
 10
1.420033402449814
 20
0.7309768186601627
 10
1.223783402449814
 20
0.7309768186601627
 10
1.223783402449814
 20
0.8716018186601626
 10
1.270658402449814
 20
0.9184768186601623
 10
1.223783402449814
 20
0.9184768186601623
 10
1.223783402449814
 20
1.600476818660162
 10
1.023783402449814
 20
1.600476818660162
 10
1.013783402449814
 20
1.590476818660162
 10
1.003783402449814
 20
1.600476818660162
 10
0.8037834024498145
 20
1.600476818660162
 10
0.8037834024498145
 20
0.9184768186601623
 10
0.7569084024498145
 20
0.9184768186601623
 10
0.8037834024498145
 20
0.8716018186601626
  0
TEXT
  5
2EC
330
18
100
AcDbEntity
  8
TEXT
100
AcDbText
 10
0.2105452796516793
 20
0.3748712405173022
 30
0.0
 40
0.125
  1
PART #110207
  7
ITALICC
 72
     1
 11
0.9664976606040598
 21
0.3748712405173022
 31
0.0
100
AcDbText
  0
LINE
  5
2ED
330
18
100
AcDbEntity
  8
TEXT
100
AcDbLine
 10
0.9342311595561225
 20
0.1305175544974686
 30
0.0
 11
1.01087914084868
 21
0.1305175544974686
 31
0.0
  0
LINE
  5
2EE
330
18
100
AcDbEntity
  8
TEXT
100
AcDbLine
 10
1.00639925352218
 20
0.194794249154234
 30
0.0
 11
0.9388995358726637
 21
0.194794249154234
 31
0.0
  0
LWPOLYLINE
  5
2EF
330
18
100
AcDbEntity
  8
TEXT
100
AcDbPolyline
 90
        5
 70
     0
 43
0.0001332181640625
 10
-0.7028808829785525
 20
0.0715674473964212
 10
-0.6895590665723037
 20
0.0715674473964212
 10
-0.6895590665723037
 20
0.108202442513611
 10
-0.6529240714551139
 20
0.108202442513611
 10
-0.6529240714551139
 20
0.121524258919858
  0
LWPOLYLINE
  5
2F0
330
18
100
AcDbEntity
  8
TEXT
100
AcDbPolyline
 90
        3
 70
     0
 43
0.0006660908203125
 10
-0.6629154337598045
 20
0.1681506163417366
 10
-0.7495072404004293
 20
0.1681506163417366
 10
-0.7495072404004293
 20
0.08155880970111
  0
LWPOLYLINE
  5
2F1
330
18
100
AcDbEntity
  8
TEXT
100
AcDbPolyline
 90
        3
 70
     0
 43
0.0006660908203125
 10
-0.6629154337598045
 20
0.1947942491542376
 10
-0.7761508732129268
 20
0.1947942491542376
 10
-0.7761508732129268
 20
0.08155880970111
  0
LWPOLYLINE
  5
2F2
330
18
100
AcDbEntity
  8
TEXT
100
AcDbPolyline
 90
        5
 70
     0
 43
0.0001332181640625
 10
-0.6529240714551139
 20
0.0016279112636104
 10
-0.6529240714551139
 20
0.0149497276698609
 10
-0.689559066572302
 20
0.0149497276698609
 10
-0.689559066572302
 20
0.0515847227870472
 10
-0.7028808829785525
 20
0.0515847227870472
  0
LWPOLYLINE
  5
2F3
330
18
100
AcDbEntity
  8
TEXT
100
AcDbPolyline
 90
        3
 70
     0
 43
0.0006660908203125
 10
-0.7495072404004293
 20
0.041593360482362
 10
-0.7495072404004293
 20
-0.0449984461582647
 10
-0.6629154337598045
 20
-0.0449984461582647
  0
LWPOLYLINE
  5
2F4
330
18
100
AcDbEntity
  8
TEXT
100
AcDbPolyline
 90
        3
 70
     0
 43
0.0006660908203125
 10
-0.7761508732129268
 20
0.041593360482362
 10
-0.7761508732129268
 20
-0.0716420789707657
 10
-0.6629154337598045
 20
-0.0716420789707657
  0
LWPOLYLINE
  5
2F5
330
18
100
AcDbEntity
  8
TEXT
100
AcDbPolyline
 90
        2
 70
     0
 43
0.0001332181640625
 10
-0.7495072404004293
 20
0.041593360482362
 10
-0.689559066572302
 20
0.0515847227870472
  0
LWPOLYLINE
  5
2F6
330
18
100
AcDbEntity
  8
TEXT
100
AcDbPolyline
 90
        2
 70
     0
 43
0.0001332181640625
 10
-0.7028808829785525
 20
0.0515847227870472
 10
-0.7761508732129268
 20
0.041593360482362
  0
LWPOLYLINE
  5
2F7
330
18
100
AcDbEntity
  8
TEXT
100
AcDbPolyline
 90
        2
 70
     0
 43
0.0006660908203125
 10
-0.7495072404004293
 20
0.041593360482362
 10
-0.7761508732129268
 20
0.041593360482362
  0
LWPOLYLINE
  5
2F8
330
18
100
AcDbEntity
  8
TEXT
100
AcDbPolyline
 90
        2
 70
     0
 43
0.0001332181640625
 10
-0.7495072404004293
 20
-0.0449984461582647
 10
-0.689559066572302
 20
0.0149497276698609
  0
LWPOLYLINE
  5
2F9
330
18
100
AcDbEntity
  8
TEXT
100
AcDbPolyline
 90
        2
 70
     0
 43
0.0006660908203125
 10
-0.7495072404004293
 20
0.08155880970111
 10
-0.7761508732129268
 20
0.08155880970111
  0
LWPOLYLINE
  5
2FA
330
18
100
AcDbEntity
  8
TEXT
100
AcDbPolyline
 90
        2
 70
     0
 43
0.0001332181640625
 10
-0.7761508732129268
 20
0.08155880970111
 10
-0.7028808829785525
 20
0.0715674473964212
  0
LWPOLYLINE
  5
2FB
330
18
100
AcDbEntity
  8
TEXT
100
AcDbPolyline
 90
        2
 70
     0
 43
0.0001332181640625
 10
-0.7495072404004293
 20
0.08155880970111
 10
-0.6895590665723037
 20
0.0715674473964212
  0
LWPOLYLINE
  5
2FC
330
18
100
AcDbEntity
  8
TEXT
100
AcDbPolyline
 90
        2
 70
     0
 43
0.0001332181640625
 10
-0.7495072404004293
 20
0.1681506163417366
 10
-0.6895590665723037
 20
0.108202442513611
  0
LWPOLYLINE
  5
2FD
330
18
100
AcDbEntity
  8
TEXT
100
AcDbPolyline
 90
        5
 70
     0
 43
0.0001332181640625
 10
-0.5829845353223031
 20
0.0515847227870472
 10
-0.5963063517285519
 20
0.0515847227870472
 10
-0.5963063517285519
 20
0.0149497276698609
 10
-0.6329413468457417
 20
0.0149497276698609
 10
-0.6329413468457417
 20
0.0016279112636104
  0
LWPOLYLINE
  5
2FE
330
18
100
AcDbEntity
  8
TEXT
100
AcDbPolyline
 90
        2
 70
     0
 43
0.0001332181640625
 10
-0.5363581779004281
 20
0.041593360482362
 10
-0.5963063517285519
 20
0.0515847227870472
  0
LWPOLYLINE
  5
2FF
330
18
100
AcDbEntity
  8
TEXT
100
AcDbPolyline
 90
        2
 70
     0
 43
0.0001332181640625
 10
-0.5097145450879271
 20
0.041593360482362
 10
-0.5829845353223031
 20
0.0515847227870472
  0
LWPOLYLINE
  5
300
330
18
100
AcDbEntity
  8
TEXT
100
AcDbPolyline
 90
        3
 70
     0
 43
0.0006660908203125
 10
-0.6229499845410529
 20
-0.0716420789707657
 10
-0.5097145450879271
 20
-0.0716420789707657
 10
-0.5097145450879271
 20
0.041593360482362
  0
LWPOLYLINE
  5
301
330
18
100
AcDbEntity
  8
TEXT
100
AcDbPolyline
 90
        3
 70
     0
 43
0.0006660908203125
 10
-0.6229499845410529
 20
-0.0449984461582647
 10
-0.5363581779004281
 20
-0.0449984461582647
 10
-0.5363581779004281
 20
0.041593360482362
  0
LWPOLYLINE
  5
302
330
18
100
AcDbEntity
  8
TEXT
100
AcDbPolyline
 90
        2
 70
     0
 43
0.0001332181640625
 10
-0.5363581779004281
 20
-0.0449984461582647
 10
-0.5963063517285519
 20
0.0149497276698609
  0
LWPOLYLINE
  5
303
330
18
100
AcDbEntity
  8
TEXT
100
AcDbPolyline
 90
        2
 70
     0
 43
0.0006660908203125
 10
-0.6229499845410529
 20
-0.0449984461582647
 10
-0.6229499845410529
 20
-0.0716420789707657
  0
LWPOLYLINE
  5
304
330
18
100
AcDbEntity
  8
TEXT
100
AcDbPolyline
 90
        2
 70
     0
 43
0.0001332181640625
 10
-0.6329413468457417
 20
0.0016279112636104
 10
-0.6229499845410529
 20
-0.0716420789707657
  0
LWPOLYLINE
  5
305
330
18
100
AcDbEntity
  8
TEXT
100
AcDbPolyline
 90
        2
 70
     0
 43
0.0001332181640625
 10
-0.6229499845410529
 20
-0.0449984461582647
 10
-0.6329413468457417
 20
0.0149497276698609
  0
LWPOLYLINE
  5
306
330
18
100
AcDbEntity
  8
TEXT
100
AcDbPolyline
 90
        2
 70
     0
 43
0.0001332181640625
 10
-0.6629154337598045
 20
-0.0716420789707657
 10
-0.6529240714551139
 20
0.0016279112636104
  0
LWPOLYLINE
  5
307
330
18
100
AcDbEntity
  8
TEXT
100
AcDbPolyline
 90
        2
 70
     0
 43
0.0001332181640625
 10
-0.6629154337598045
 20
-0.0449984461582647
 10
-0.6529240714551139
 20
0.0149497276698609
  0
LWPOLYLINE
  5
308
330
18
100
AcDbEntity
  8
TEXT
100
AcDbPolyline
 90
        2
 70
     0
 43
0.0006660908203125
 10
-0.6629154337598045
 20
-0.0449984461582647
 10
-0.6629154337598045
 20
-0.0716420789707657
  0
LWPOLYLINE
  5
309
330
18
100
AcDbEntity
  8
TEXT
100
AcDbPolyline
 90
        2
 70
     0
 43
0.0006660908203125
 10
-0.5363581779004281
 20
0.041593360482362
 10
-0.5097145450879271
 20
0.041593360482362
  0
LWPOLYLINE
  5
30A
330
18
100
AcDbEntity
  8
TEXT
100
AcDbPolyline
 90
        2
 70
     0
 43
0.0001332181640625
 10
-0.5363581779004281
 20
0.1681506163417366
 10
-0.5963063517285519
 20
0.108202442513611
  0
LWPOLYLINE
  5
30B
330
18
100
AcDbEntity
  8
TEXT
100
AcDbPolyline
 90
        2
 70
     0
 43
0.0001332181640625
 10
-0.5363581779004281
 20
0.08155880970111
 10
-0.5963063517285519
 20
0.0715674473964212
  0
LWPOLYLINE
  5
30C
330
18
100
AcDbEntity
  8
TEXT
100
AcDbPolyline
 90
        2
 70
     0
 43
0.0001332181640625
 10
-0.5829845353223031
 20
0.0715674473964212
 10
-0.5097145450879271
 20
0.08155880970111
  0
LWPOLYLINE
  5
30D
330
18
100
AcDbEntity
  8
TEXT
100
AcDbPolyline
 90
        3
 70
     0
 43
0.0006660908203125
 10
-0.5363581779004281
 20
0.08155880970111
 10
-0.5363581779004281
 20
0.1681506163417366
 10
-0.6229499845410529
 20
0.1681506163417366
  0
LWPOLYLINE
  5
30E
330
18
100
AcDbEntity
  8
TEXT
100
AcDbPolyline
 90
        3
 70
     0
 43
0.0006660908203125
 10
-0.5097145450879271
 20
0.08155880970111
 10
-0.5097145450879271
 20
0.1947942491542376
 10
-0.6229499845410529
 20
0.1947942491542376
  0
LWPOLYLINE
  5
30F
330
18
100
AcDbEntity
  8
TEXT
100
AcDbPolyline
 90
        2
 70
     0
 43
0.0001332181640625
 10
-0.6229499845410529
 20
0.1947942491542376
 10
-0.6329413468457417
 20
0.121524258919858
  0
LWPOLYLINE
  5
310
330
18
100
AcDbEntity
  8
TEXT
100
AcDbPolyline
 90
        2
 70
     0
 43
0.0001332181640625
 10
-0.6229499845410529
 20
0.1681506163417366
 10
-0.6329413468457417
 20
0.108202442513611
  0
LWPOLYLINE
  5
311
330
18
100
AcDbEntity
  8
TEXT
100
AcDbPolyline
 90
        2
 70
     0
 43
0.0006660908203125
 10
-0.6229499845410529
 20
0.1681506163417366
 10
-0.6229499845410529
 20
0.1947942491542376
  0
LWPOLYLINE
  5
312
330
18
100
AcDbEntity
  8
TEXT
100
AcDbPolyline
 90
        5
 70
     0
 43
0.0001332181640625
 10
-0.6329413468457417
 20
0.121524258919858
 10
-0.6329413468457417
 20
0.108202442513611
 10
-0.5963063517285519
 20
0.108202442513611
 10
-0.5963063517285519
 20
0.0715674473964212
 10
-0.5829845353223031
 20
0.0715674473964212
  0
LWPOLYLINE
  5
313
330
18
100
AcDbEntity
  8
TEXT
100
AcDbPolyline
 90
        2
 70
     0
 43
0.0001332181640625
 10
-0.6629154337598045
 20
0.1681506163417366
 10
-0.6529240714551139
 20
0.108202442513611
  0
LWPOLYLINE
  5
314
330
18
100
AcDbEntity
  8
TEXT
100
AcDbPolyline
 90
        2
 70
     0
 43
0.0001332181640625
 10
-0.6529240714551139
 20
0.121524258919858
 10
-0.6629154337598045
 20
0.1947942491542376
  0
LWPOLYLINE
  5
315
330
18
100
AcDbEntity
  8
TEXT
100
AcDbPolyline
 90
        2
 70
     0
 43
0.0006660908203125
 10
-0.6629154337598045
 20
0.1681506163417366
 10
-0.6629154337598045
 20
0.1947942491542376
  0
LWPOLYLINE
  5
316
330
18
100
AcDbEntity
  8
TEXT
100
AcDbPolyline
 90
        2
 70
     0
 43
0.0006660908203125
 10
-0.5363581779004281
 20
0.08155880970111
 10
-0.5097145450879271
 20
0.08155880970111
  0
LWPOLYLINE
  5
317
330
18
100
AcDbEntity
  8
TEXT
100
AcDbPolyline
 90
        2
 70
     0
 43
0.0
 10
0.2090653756607033
 20
-0.0201274416193487
 42
0.3318488747599744
 10
0.2781846682260163
 20
-0.071678783834277
 42
-6.868794160588311
  0
LINE
  5
318
330
18
100
AcDbEntity
  8
TEXT
100
AcDbLine
 10
0.2770450947298206
 20
0.2628057268930446
 30
0.0
 11
0.2102363821634556
 21
0.2628057268930446
 31
0.0
  0
LINE
  5
319
330
18
100
AcDbEntity
  8
TEXT
100
AcDbLine
 10
-0.0691059854556384
 20
0.194794249154234
 30
0.0
 11
-0.2448377383541498
 21
0.194794249154234
 31
0.0
  0
ARC
  5
31A
330
18
100
AcDbEntity
  8
TEXT
100
AcDbCircle
 10
-0.1740002719956002
 20
0.0115170245262801
 30
0.0
 40
0.0831958083605586
100
AcDbArc
 50
270.0
 51
90.0
  0
LINE
  5
31B
330
18
100
AcDbEntity
  8
TEXT
100
AcDbLine
 10
-0.2396004082399017
 20
0.1305175544974686
 30
0.0
 11
-0.0726947542109313
 21
0.1305175544974686
 31
0.0
  0
LINE
  5
31C
330
18
100
AcDbEntity
  8
TEXT
100
AcDbLine
 10
-0.169059898089321
 20
-0.0033217775008376
 30
0.0
 11
-0.3269251978006551
 21
-0.0033217775008376
 31
0.0
  0
LINE
  5
31D
330
18
100
AcDbEntity
  8
TEXT
100
AcDbLine
 10
-0.3269251978006533
 20
-0.071678783834277
 30
0.0
 11
-0.1740002719956006
 21
-0.071678783834277
 31
0.0
  0
ARC
  5
31E
330
18
100
AcDbEntity
  8
TEXT
100
AcDbCircle
 10
-0.2448377383541493
 20
0.1127067897077323
 30
0.0
 40
0.0820874594465043
100
AcDbArc
 50
90.0
 51
270.0
  0
LINE
  5
31F
330
18
100
AcDbEntity
  8
TEXT
100
AcDbLine
 10
-0.3269251978006551
 20
-0.0033217775008376
 30
0.0
 11
-0.3269251978006533
 21
-0.071678783834277
 31
0.0
  0
LINE
  5
320
330
18
100
AcDbEntity
  8
TEXT
100
AcDbLine
 10
-0.2448377383541498
 20
0.030619330261227
 30
0.0
 11
-0.169059898089321
 21
0.030619330261227
 31
0.0
  0
ARC
  5
321
330
18
100
AcDbEntity
  8
TEXT
100
AcDbCircle
 10
-0.1690598980893205
 20
0.0136487763801965
 30
0.0
 40
0.0169705538810321
100
AcDbArc
 50
270.0
 51
90.0
  0
LINE
  5
322
330
18
100
AcDbEntity
  8
TEXT
100
AcDbLine
 10
-0.1740002719956006
 20
0.0947128328868408
 30
0.0
 11
-0.2396004082399017
 21
0.0947128328868408
 31
0.0
  0
ARC
  5
323
330
18
100
AcDbEntity
  8
TEXT
100
AcDbCircle
 10
-0.2396004082399012
 20
0.1126151936921564
 30
0.0
 40
0.017902360805315
100
AcDbArc
 50
90.0
 51
270.0
  0
LINE
  5
324
330
18
100
AcDbEntity
  8
TEXT
100
AcDbLine
 10
0.1213659065642139
 20
0.0939222530411135
 30
0.0
 11
0.062735585532276
 21
0.194794249154234
 31
0.0
  0
LINE
  5
325
330
18
100
AcDbEntity
  8
TEXT
100
AcDbLine
 10
-0.0188081467308257
 20
-0.071678783834277
 30
0.0
 11
0.0778321043441688
 21
-0.0714081447359947
 31
0.0
  0
LWPOLYLINE
  5
326
330
18
100
AcDbEntity
  8
TEXT
100
AcDbPolyline
 90
        6
 70
     1
 43
0.0
 10
0.0237156568443244
 20
0.1305175544974686
 10
-0.0066009373758837
 20
0.1305175544974686
 10
-0.0066009373758837
 20
0.0074065564425743
 42
0.407328721240804
 10
0.0049427137855926
 20
-0.0044123582338118
 10
0.0655644128303234
 20
-0.0044123582338118
 10
0.0830297532376414
 20
0.0283998708096673
  0
LINE
  5
327
330
18
100
AcDbEntity
  8
TEXT
100
AcDbLine
 10
-0.0726947542109313
 20
0.1305175544974686
 30
0.0
 11
-0.0726947542109313
 21
-0.0118863924962272
 31
0.0
  0
ARC
  5
328
330
18
100
AcDbEntity
  8
TEXT
100
AcDbCircle
 10
-0.0125787362371788
 20
-0.0118863924962272
 30
0.0
 40
0.0601160179737537
100
AcDbArc
 50
180.0000000000003
 51
264.0521544866073
  0
LINE
  5
329
330
18
100
AcDbEntity
  8
TEXT
100
AcDbLine
 10
-0.0090633806116314
 20
0.2291821667483722
 30
0.0
 11
-0.0691059854556384
 21
0.2291821667483722
 31
0.0
  0
LINE
  5
32A
330
18
100
AcDbEntity
  8
TEXT
100
AcDbLine
 10
-0.0691059854556384
 20
0.2291821667483722
 30
0.0
 11
-0.0691059854556384
 21
0.194794249154234
 31
0.0
  0
LINE
  5
32B
330
18
100
AcDbEntity
  8
TEXT
100
AcDbLine
 10
-0.0090633806116314
 20
0.194794249154234
 30
0.0
 11
-0.0090633806116314
 21
0.2291821667483722
 31
0.0
  0
LINE
  5
32C
330
18
100
AcDbEntity
  8
TEXT
100
AcDbLine
 10
0.062735585532276
 20
0.194794249154234
 30
0.0
 11
-0.0090633806116314
 21
0.194794249154234
 31
0.0
  0
LINE
  5
32D
330
18
100
AcDbEntity
  8
TEXT
100
AcDbLine
 10
0.1117656695672595
 20
-0.051720277729264
 30
0.0
 11
0.2090653756607042
 21
0.1126299332060041
 31
0.0
  0
LINE
  5
32E
330
18
100
AcDbEntity
  8
TEXT
100
AcDbLine
 10
0.2090653756607042
 20
0.1126299332060041
 30
0.0
 11
0.2090653756607042
 21
-0.0201274416193522
 31
0.0
  0
ARC
  5
32F
330
18
100
AcDbEntity
  8
TEXT
100
AcDbCircle
 10
0.077722109655046
 20
-0.0321310615605812
 30
0.0
 40
0.0392772371940762
100
AcDbArc
 50
270.1604552698595
 51
330.0831797321295
  0
LINE
  5
330
330
18
100
AcDbEntity
  8
TEXT
100
AcDbLine
 10
0.1801144693700793
 20
0.194794249154234
 30
0.0
 11
0.1213659065642139
 21
0.0939222530411135
 31
0.0
  0
LINE
  5
331
330
18
100
AcDbEntity
  8
TEXT
100
AcDbLine
 10
0.2102363821634556
 20
0.2628057268930446
 30
0.0
 11
0.2102363821634556
 21
0.194794249154234
 31
0.0
  0
LINE
  5
332
330
18
100
AcDbEntity
  8
TEXT
100
AcDbLine
 10
0.2102363821634556
 20
0.194794249154234
 30
0.0
 11
0.1801144693700793
 21
0.194794249154234
 31
0.0
  0
LWPOLYLINE
  5
333
330
18
100
AcDbEntity
  8
TEXT
100
AcDbPolyline
 90
        4
 70
     0
 43
0.0
 10
0.562322503783614
 20
0.1229637653313587
 10
0.562322503783614
 20
-0.071678783834277
 10
0.6308007870714718
 20
-0.071678783834277
 10
0.6308007870714718
 20
-0.0281878388838388
 42
-1.714843617202739
  0
LWPOLYLINE
  5
334
330
18
100
AcDbEntity
  8
TEXT
100
AcDbPolyline
 90
        2
 70
     0
 43
0.0
 10
0.5974568543278238
 20
0.1947942491542376
 42
-0.3277054968067132
 10
0.6332385450409888
 20
0.1664717033845937
 42
6.667889725900311
  0
LWPOLYLINE
  5
335
330
18
100
AcDbEntity
  8
TEXT
100
AcDbPolyline
 90
        2
 70
     0
 43
0.0
 10
0.4260232817485968
 20
0.1305175544974686
 42
-0.4142135623731017
 10
0.4335770709147102
 20
0.1229637653313587
 42
-0.9999999999999998
  0
LINE
  5
336
330
18
100
AcDbEntity
  8
TEXT
100
AcDbLine
 10
0.4433750047986172
 20
0.194794249154234
 30
0.0
 11
0.3093569488674808
 21
0.194794249154234
 31
0.0
  0
LINE
  5
337
330
18
100
AcDbEntity
  8
TEXT
100
AcDbLine
 10
0.37618800192545
 20
-0.071678783834277
 30
0.0
 11
0.37618800192545
 21
0.1305175544974686
 31
0.0
  0
LINE
  5
338
330
18
100
AcDbEntity
  8
TEXT
100
AcDbLine
 10
0.3093569488674808
 20
0.194794249154234
 30
0.0
 11
0.3093569488674808
 21
-0.0060699575781742
 31
0.0
  0
LINE
  5
339
330
18
100
AcDbEntity
  8
TEXT
100
AcDbLine
 10
0.2770450947298206
 20
0.0107090542687223
 30
0.0
 11
0.2770450947298206
 21
0.2628057268930446
 31
0.0
  0
LINE
  5
33A
330
18
100
AcDbEntity
  8
TEXT
100
AcDbLine
 10
0.2781846682260154
 20
-0.071678783834277
 30
0.0
 11
0.37618800192545
 21
-0.071678783834277
 31
0.0
  0
LINE
  5
33B
330
18
100
AcDbEntity
  8
TEXT
100
AcDbLine
 10
0.3093569488674808
 20
-0.0060699575781742
 30
0.0
 11
0.2923633119828794
 21
-0.0060699575781742
 31
0.0
  0
ARC
  5
33C
330
18
100
AcDbEntity
  8
TEXT
100
AcDbCircle
 10
0.2923633119828786
 20
0.0093118486652513
 30
0.0
 40
0.0153818062434269
100
AcDbArc
 50
174.7883570302258
 51
270.0
  0
LINE
  5
33D
330
18
100
AcDbEntity
  8
TEXT
100
AcDbLine
 10
0.37618800192545
 20
0.1305175544974686
 30
0.0
 11
0.4260232817485976
 21
0.1305175544974686
 31
0.0
  0
LINE
  5
33E
330
18
100
AcDbEntity
  8
TEXT
100
AcDbLine
 10
0.4335770709147111
 20
0.1229637653313587
 30
0.0
 11
0.4335770709147111
 21
-0.071678783834277
 31
0.0
  0
LINE
  5
33F
330
18
100
AcDbEntity
  8
TEXT
100
AcDbLine
 10
0.5006351176965512
 20
-0.071678783834277
 30
0.0
 11
0.5006351176965512
 21
0.1305175544974686
 31
0.0
  0
LINE
  5
340
330
18
100
AcDbEntity
  8
TEXT
100
AcDbLine
 10
0.4335770709147111
 20
-0.071678783834277
 30
0.0
 11
0.5006351176965512
 21
-0.071678783834277
 31
0.0
  0
LWPOLYLINE
  5
341
330
18
100
AcDbEntity
  8
TEXT
100
AcDbPolyline
 90
        3
 70
     0
 43
0.0
 10
0.5974568543278238
 20
0.1947942491542376
 10
0.4791566955117795
 20
0.1947942491542376
 10
0.4791566955117795
 20
0.1676267523933417
 42
-1.960274751411753
  0
LINE
  5
342
330
18
100
AcDbEntity
  8
TEXT
100
AcDbLine
 10
0.5006351176965512
 20
0.1305175544974686
 30
0.0
 11
0.5547687146175014
 21
0.1305175544974686
 31
0.0
  0
LWPOLYLINE
  5
343
330
18
100
AcDbEntity
  8
TEXT
100
AcDbPolyline
 90
        2
 70
     0
 43
0.0
 10
0.4433750047986181
 20
0.1947942491542376
 42
-0.3328679258950098
 10
0.4791566955117795
 20
0.1676267523933417
 42
6.772930709997214
  0
LWPOLYLINE
  5
344
330
18
100
AcDbEntity
  8
TEXT
100
AcDbPolyline
 90
        2
 70
     0
 43
0.0
 10
0.5547687146175005
 20
0.1305175544974686
 42
-0.4142135623731017
 10
0.562322503783614
 20
0.1229637653313587
 42
-0.9999999999999998
  0
ARC
  5
345
330
18
100
AcDbEntity
  8
TEXT
100
AcDbCircle
 10
0.7660435144809803
 20
0.1532106820333317
 30
0.0
 40
0.0416329381542859
100
AcDbArc
 50
26.56974201007528
 51
87.20939649401342
  0
LWPOLYLINE
  5
346
330
18
100
AcDbEntity
  8
TEXT
100
AcDbPolyline
 90
        2
 70
     0
 43
0.0
 10
0.6738767199391074
 20
-0.071678783834277
 10
0.807894137570484
 20
-0.071678783834277
 42
0.9999999999999998
  0
LWPOLYLINE
  5
347
330
18
100
AcDbEntity
  8
TEXT
100
AcDbPolyline
 90
        4
 70
     1
 43
0.0
 10
0.7877716725005915
 20
0.0312851941497483
 10
0.699111353840733
 20
0.0312851941497483
 42
0.9999999999999998
 10
0.699111353840733
 20
-0.0111133463541124
 10
0.7877716725005915
 20
-0.0111133463541124
 42
1.0
  0
LWPOLYLINE
  5
348
330
18
100
AcDbEntity
  8
TEXT
100
AcDbPolyline
 90
        2
 70
     0
 43
0.0
 10
0.6308007870714718
 20
-0.0281878388838388
 42
0.2901071551932823
 10
0.6738767199391074
 20
-0.071678783834277
 42
5.328517124445801
  0
LINE
  5
349
330
18
100
AcDbEntity
  8
TEXT
100
AcDbLine
 10
0.7680704542580488
 20
0.194794249154234
 30
0.0
 11
0.6332385450409897
 21
0.194794249154234
 31
0.0
  0
LINE
  5
34A
330
18
100
AcDbEntity
  8
TEXT
100
AcDbLine
 10
0.6925526414343084
 20
0.0932425810353364
 30
0.0
 11
0.7748406312176917
 21
0.0932425810353364
 31
0.0
  0
LINE
  5
34B
330
18
100
AcDbEntity
  8
TEXT
100
AcDbLine
 10
0.7390395559135703
 20
0.1305175544974686
 30
0.0
 11
0.6318332825262809
 21
0.1305175544974686
 31
0.0
  0
LINE
  5
34C
330
18
100
AcDbEntity
  8
TEXT
100
AcDbLine
 10
0.6332385450409897
 20
0.194794249154234
 30
0.0
 11
0.6332385450409897
 21
0.1664717033845902
 31
0.0
  0
ARC
  5
34D
330
18
100
AcDbEntity
  8
TEXT
100
AcDbCircle
 10
0.6925526414343075
 20
0.0255569998912177
 30
0.0
 40
0.0676855811441166
100
AcDbArc
 50
90.0
 51
153.7768192527749
  0
LINE
  5
34E
330
18
100
AcDbEntity
  8
TEXT
100
AcDbLine
 10
0.6318332825262809
 20
0.1305175544974686
 30
0.0
 11
0.6318332825262809
 21
0.055465148423262
 31
0.0
  0
LINE
  5
34F
330
18
100
AcDbEntity
  8
TEXT
100
AcDbLine
 10
0.7748406312176917
 20
0.0932425810353364
 30
0.0
 11
0.7645758708041273
 21
0.1144931206080306
 31
0.0
  0
ARC
  5
350
330
18
100
AcDbEntity
  8
TEXT
100
AcDbCircle
 10
0.7390395559135694
 20
0.1021581794974713
 30
0.0
 40
0.028359375
100
AcDbArc
 50
25.78218179591245
 51
90.0
  0
LINE
  5
351
330
18
100
AcDbEntity
  8
TEXT
100
AcDbLine
 10
0.9093252842734633
 20
-0.071678783834277
 30
0.0
 11
0.909325284273458
 21
0.1056117215971914
 31
0.0
  0
LWPOLYLINE
  5
352
330
18
100
AcDbEntity
  8
TEXT
100
AcDbPolyline
 90
        2
 70
     0
 43
0.0
 10
0.8509700704381284
 20
-0.071678783834277
 10
0.9093252842734624
 20
-0.071678783834277
  0
LWPOLYLINE
  5
353
330
18
100
AcDbEntity
  8
TEXT
100
AcDbPolyline
 90
        2
 70
     0
 43
0.0
 10
0.8509700704381284
 20
-0.0281878388838388
 42
-0.2901071551932486
 10
0.807894137570484
 20
-0.071678783834277
 42
-5.328517124445184
  0
LWPOLYLINE
  5
354
330
18
100
AcDbEntity
  8
TEXT
100
AcDbPolyline
 90
        2
 70
     0
 43
0.0
 10
0.8509700704381284
 20
-0.0281878388838388
 10
0.8509700704381284
 20
-0.071678783834277
  0
LINE
  5
355
330
18
100
AcDbEntity
  8
TEXT
100
AcDbLine
 10
0.9109272994325907
 20
0.194794249154234
 30
0.0
 11
0.8470303931330898
 21
0.194794249154234
 31
0.0
  0
LINE
  5
356
330
18
100
AcDbEntity
  8
TEXT
100
AcDbLine
 10
0.8470303931330898
 20
0.194794249154234
 30
0.0
 11
0.8470303931330898
 21
0.0895822706008067
 31
0.0
  0
LINE
  5
357
330
18
100
AcDbEntity
  8
TEXT
100
AcDbLine
 10
0.8470303931330898
 20
0.0895822706008067
 30
0.0
 11
0.8032796219511881
 21
0.1718325465969519
 31
0.0
  0
ARC
  5
358
330
18
100
AcDbEntity
  8
TEXT
100
AcDbCircle
 10
0.9342311595561216
 20
0.1056116792148058
 30
0.0
 40
0.0249058752826653
100
AcDbArc
 50
89.99971217465335
 51
179.9999999999985
  0
ARC
  5
359
330
18
100
AcDbEntity
  8
TEXT
100
AcDbCircle
 10
0.9421201164956993
 20
0.1635485218719692
 30
0.0
 40
0.0314112657011332
100
AcDbArc
 50
95.88484768694724
 51
173.2388340632136
  0
LINE
  5
35A
330
18
100
AcDbEntity
  8
TEXT
100
AcDbLine
 10
0.9109272994325907
 20
0.1672465992933594
 30
0.0
 11
0.9109272994325907
 21
0.194794249154234
 31
0.0
  0
TEXT
  5
35B
330
18
100
AcDbEntity
  8
TEXT
100
AcDbText
 10
1.379802818854381
 20
0.0212070248112193
 30
0.0
 40
0.0522247191011236
  1
Minneapolis, MN 55432-0008
 41
1.11444212721585
 72
     5
 11
2.708735403124045
 21
0.0212070248112193
 31
0.0
100
AcDbText
  0
TEXT
  5
35C
330
18
100
AcDbEntity
  8
TEXT
100
AcDbText
 10
1.379802818854381
 20
0.1144654517775114
 30
0.0
 40
0.0522247191011236
  1
6536 Main St. N.E. * P.O. Box 32008
 41
0.8388932496075355
 72
     5
 11
2.708735403124045
 21
0.1144654517775114
 31
0.0
100
AcDbText
  0
TEXT
  5
35D
330
18
100
AcDbEntity
  8
TEXT
100
AcDbText
 10
1.379802818854381
 20
0.2077238787438036
 30
0.0
 40
0.0522247191011236
  1
Stylmark  Incorporated
 41
1.221428571428571
 72
     5
 11
2.708735403124045
 21
0.2077238787438036
 31
0.0
100
AcDbText
  0
TEXT
  5
35E
330
18
100
AcDbEntity
  8
TEXT
100
AcDbText
 10
1.379802818854381
 20
-0.0720514021550729
 30
0.0
 40
0.0522247191011236
  1
Phone  1-800-328-2495
 41
1.272321428571429
 72
     5
 11
2.708735403124045
 21
-0.0720514021550729
 31
0.0
100
AcDbText
  0
LINE
  5
35F
330
18
100
AcDbEntity
  8
TEXT
100
AcDbLine
 10
1.132247007391366
 20
0.0849010062132605
 30
0.0
 11
1.196804123357071
 21
0.194794249154234
 31
0.0
  0
LINE
  5
360
330
18
100
AcDbEntity
  8
TEXT
100
AcDbLine
 10
1.196804123357071
 20
0.194794249154234
 30
0.0
 11
1.121812290627445
 21
0.194794249154234
 31
0.0
  0
LINE
  5
361
330
18
100
AcDbEntity
  8
TEXT
100
AcDbLine
 10
1.15116085837877
 20
-0.071678783834277
 30
0.0
 11
1.227739230754976
 21
-0.071678783834277
 31
0.0
  0
LINE
  5
362
330
18
100
AcDbEntity
  8
TEXT
100
AcDbLine
 10
1.227739230754976
 20
-0.071678783834277
 30
0.0
 11
1.132247007391366
 21
0.0849010062132605
 31
0.0
  0
LINE
  5
363
330
18
100
AcDbEntity
  8
TEXT
100
AcDbLine
 10
1.075257325167306
 20
-0.071678783834277
 30
0.0
 11
1.075257325167306
 21
0.0599007846419033
 31
0.0
  0
LINE
  5
364
330
18
100
AcDbEntity
  8
TEXT
100
AcDbLine
 10
1.075257325167306
 20
0.0599007846419033
 30
0.0
 11
1.15116085837877
 21
-0.071678783834277
 31
0.0
  0
LINE
  5
365
330
18
100
AcDbEntity
  8
TEXT
100
AcDbLine
 10
1.01087914084868
 20
0.1305175544974686
 30
0.0
 11
1.010879140848685
 21
-0.071678783834277
 31
0.0
  0
LINE
  5
366
330
18
100
AcDbEntity
  8
TEXT
100
AcDbLine
 10
1.010879140848685
 20
-0.071678783834277
 30
0.0
 11
1.075257325167306
 21
-0.071678783834277
 31
0.0
  0
LINE
  5
367
330
18
100
AcDbEntity
  8
TEXT
100
AcDbLine
 10
1.074714132071458
 20
0.2602584549218347
 30
0.0
 11
1.006399253522185
 21
0.2602584549218347
 31
0.0
  0
LINE
  5
368
330
18
100
AcDbEntity
  8
TEXT
100
AcDbLine
 10
1.006399253522185
 20
0.2602584549218347
 30
0.0
 11
1.00639925352218
 21
0.194794249154234
 31
0.0
  0
LINE
  5
369
330
18
100
AcDbEntity
  8
TEXT
100
AcDbLine
 10
1.121812290627443
 20
0.194794249154234
 30
0.0
 11
1.074714132071458
 21
0.1189289227426959
 31
0.0
  0
LINE
  5
36A
330
18
100
AcDbEntity
  8
TEXT
100
AcDbLine
 10
1.074714132071458
 20
0.1189289227426959
 30
0.0
 11
1.074714132071458
 21
0.2602584549218347
 31
0.0
  0
ENDSEC
  0
SECTION
  2
OBJECTS
  0
DICTIONARY
  5
C
330
0
100
AcDbDictionary
  3
ACAD_GROUP
350
D
  3
ACAD_LAYOUT
350
36F
  3
ACAD_MLINESTYLE
350
E
  3
ACAD_PLOTSETTINGS
350
370
  3
ACAD_PLOTSTYLENAME
350
36D
  3
ACDBHEADERROUNDTRIPXREC
350
37B
  3
ACDBVARIABLEDICTIONARY
350
378
  0
DICTIONARY
  5
39D
330
18
100
AcDbDictionary
280
     1
  3
ACAD_LAYOUTSELFREF
360
39E
  0
DICTIONARY
  5
39B
330
15
100
AcDbDictionary
280
     1
  3
ACAD_LAYOUTSELFREF
360
39C
  0
DICTIONARY
  5
D
102
{ACAD_REACTORS
330
C
102
}
330
C
100
AcDbDictionary
  0
DICTIONARY
  5
36F
102
{ACAD_REACTORS
330
C
102
}
330
C
100
AcDbDictionary
  0
DICTIONARY
  5
E
102
{ACAD_REACTORS
330
C
102
}
330
C
100
AcDbDictionary
  3
STANDARD
350
1B
  0
DICTIONARY
  5
370
102
{ACAD_REACTORS
330
C
102
}
330
C
100
AcDbDictionary
  0
ACDBDICTIONARYWDFLT
  5
36D
102
{ACAD_REACTORS
330
C
102
}
330
C
100
AcDbDictionary
281
     1
  3
Normal
350
36E
100
AcDbDictionaryWithDefault
340
36E
  0
DICTIONARY
  5
37B
102
{ACAD_REACTORS
330
C
102
}
330
C
100
AcDbDictionary
  3
CEPSNTYPE
350
385
  3
FINGERPRINTGUID
350
386
  3
HYPERLINKBASE
350
37E
  3
INSUNITS
350
384
  3
LAYOUTDICT
350
380
  3
LWETCUNION
350
383
  3
PLOTSETDICT
350
381
  3
PLOTSTYLNAMDICT
350
382
  3
PSVPSCALE
350
388
  3
PUCSBASE
350
38B
  3
PUCSORGBACK
350
391
  3
PUCSORGBOTTOM
350
38D
  3
PUCSORGFRONT
350
390
  3
PUCSORGLEFT
350
38E
  3
PUCSORGRIGHT
350
38F
  3
PUCSORGTOP
350
38C
  3
PUCSORTHOREF
350
389
  3
PUCSORTHOVIEW
350
38A
  3
STYLESHEET
350
37F
  3
TSTACKALIGN
350
37C
  3
TSTACKSIZE
350
37D
  3
UCSBASE
350
394
  3
UCSORGBACK
350
39A
  3
UCSORGBOTTOM
350
396
  3
UCSORGFRONT
350
399
  3
UCSORGLEFT
350
397
  3
UCSORGRIGHT
350
398
  3
UCSORGTOP
350
395
  3
UCSORTHOREF
350
392
  3
UCSORTHOVIEW
350
393
  3
VERSIONGUID
350
387
  0
DICTIONARY
  5
378
102
{ACAD_REACTORS
330
C
102
}
330
C
100
AcDbDictionary
  3
DIMASSOC
350
379
  0
XRECORD
  5
39E
102
{ACAD_REACTORS
330
39D
102
}
330
39D
100
AcDbXrecord
340
18
  0
XRECORD
  5
39C
102
{ACAD_REACTORS
330
39B
102
}
330
39B
100
AcDbXrecord
340
15
  0
MLINESTYLE
  5
1B
102
{ACAD_REACTORS
330
E
102
}
330
E
100
AcDbMlineStyle
  2
STANDARD
 70
     0
  3

 62
     0
 51
90.0
 52
90.0
 71
     2
 49
0.5
 62
   256
  6
BYLAYER
 49
-0.5
 62
   256
  6
BYLAYER
  0
ACDBPLACEHOLDER
  5
36E
102
{ACAD_REACTORS
330
36D
102
}
330
36D
100
AcDbPlaceHolder
280
     0
  0
XRECORD
  5
385
102
{ACAD_REACTORS
330
37B
102
}
330
37B
100
AcDbXrecord
 90
        0
  0
XRECORD
  5
386
102
{ACAD_REACTORS
330
37B
102
}
330
37B
100
AcDbXrecord
  1
{096A90C0-8DB5-11D6-88E6-0090279574E7}
  0
XRECORD
  5
37E
102
{ACAD_REACTORS
330
37B
102
}
330
37B
100
AcDbXrecord
  1

  0
XRECORD
  5
384
102
{ACAD_REACTORS
330
37B
102
}
330
37B
100
AcDbXrecord
 90
        0
  0
XRECORD
  5
380
102
{ACAD_REACTORS
330
37B
102
}
330
37B
100
AcDbXrecord
340
36F
  0
XRECORD
  5
383
102
{ACAD_REACTORS
330
37B
102
}
330
37B
100
AcDbXrecord
 90
    14877
  0
XRECORD
  5
381
102
{ACAD_REACTORS
330
37B
102
}
330
37B
100
AcDbXrecord
340
370
  0
XRECORD
  5
382
102
{ACAD_REACTORS
330
37B
102
}
330
37B
100
AcDbXrecord
340
36D
  0
XRECORD
  5
388
102
{ACAD_REACTORS
330
37B
102
}
330
37B
100
AcDbXrecord
 40
0.0
  0
XRECORD
  5
38B
102
{ACAD_REACTORS
330
37B
102
}
330
37B
100
AcDbXrecord
340
0
  0
XRECORD
  5
391
102
{ACAD_REACTORS
330
37B
102
}
330
37B
100
AcDbXrecord
 10
0.0
 20
0.0
 30
0.0
  0
XRECORD
  5
38D
102
{ACAD_REACTORS
330
37B
102
}
330
37B
100
AcDbXrecord
 10
0.0
 20
0.0
 30
0.0
  0
XRECORD
  5
390
102
{ACAD_REACTORS
330
37B
102
}
330
37B
100
AcDbXrecord
 10
0.0
 20
0.0
 30
0.0
  0
XRECORD
  5
38E
102
{ACAD_REACTORS
330
37B
102
}
330
37B
100
AcDbXrecord
 10
0.0
 20
0.0
 30
0.0
  0
XRECORD
  5
38F
102
{ACAD_REACTORS
330
37B
102
}
330
37B
100
AcDbXrecord
 10
0.0
 20
0.0
 30
0.0
  0
XRECORD
  5
38C
102
{ACAD_REACTORS
330
37B
102
}
330
37B
100
AcDbXrecord
 10
0.0
 20
0.0
 30
0.0
  0
XRECORD
  5
389
102
{ACAD_REACTORS
330
37B
102
}
330
37B
100
AcDbXrecord
340
0
  0
XRECORD
  5
38A
102
{ACAD_REACTORS
330
37B
102
}
330
37B
100
AcDbXrecord
 70
     0
  0
XRECORD
  5
37F
102
{ACAD_REACTORS
330
37B
102
}
330
37B
100
AcDbXrecord
  1

  0
XRECORD
  5
37C
102
{ACAD_REACTORS
330
37B
102
}
330
37B
100
AcDbXrecord
 90
        1
  0
XRECORD
  5
37D
102
{ACAD_REACTORS
330
37B
102
}
330
37B
100
AcDbXrecord
 90
       70
  0
XRECORD
  5
394
102
{ACAD_REACTORS
330
37B
102
}
330
37B
100
AcDbXrecord
340
0
  0
XRECORD
  5
39A
102
{ACAD_REACTORS
330
37B
102
}
330
37B
100
AcDbXrecord
 10
0.0
 20
0.0
 30
0.0
  0
XRECORD
  5
396
102
{ACAD_REACTORS
330
37B
102
}
330
37B
100
AcDbXrecord
 10
0.0
 20
0.0
 30
0.0
  0
XRECORD
  5
399
102
{ACAD_REACTORS
330
37B
102
}
330
37B
100
AcDbXrecord
 10
0.0
 20
0.0
 30
0.0
  0
XRECORD
  5
397
102
{ACAD_REACTORS
330
37B
102
}
330
37B
100
AcDbXrecord
 10
0.0
 20
0.0
 30
0.0
  0
XRECORD
  5
398
102
{ACAD_REACTORS
330
37B
102
}
330
37B
100
AcDbXrecord
 10
0.0
 20
0.0
 30
0.0
  0
XRECORD
  5
395
102
{ACAD_REACTORS
330
37B
102
}
330
37B
100
AcDbXrecord
 10
0.0
 20
0.0
 30
0.0
  0
XRECORD
  5
392
102
{ACAD_REACTORS
330
37B
102
}
330
37B
100
AcDbXrecord
340
0
  0
XRECORD
  5
393
102
{ACAD_REACTORS
330
37B
102
}
330
37B
100
AcDbXrecord
 70
     0
  0
XRECORD
  5
387
102
{ACAD_REACTORS
330
37B
102
}
330
37B
100
AcDbXrecord
  1
{096A90C2-8DB5-11D6-88E6-0090279574E7}
  0
DICTIONARYVAR
  5
379
102
{ACAD_REACTORS
330
378
102
}
330
378
100
DictionaryVariables
280
     0
  1
1
  0
ENDSEC
  0
EOF
