  0
SECTION
  2
HEADER
  9
$ACADVER
  1
AC1014
  9
$ACADMAINTVER
 70
     9
  9
$DWGCODEPAGE
  3
ANSI_1252
  9
$INSBASE
 10
0.0
 20
0.0
 30
0.0
  9
$EXTMIN
 10
-0.8196328450388527
 20
-0.2126267339654084
 30
0.0
  9
$EXTMAX
 10
2.665586476708275
 20
1.3225
 30
0.0
  9
$LIMMIN
 10
0.0
 20
0.0
  9
$LIMMAX
 10
8.5
 20
11.0
  9
$ORTHOMODE
 70
     1
  9
$REGENMODE
 70
     1
  9
$FILLMODE
 70
     1
  9
$QTEXTMODE
 70
     0
  9
$MIRRTEXT
 70
     0
  9
$DRAGMODE
 70
     2
  9
$LTSCALE
 40
1.0
  9
$OSMODE
 70
    39
  9
$ATTMODE
 70
     1
  9
$TEXTSIZE
 40
0.125
  9
$TRACEWID
 40
0.05
  9
$TEXTSTYLE
  7
ROMANS
  9
$CLAYER
  8
DIM
  9
$CELTYPE
  6
BYLAYER
  9
$CECOLOR
 62
   256
  9
$CELTSCALE
 40
1.0
  9
$DELOBJ
 70
     1
  9
$DISPSILH
 70
     1
  9
$DIMSCALE
 40
1.0
  9
$DIMASZ
 40
0.125
  9
$DIMEXO
 40
0.125
  9
$DIMDLI
 40
0.375
  9
$DIMRND
 40
0.0
  9
$DIMDLE
 40
0.0
  9
$DIMEXE
 40
0.125
  9
$DIMTP
 40
0.0
  9
$DIMTM
 40
0.0
  9
$DIMTXT
 40
0.125
  9
$DIMCEN
 40
-0.125
  9
$DIMTSZ
 40
0.0
  9
$DIMTOL
 70
     0
  9
$DIMLIM
 70
     0
  9
$DIMTIH
 70
     1
  9
$DIMTOH
 70
     1
  9
$DIMSE1
 70
     0
  9
$DIMSE2
 70
     0
  9
$DIMTAD
 70
     0
  9
$DIMZIN
 70
     4
  9
$DIMBLK
  1

  9
$DIMASO
 70
     1
  9
$DIMSHO
 70
     1
  9
$DIMPOST
  1

  9
$DIMAPOST
  1

  9
$DIMALT
 70
     0
  9
$DIMALTD
 70
     2
  9
$DIMALTF
 40
25.4
  9
$DIMLFAC
 40
0.5
  9
$DIMTOFL
 70
     0
  9
$DIMTVP
 40
0.0
  9
$DIMTIX
 70
     0
  9
$DIMSOXD
 70
     0
  9
$DIMSAH
 70
     0
  9
$DIMBLK1
  1

  9
$DIMBLK2
  1

  9
$DIMSTYLE
  2
STANDARD
  9
$DIMCLRD
 70
     0
  9
$DIMCLRE
 70
     0
  9
$DIMCLRT
 70
     0
  9
$DIMTFAC
 40
1.0
  9
$DIMGAP
 40
0.09
  9
$DIMJUST
 70
     0
  9
$DIMSD1
 70
     0
  9
$DIMSD2
 70
     0
  9
$DIMTOLJ
 70
     1
  9
$DIMTZIN
 70
     0
  9
$DIMALTZ
 70
     0
  9
$DIMALTTZ
 70
     0
  9
$DIMFIT
 70
     3
  9
$DIMUPT
 70
     0
  9
$DIMUNIT
 70
     2
  9
$DIMDEC
 70
     3
  9
$DIMTDEC
 70
     4
  9
$DIMALTU
 70
     2
  9
$DIMALTTD
 70
     2
  9
$DIMTXSTY
  7
ROMANS
  9
$DIMAUNIT
 70
     0
  9
$LUNITS
 70
     2
  9
$LUPREC
 70
     3
  9
$SKETCHINC
 40
0.1
  9
$FILLETRAD
 40
0.03125
  9
$AUNITS
 70
     0
  9
$AUPREC
 70
     0
  9
$MENU
  1
AUTOMSTR
  9
$ELEVATION
 40
0.0
  9
$PELEVATION
 40
0.0
  9
$THICKNESS
 40
0.0
  9
$LIMCHECK
 70
     0
  9
$BLIPMODE
 70
     0
  9
$CHAMFERA
 40
0.0
  9
$CHAMFERB
 40
0.0
  9
$CHAMFERC
 40
0.0
  9
$CHAMFERD
 40
0.0
  9
$SKPOLY
 70
     0
  9
$TDCREATE
 40
2448337.552879745
  9
$TDUPDATE
 40
2452458.300574305
  9
$TDINDWG
 40
0.1464127315
  9
$TDUSRTIMER
 40
0.1464127315
  9
$USRTIMER
 70
     1
  9
$ANGBASE
 50
0.0
  9
$ANGDIR
 70
     0
  9
$PDMODE
 70
     0
  9
$PDSIZE
 40
0.0
  9
$PLINEWID
 40
0.0
  9
$COORDS
 70
     2
  9
$SPLFRAME
 70
     0
  9
$SPLINETYPE
 70
     6
  9
$SPLINESEGS
 70
     8
  9
$ATTDIA
 70
     0
  9
$ATTREQ
 70
     1
  9
$HANDLING
 70
 22529
  9
$HANDSEED
  5
689
  9
$SURFTAB1
 70
     6
  9
$SURFTAB2
 70
     6
  9
$SURFTYPE
 70
     6
  9
$SURFU
 70
     6
  9
$SURFV
 70
     6
  9
$UCSNAME
  2

  9
$UCSORG
 10
0.0
 20
0.0
 30
0.0
  9
$UCSXDIR
 10
1.0
 20
0.0
 30
0.0
  9
$UCSYDIR
 10
0.0
 20
1.0
 30
0.0
  9
$PUCSNAME
  2

  9
$PUCSORG
 10
0.0
 20
0.0
 30
0.0
  9
$PUCSXDIR
 10
1.0
 20
0.0
 30
0.0
  9
$PUCSYDIR
 10
0.0
 20
1.0
 30
0.0
  9
$USERI1
 70
     0
  9
$USERI2
 70
     0
  9
$USERI3
 70
     0
  9
$USERI4
 70
     0
  9
$USERI5
 70
     0
  9
$USERR1
 40
0.0
  9
$USERR2
 40
0.0
  9
$USERR3
 40
0.0
  9
$USERR4
 40
0.0
  9
$USERR5
 40
0.0
  9
$WORLDVIEW
 70
     1
  9
$SHADEDGE
 70
     3
  9
$SHADEDIF
 70
    70
  9
$TILEMODE
 70
     1
  9
$MAXACTVP
 70
    16
  9
$PINSBASE
 10
0.0
 20
0.0
 30
0.0
  9
$PLIMCHECK
 70
     0
  9
$PEXTMIN
 10
1.000000000000000E+20
 20
1.000000000000000E+20
 30
1.000000000000000E+20
  9
$PEXTMAX
 10
-1.000000000000000E+20
 20
-1.000000000000000E+20
 30
-1.000000000000000E+20
  9
$PLIMMIN
 10
0.0
 20
0.0
  9
$PLIMMAX
 10
12.0
 20
9.0
  9
$UNITMODE
 70
     0
  9
$VISRETAIN
 70
     0
  9
$PLINEGEN
 70
     1
  9
$PSLTSCALE
 70
     0
  9
$TREEDEPTH
 70
  3020
  9
$PICKSTYLE
 70
     1
  9
$CMLSTYLE
  2
STANDARD
  9
$CMLJUST
 70
     0
  9
$CMLSCALE
 40
1.0
  9
$PROXYGRAPHICS
 70
     1
  9
$MEASUREMENT
 70
     0
  0
ENDSEC
  0
SECTION
  2
CLASSES
  0
CLASS
  1
LWPOLYLINE
  2
AcDbPolyline
  3
AutoCAD 2000
 90
        0
280
     0
281
     1
  0
CLASS
  1
ACDBDICTIONARYWDFLT
  2
AcDbDictionaryWithDefault
  3
AutoCAD 2000
 90
        0
280
     0
281
     0
  0
CLASS
  1
ACDBPLACEHOLDER
  2
AcDbPlaceHolder
  3
AutoCAD 2000
 90
        0
280
     0
281
     0
  0
CLASS
  1
LAYOUT
  2
AcDbLayout
  3
AutoCAD 2000
 90
        0
280
     0
281
     0
  0
CLASS
  1
DICTIONARYVAR
  2
AcDbDictionaryVar
  3
AutoCAD 2000
 90
        0
280
     0
281
     0
  0
CLASS
  1
LONG_TRANSACTION
  2
AcDbLongTransaction
  3
AutoCAD 2000
 90
        0
280
     0
281
     0
  0
CLASS
  1
LWPOLYLINE
  2
AcDbPolyline
  3
AutoCAD 2000
 90
        0
280
     0
281
     1
  0
CLASS
  1
HATCH
  2
AcDbHatch
  3
AutoCAD 2000
 90
        0
280
     0
281
     1
  0
CLASS
  1
XRECORD
  2
AcDbXrecord
  3
AutoCAD 2000
 90
        0
280
     0
281
     0
  0
ENDSEC
  0
SECTION
  2
TABLES
  0
TABLE
  2
VPORT
  5
8
330
0
100
AcDbSymbolTable
 70
     2
  0
VPORT
  5
664
330
8
100
AcDbSymbolTableRecord
100
AcDbViewportTableRecord
  2
*ACTIVE
 70
     0
 10
0.0
 20
0.0
 11
1.0
 21
1.0
 12
3.845459124039074
 22
0.5604749497215078
 13
0.0
 23
0.0
 14
0.015625
 24
0.015625
 15
0.0
 25
0.0
 16
0.0
 26
0.0
 36
1.0
 17
0.0
 27
0.0
 37
0.0
 40
2.163783105556754
 41
4.320930232558139
 42
50.0
 43
0.0
 44
0.0
 50
0.0
 51
0.0
 71
     0
 72
  2000
 73
     1
 74
     1
 75
     0
 76
     0
 77
     0
 78
     0
  0
ENDTAB
  0
TABLE
  2
LTYPE
  5
5
330
0
100
AcDbSymbolTable
 70
     1
  0
LTYPE
  5
12
330
5
100
AcDbSymbolTableRecord
100
AcDbLinetypeTableRecord
  2
BYBLOCK
 70
     0
  3

 72
    65
 73
     0
 40
0.0
  0
LTYPE
  5
13
330
5
100
AcDbSymbolTableRecord
100
AcDbLinetypeTableRecord
  2
BYLAYER
 70
     0
  3

 72
    65
 73
     0
 40
0.0
  0
LTYPE
  5
14
330
5
100
AcDbSymbolTableRecord
100
AcDbLinetypeTableRecord
  2
CONTINUOUS
 70
     0
  3
Solid line
 72
    65
 73
     0
 40
0.0
  0
ENDTAB
  0
TABLE
  2
LAYER
  5
2
330
0
100
AcDbSymbolTable
 70
     3
  0
LAYER
  5
F
330
2
100
AcDbSymbolTableRecord
100
AcDbLayerTableRecord
  2
0
 70
     0
 62
     7
  6
CONTINUOUS
  0
LAYER
  5
2C
330
2
100
AcDbSymbolTableRecord
100
AcDbLayerTableRecord
  2
DIM
 70
     0
 62
     4
  6
CONTINUOUS
  0
LAYER
  5
2D
330
2
100
AcDbSymbolTableRecord
100
AcDbLayerTableRecord
  2
TEXT
 70
     0
 62
     3
  6
CONTINUOUS
  0
ENDTAB
  0
TABLE
  2
STYLE
  5
3
330
0
100
AcDbSymbolTable
 70
     3
  0
STYLE
  5
10
330
3
100
AcDbSymbolTableRecord
100
AcDbTextStyleTableRecord
  2
STANDARD
 70
     0
 40
0.0
 41
1.0
 50
0.0
 71
     0
 42
0.25
  3
txt
  4

  0
STYLE
  5
550
330
3
100
AcDbSymbolTableRecord
100
AcDbTextStyleTableRecord
  2
ITALICC
 70
     0
 40
0.0
 41
1.0
 50
0.0
 71
     0
 42
0.125
  3
italicc
  4

  0
STYLE
  5
660
330
3
100
AcDbSymbolTableRecord
100
AcDbTextStyleTableRecord
  2
ROMANS
 70
     0
 40
0.0
 41
1.0
 50
0.0
 71
     0
 42
0.125
  3
romans.shx
  4

  0
ENDTAB
  0
TABLE
  2
VIEW
  5
6
330
0
100
AcDbSymbolTable
 70
     0
  0
ENDTAB
  0
TABLE
  2
UCS
  5
7
330
0
100
AcDbSymbolTable
 70
     0
  0
ENDTAB
  0
TABLE
  2
APPID
  5
9
330
0
100
AcDbSymbolTable
 70
     1
  0
APPID
  5
11
330
9
100
AcDbSymbolTableRecord
100
AcDbRegAppTableRecord
  2
ACAD
 70
     0
  0
ENDTAB
  0
TABLE
  2
DIMSTYLE
  5
A
330
0
100
AcDbSymbolTable
 70
     1
  0
DIMSTYLE
105
544
330
A
100
AcDbSymbolTableRecord
100
AcDbDimStyleTableRecord
  2
STANDARD
 70
     0
  3

  4

  5

  6

  7

 40
1.0
 41
0.18
 42
0.0625
 43
0.38
 44
0.18
 45
0.0
 46
0.0
 47
0.0
 48
0.0
140
0.18
141
0.09
142
0.0
143
25.4
144
1.0
145
0.0
146
1.0
147
0.09
 71
     0
 72
     0
 73
     1
 74
     1
 75
     0
 76
     0
 77
     0
 78
     0
170
     0
171
     2
172
     0
173
     0
174
     0
175
     0
176
     0
177
     0
178
     0
270
     2
271
     4
272
     4
273
     2
274
     2
340
10
275
     0
280
     0
281
     0
282
     0
283
     1
284
     0
285
     0
286
     0
287
     3
288
     0
  0
ENDTAB
  0
TABLE
  2
BLOCK_RECORD
  5
1
330
0
100
AcDbSymbolTable
 70
     0
  0
BLOCK_RECORD
  5
18
102
{ACAD_XDICTIONARY
360
687
102
}
330
1
100
AcDbSymbolTableRecord
100
AcDbBlockTableRecord
  2
*MODEL_SPACE
  0
BLOCK_RECORD
  5
15
102
{ACAD_XDICTIONARY
360
685
102
}
330
1
100
AcDbSymbolTableRecord
100
AcDbBlockTableRecord
  2
*PAPER_SPACE
  0
ENDTAB
  0
ENDSEC
  0
SECTION
  2
BLOCKS
  0
BLOCK
  5
37
330
18
100
AcDbEntity
  8
0
100
AcDbBlockBegin
  2
*MODEL_SPACE
 70
     0
 10
0.0
 20
0.0
 30
0.0
  3
*MODEL_SPACE
  1

  0
ENDBLK
  5
38
330
18
100
AcDbEntity
  8
0
100
AcDbBlockEnd
  0
BLOCK
  5
35
330
15
100
AcDbEntity
 67
     1
  8
0
100
AcDbBlockBegin
  2
*PAPER_SPACE
 70
     0
 10
0.0
 20
0.0
 30
0.0
  3
*PAPER_SPACE
  1

  0
ENDBLK
  5
36
330
15
100
AcDbEntity
 67
     1
  8
0
100
AcDbBlockEnd
  0
ENDSEC
  0
SECTION
  2
ENTITIES
  0
CIRCLE
  5
1FB
330
18
100
AcDbEntity
  8
0
100
AcDbCircle
 10
1.715625
 20
0.6974999999999968
 30
0.0
 40
0.075
  0
LWPOLYLINE
  5
1FC
330
18
100
AcDbEntity
  8
0
100
AcDbPolyline
 90
       58
 70
     1
 43
0.0
 10
0.9853750000000003
 20
1.141660254037844
 10
1.000375
 20
1.133
 10
1.000375
 20
1.127999999999999
 10
0.9853749999999998
 20
1.119339745962155
 10
0.9853750000000005
 20
1.031660254037844
 10
1.000375
 20
1.023
 10
1.000375
 20
1.017999999999999
 10
0.9853749999999998
 20
1.009339745962155
 10
0.9853749999999998
 20
0.8850000000000001
 10
0.8583750000000001
 20
0.8849999999999999
 10
0.8583750000000003
 20
0.9813397459621555
 10
0.8433749999999999
 20
0.9900000000000002
 10
0.8433749999999999
 20
0.9950000000000001
 10
0.8583750000000001
 20
1.003660254037844
 10
0.8583750000000003
 20
1.091339745962155
 10
0.8433749999999999
 20
1.1
 10
0.8433749999999999
 20
1.104999999999999
 10
0.8583750000000001
 20
1.113660254037844
 10
0.8583750000000003
 20
1.201339745962155
 10
0.8433749999999999
 20
1.209999999999999
 10
0.8433749999999999
 20
1.215
 10
0.8583750000000001
 20
1.223660254037844
 10
0.8583750000000003
 20
1.256839745962155
 10
0.8433749999999999
 20
1.265499999999999
 10
0.8433749999999999
 20
1.3225
 10
0.640625
 20
1.3225
 10
0.640625
 20
1.1975
 10
0.703125
 20
1.1975
 10
0.703125
 20
0.8849999999999999
 10
0.3906249999999999
 20
0.8849999999999999
 10
0.390625
 20
1.1975
 10
0.4531250000000001
 20
1.1975
 10
0.453125
 20
1.3225
 10
0.265625
 20
1.3225
 10
0.265625
 20
0.79125
 42
0.4142135623730951
 10
0.296875
 20
0.76
 10
1.507057459379092
 20
0.76
 10
1.605039474020983
 20
0.6200671810926066
 42
3.159692350975494
 10
1.605374999999999
 20
0.7754098036193123
 42
-0.7315710849321592
 10
1.578124999999999
 20
0.7840664484659023
 10
1.578124999999999
 20
0.9474999999999999
 10
1.515624999999999
 20
0.9474999999999999
 10
1.515625
 20
1.3225
 10
1.390625
 20
1.3225
 10
1.390625
 20
1.1975
 10
1.453125
 20
1.1975
 10
1.453125
 20
0.8849999999999999
 10
1.140624999999999
 20
0.8849999999999999
 10
1.140624999999999
 20
1.1975
 10
1.203124999999999
 20
1.1975
 10
1.203124999999999
 20
1.3225
 10
1.000375
 20
1.3225
 10
1.000375
 20
1.265499999999999
 10
0.9853749999999998
 20
1.256839745962155
 10
0.9853749999999998
 20
1.251660254037844
 10
1.000375
 20
1.243
 10
1.000375
 20
1.237999999999999
 10
0.9853749999999998
 20
1.229339745962155
  0
TEXT
  5
5D6
330
18
100
AcDbEntity
  8
TEXT
100
AcDbText
 10
0.1673963532359098
 20
0.2453918701171731
 30
0.0
 40
0.125
  1
PART #110205
  7
ITALICC
 72
     1
 11
0.9233487341882904
 21
0.2453918701171731
 31
0.0
100
AcDbText
  0
LINE
  5
5D7
330
18
100
AcDbEntity
  8
TEXT
100
AcDbLine
 10
1.078663364211673
 20
0.0653148787541049
 30
0.0
 11
1.031565205655689
 21
-0.0105504476574332
 31
0.0
  0
LINE
  5
5D8
330
18
100
AcDbEntity
  8
TEXT
100
AcDbLine
 10
1.031565205655689
 20
-0.0105504476574332
 30
0.0
 11
1.031565205655689
 21
0.1307790845217056
 31
0.0
  0
LINE
  5
5D9
330
18
100
AcDbEntity
  8
TEXT
100
AcDbLine
 10
1.031565205655689
 20
0.1307790845217056
 30
0.0
 11
0.9632503271064161
 21
0.1307790845217056
 31
0.0
  0
LINE
  5
5DA
330
18
100
AcDbEntity
  8
TEXT
100
AcDbLine
 10
0.9632503271064161
 20
0.1307790845217056
 30
0.0
 11
0.9632503271064107
 21
0.0653148787541049
 31
0.0
  0
LINE
  5
5DB
330
18
100
AcDbEntity
  8
TEXT
100
AcDbLine
 10
1.089098080975596
 20
-0.0445783641868687
 30
0.0
 11
1.153655196941302
 21
0.0653148787541049
 31
0.0
  0
LINE
  5
5DC
330
18
100
AcDbEntity
  8
TEXT
100
AcDbLine
 10
1.153655196941302
 20
0.0653148787541049
 30
0.0
 11
1.078663364211675
 21
0.0653148787541049
 31
0.0
  0
LINE
  5
5DD
330
18
100
AcDbEntity
  8
TEXT
100
AcDbLine
 10
0.9677302144329162
 20
-0.2011581542344061
 30
0.0
 11
1.032108398751536
 21
-0.2011581542344061
 31
0.0
  0
LINE
  5
5DE
330
18
100
AcDbEntity
  8
TEXT
100
AcDbLine
 10
1.032108398751536
 20
-0.2011581542344061
 30
0.0
 11
1.032108398751536
 21
-0.0695785857582259
 31
0.0
  0
LINE
  5
5DF
330
18
100
AcDbEntity
  8
TEXT
100
AcDbLine
 10
1.032108398751536
 20
-0.0695785857582259
 30
0.0
 11
1.108011931963001
 21
-0.2011581542344061
 31
0.0
  0
LINE
  5
5E0
330
18
100
AcDbEntity
  8
TEXT
100
AcDbLine
 10
1.108011931963001
 20
-0.2011581542344061
 30
0.0
 11
1.184590304339207
 21
-0.2011581542344061
 31
0.0
  0
LINE
  5
5E1
330
18
100
AcDbEntity
  8
TEXT
100
AcDbLine
 10
0.9677302144329109
 20
0.0010381840973395
 30
0.0
 11
0.9677302144329162
 21
-0.2011581542344061
 31
0.0
  0
LINE
  5
5E2
330
18
100
AcDbEntity
  8
TEXT
100
AcDbLine
 10
1.184590304339207
 20
-0.2011581542344061
 30
0.0
 11
1.089098080975596
 21
-0.0445783641868687
 31
0.0
  0
ARC
  5
5E3
330
18
100
AcDbEntity
  8
TEXT
100
AcDbCircle
 10
0.8910822331403522
 20
-0.0238676911853233
 30
0.0
 40
0.0249058752826653
100
AcDbArc
 50
89.99971217465335
 51
179.9999999999985
  0
ARC
  5
5E4
330
18
100
AcDbEntity
  8
TEXT
100
AcDbCircle
 10
0.8989711900799299
 20
0.0340691514718401
 30
0.0
 40
0.0314112657011332
100
AcDbArc
 50
95.88484768694724
 51
173.2388340632136
  0
LINE
  5
5E5
330
18
100
AcDbEntity
  8
TEXT
100
AcDbLine
 10
0.8677783730168213
 20
0.0377672288932303
 30
0.0
 11
0.8677783730168213
 21
0.0653148787541049
 31
0.0
  0
LINE
  5
5E6
330
18
100
AcDbEntity
  8
TEXT
100
AcDbLine
 10
0.8677783730168213
 20
0.0653148787541049
 30
0.0
 11
0.8038814667173204
 21
0.0653148787541049
 31
0.0
  0
LINE
  5
5E7
330
18
100
AcDbEntity
  8
TEXT
100
AcDbLine
 10
0.8038814667173204
 20
0.0653148787541049
 30
0.0
 11
0.8038814667173204
 21
-0.0398970997993224
 31
0.0
  0
LINE
  5
5E8
330
18
100
AcDbEntity
  8
TEXT
100
AcDbLine
 10
0.7249215278422794
 20
0.0653148787541049
 30
0.0
 11
0.5900896186252203
 21
0.0653148787541049
 31
0.0
  0
LINE
  5
5E9
330
18
100
AcDbEntity
  8
TEXT
100
AcDbLine
 10
0.5900896186252203
 20
0.0653148787541049
 30
0.0
 11
0.5900896186252203
 21
0.036992332984461
 31
0.0
  0
LINE
  5
5EA
330
18
100
AcDbEntity
  8
TEXT
100
AcDbLine
 10
0.649403715018539
 20
-0.0362367893647928
 30
0.0
 11
0.7316917048019223
 21
-0.0362367893647928
 31
0.0
  0
LINE
  5
5EB
330
18
100
AcDbEntity
  8
TEXT
100
AcDbLine
 10
0.7316917048019223
 20
-0.0362367893647928
 30
0.0
 11
0.7214269443883579
 21
-0.0149862497920985
 31
0.0
  0
LINE
  5
5EC
330
18
100
AcDbEntity
  8
TEXT
100
AcDbLine
 10
0.6958906294978009
 20
0.0010381840973395
 30
0.0
 11
0.5886843561105115
 21
0.0010381840973395
 31
0.0
  0
ARC
  5
5ED
330
18
100
AcDbEntity
  8
TEXT
100
AcDbCircle
 10
0.6958906294978
 20
-0.0273211909026578
 30
0.0
 40
0.028359375
100
AcDbArc
 50
25.78218179591245
 51
90.0
  0
LINE
  5
5EE
330
18
100
AcDbEntity
  8
TEXT
100
AcDbLine
 10
0.8038814667173204
 20
-0.0398970997993224
 30
0.0
 11
0.7601306955354188
 21
0.0423531761968228
 31
0.0
  0
ARC
  5
5EF
330
18
100
AcDbEntity
  8
TEXT
100
AcDbCircle
 10
0.7228945880652109
 20
0.0237313116332025
 30
0.0
 40
0.0416329381542859
100
AcDbArc
 50
26.56974201007528
 51
87.20939649401342
  0
LWPOLYLINE
  5
5F0
330
18
100
AcDbEntity
  8
TEXT
100
AcDbPolyline
 90
        2
 70
     0
 43
0.0
 10
0.807821144022359
 20
-0.1576672092839679
 42
-0.2901071551932486
 10
0.7647452111547146
 20
-0.2011581542344061
 42
-5.328517124445184
  0
LWPOLYLINE
  5
5F1
330
18
100
AcDbEntity
  8
TEXT
100
AcDbPolyline
 90
        2
 70
     0
 43
0.0
 10
0.807821144022359
 20
-0.1576672092839679
 10
0.807821144022359
 20
-0.2011581542344061
  0
LWPOLYLINE
  5
5F2
330
18
100
AcDbEntity
  8
TEXT
100
AcDbPolyline
 90
        2
 70
     0
 43
0.0
 10
0.807821144022359
 20
-0.2011581542344061
 10
0.866176357857693
 20
-0.2011581542344061
  0
LWPOLYLINE
  5
5F3
330
18
100
AcDbEntity
  8
TEXT
100
AcDbPolyline
 90
        2
 70
     0
 43
0.0
 10
0.5876518606557024
 20
-0.1576672092839679
 42
0.2901071551932823
 10
0.630727793523338
 20
-0.2011581542344061
 42
5.328517124445801
  0
LWPOLYLINE
  5
5F4
330
18
100
AcDbEntity
  8
TEXT
100
AcDbPolyline
 90
        2
 70
     0
 43
0.0
 10
0.630727793523338
 20
-0.2011581542344061
 10
0.7647452111547146
 20
-0.2011581542344061
 42
0.9999999999999998
  0
LWPOLYLINE
  5
5F5
330
18
100
AcDbEntity
  8
TEXT
100
AcDbPolyline
 90
        4
 70
     1
 43
0.0
 10
0.7446227460848221
 20
-0.0981941762503809
 10
0.6559624274249636
 20
-0.0981941762503809
 42
0.9999999999999998
 10
0.6559624274249636
 20
-0.1405927167542416
 10
0.7446227460848221
 20
-0.1405927167542416
 42
1.0
  0
ARC
  5
5F6
330
18
100
AcDbEntity
  8
TEXT
100
AcDbCircle
 10
0.6494037150185381
 20
-0.1039223705089114
 30
0.0
 40
0.0676855811441166
100
AcDbArc
 50
90.0
 51
153.7768192527749
  0
LINE
  5
5F7
330
18
100
AcDbEntity
  8
TEXT
100
AcDbLine
 10
0.8661763578576939
 20
-0.2011581542344061
 30
0.0
 11
0.8661763578576886
 21
-0.0238676488029377
 31
0.0
  0
LINE
  5
5F8
330
18
100
AcDbEntity
  8
TEXT
100
AcDbLine
 10
0.5886843561105115
 20
0.0010381840973395
 30
0.0
 11
0.5886843561105115
 21
-0.0740142219768671
 31
0.0
  0
LINE
  5
5F9
330
18
100
AcDbEntity
  8
TEXT
100
AcDbLine
 10
0.8910822331403531
 20
0.0010381840973395
 30
0.0
 11
0.9677302144329109
 21
0.0010381840973395
 31
0.0
  0
LINE
  5
5FA
330
18
100
AcDbEntity
  8
TEXT
100
AcDbLine
 10
0.9632503271064107
 20
0.0653148787541049
 30
0.0
 11
0.8957506094568943
 21
0.0653148787541049
 31
0.0
  0
LWPOLYLINE
  5
5FB
330
18
100
AcDbEntity
  8
TEXT
100
AcDbPolyline
 90
        2
 70
     0
 43
0.0
 10
0.3828743553328273
 20
0.0010381840973395
 42
-0.4142135623731017
 10
0.3904281444989408
 20
-0.0065156050687705
 42
-0.9999999999999998
  0
LWPOLYLINE
  5
5FC
330
18
100
AcDbEntity
  8
TEXT
100
AcDbPolyline
 90
        2
 70
     0
 43
0.0
 10
0.5116197882017311
 20
0.0010381840973395
 42
-0.4142135623731017
 10
0.5191735773678446
 20
-0.0065156050687705
 42
-0.9999999999999998
  0
LWPOLYLINE
  5
5FD
330
18
100
AcDbEntity
  8
TEXT
100
AcDbPolyline
 90
        2
 70
     0
 43
0.0
 10
0.4002260783828487
 20
0.0653148787541085
 42
-0.3328679258950098
 10
0.4360077690960101
 20
0.0381473819932126
 42
6.772930709997214
  0
LWPOLYLINE
  5
5FE
330
18
100
AcDbEntity
  8
TEXT
100
AcDbPolyline
 90
        3
 70
     0
 43
0.0
 10
0.5543079279120544
 20
0.0653148787541085
 10
0.4360077690960101
 20
0.0653148787541085
 10
0.4360077690960101
 20
0.0381473819932126
 42
-1.960274751411753
  0
LINE
  5
5FF
330
18
100
AcDbEntity
  8
TEXT
100
AcDbLine
 10
0.4574861912807818
 20
0.0010381840973395
 30
0.0
 11
0.511619788201732
 21
0.0010381840973395
 31
0.0
  0
LINE
  5
600
330
18
100
AcDbEntity
  8
TEXT
100
AcDbLine
 10
0.3330390755096806
 20
0.0010381840973395
 30
0.0
 11
0.3828743553328282
 21
0.0010381840973395
 31
0.0
  0
LINE
  5
601
330
18
100
AcDbEntity
  8
TEXT
100
AcDbLine
 10
0.4002260783828478
 20
0.0653148787541049
 30
0.0
 11
0.2662080224517114
 21
0.0653148787541049
 31
0.0
  0
LINE
  5
602
330
18
100
AcDbEntity
  8
TEXT
100
AcDbLine
 10
0.3904281444989417
 20
-0.2011581542344061
 30
0.0
 11
0.4574861912807818
 21
-0.2011581542344061
 31
0.0
  0
LINE
  5
603
330
18
100
AcDbEntity
  8
TEXT
100
AcDbLine
 10
0.235035741810246
 20
-0.2011581542344061
 30
0.0
 11
0.3330390755096806
 21
-0.2011581542344061
 31
0.0
  0
LINE
  5
604
330
18
100
AcDbEntity
  8
TEXT
100
AcDbLine
 10
0.2662080224517114
 20
-0.1355493279783033
 30
0.0
 11
0.2492143855671101
 21
-0.1355493279783033
 31
0.0
  0
ARC
  5
605
330
18
100
AcDbEntity
  8
TEXT
100
AcDbCircle
 10
0.2492143855671092
 20
-0.1201675217348779
 30
0.0
 40
0.0153818062434269
100
AcDbArc
 50
174.7883570302258
 51
270.0
  0
LINE
  5
606
330
18
100
AcDbEntity
  8
TEXT
100
AcDbLine
 10
0.3330390755096806
 20
-0.2011581542344061
 30
0.0
 11
0.3330390755096806
 21
0.0010381840973395
 31
0.0
  0
LINE
  5
607
330
18
100
AcDbEntity
  8
TEXT
100
AcDbLine
 10
0.3904281444989417
 20
-0.0065156050687705
 30
0.0
 11
0.3904281444989417
 21
-0.2011581542344061
 31
0.0
  0
LINE
  5
608
330
18
100
AcDbEntity
  8
TEXT
100
AcDbLine
 10
0.4574861912807818
 20
-0.2011581542344061
 30
0.0
 11
0.4574861912807818
 21
0.0010381840973395
 31
0.0
  0
LINE
  5
609
330
18
100
AcDbEntity
  8
TEXT
100
AcDbLine
 10
0.2662080224517114
 20
0.0653148787541049
 30
0.0
 11
0.2662080224517114
 21
-0.1355493279783033
 31
0.0
  0
LINE
  5
60A
330
18
100
AcDbEntity
  8
TEXT
100
AcDbLine
 10
0.2338961683140512
 20
-0.1187703161314069
 30
0.0
 11
0.2338961683140512
 21
0.1333263564929155
 31
0.0
  0
LINE
  5
60B
330
18
100
AcDbEntity
  8
TEXT
100
AcDbLine
 10
0.1670874557476862
 20
0.1333263564929155
 30
0.0
 11
0.1670874557476862
 21
0.0653148787541049
 31
0.0
  0
LINE
  5
60C
330
18
100
AcDbEntity
  8
TEXT
100
AcDbLine
 10
0.1670874557476862
 20
0.0653148787541049
 30
0.0
 11
0.13696554295431
 21
0.0653148787541049
 31
0.0
  0
LINE
  5
60D
330
18
100
AcDbEntity
  8
TEXT
100
AcDbLine
 10
0.13696554295431
 20
0.0653148787541049
 30
0.0
 11
0.0782169801484445
 21
-0.0355571173590157
 31
0.0
  0
LINE
  5
60E
330
18
100
AcDbEntity
  8
TEXT
100
AcDbLine
 10
0.0782169801484445
 20
-0.0355571173590157
 30
0.0
 11
0.0195866591165066
 21
0.0653148787541049
 31
0.0
  0
LINE
  5
60F
330
18
100
AcDbEntity
  8
TEXT
100
AcDbLine
 10
-0.0522123070274008
 20
0.0653148787541049
 30
0.0
 11
-0.0522123070274008
 21
0.0997027963482431
 31
0.0
  0
LINE
  5
610
330
18
100
AcDbEntity
  8
TEXT
100
AcDbLine
 10
-0.0522123070274008
 20
0.0997027963482431
 30
0.0
 11
-0.1122549118714078
 21
0.0997027963482431
 31
0.0
  0
LINE
  5
611
330
18
100
AcDbEntity
  8
TEXT
100
AcDbLine
 10
-0.1122549118714078
 20
0.0997027963482431
 30
0.0
 11
-0.1122549118714078
 21
0.0653148787541049
 31
0.0
  0
LINE
  5
612
330
18
100
AcDbEntity
  8
TEXT
100
AcDbLine
 10
0.0195866591165066
 20
0.0653148787541049
 30
0.0
 11
-0.0522123070274008
 21
0.0653148787541049
 31
0.0
  0
ARC
  5
613
330
18
100
AcDbEntity
  8
TEXT
100
AcDbCircle
 10
0.0345731832392762
 20
-0.1616104319607103
 30
0.0
 40
0.0392772371940762
100
AcDbArc
 50
270.1604552698595
 51
330.0831797321295
  0
ARC
  5
614
330
18
100
AcDbEntity
  8
TEXT
100
AcDbCircle
 10
-0.0557276626529486
 20
-0.1413657628963563
 30
0.0
 40
0.0601160179737537
100
AcDbArc
 50
180.0000000000003
 51
264.0521544866073
  0
LINE
  5
615
330
18
100
AcDbEntity
  8
TEXT
100
AcDbLine
 10
-0.0619570731465951
 20
-0.2011581542344061
 30
0.0
 11
0.0346831779283994
 21
-0.2008875151361238
 31
0.0
  0
LWPOLYLINE
  5
616
330
18
100
AcDbEntity
  8
TEXT
100
AcDbPolyline
 90
        6
 70
     1
 43
0.0
 10
-0.0194332695714454
 20
0.0010381840973395
 10
-0.0497498637916536
 20
0.0010381840973395
 10
-0.0497498637916536
 20
-0.1220728139575549
 42
0.407328721240804
 10
-0.0382062126301772
 20
-0.1338917286339409
 10
0.0224154864145536
 20
-0.1338917286339409
 10
0.0398808268218716
 20
-0.1010794995904618
  0
LINE
  5
617
330
18
100
AcDbEntity
  8
TEXT
100
AcDbLine
 10
-0.1158436806267007
 20
0.0010381840973395
 30
0.0
 11
-0.1158436806267007
 21
-0.1413657628963563
 31
0.0
  0
LINE
  5
618
330
18
100
AcDbEntity
  8
TEXT
100
AcDbLine
 10
0.0686167431514901
 20
-0.1811996481293931
 30
0.0
 11
0.1659164492449348
 21
-0.016849437194125
 31
0.0
  0
LINE
  5
619
330
18
100
AcDbEntity
  8
TEXT
100
AcDbLine
 10
0.1659164492449348
 20
-0.016849437194125
 30
0.0
 11
0.1659164492449348
 21
-0.1496068120194813
 31
0.0
  0
LWPOLYLINE
  5
61A
330
18
100
AcDbEntity
  8
TEXT
100
AcDbPolyline
 90
        2
 70
     0
 43
0.0
 10
0.1659164492449339
 20
-0.1496068120194778
 42
0.3318488747599744
 10
0.2350357418102469
 20
-0.2011581542344061
 42
-6.868794160588311
  0
LINE
  5
61B
330
18
100
AcDbEntity
  8
TEXT
100
AcDbLine
 10
0.2338961683140512
 20
0.1333263564929155
 30
0.0
 11
0.1670874557476862
 21
0.1333263564929155
 31
0.0
  0
LWPOLYLINE
  5
61C
330
18
100
AcDbEntity
  8
TEXT
100
AcDbPolyline
 90
        4
 70
     0
 43
0.0
 10
0.5191735773678446
 20
-0.0065156050687705
 10
0.5191735773678446
 20
-0.2011581542344061
 10
0.5876518606557024
 20
-0.2011581542344061
 10
0.5876518606557024
 20
-0.1576672092839679
 42
-1.714843617202739
  0
LWPOLYLINE
  5
61D
330
18
100
AcDbEntity
  8
TEXT
100
AcDbPolyline
 90
        2
 70
     0
 43
0.0
 10
0.5543079279120544
 20
0.0653148787541085
 42
-0.3277054968067132
 10
0.5900896186252194
 20
0.0369923329844646
 42
6.667889725900311
  0
TEXT
  5
61E
330
18
100
AcDbEntity
  8
TEXT
100
AcDbText
 10
1.336653892438611
 20
-0.1082723455889099
 30
0.0
 40
0.0522247191011236
  1
Minneapolis, MN 55432-0008
 41
1.11444212721585
 72
     5
 11
2.665586476708275
 21
-0.1082723455889099
 31
0.0
100
AcDbText
  0
TEXT
  5
61F
330
18
100
AcDbEntity
  8
TEXT
100
AcDbText
 10
1.336653892438611
 20
-0.0150139186226177
 30
0.0
 40
0.0522247191011236
  1
6536 Main St. N.E. * P.O. Box 32008
 41
0.8388932496075353
 72
     5
 11
2.665586476708275
 21
-0.0150139186226177
 31
0.0
100
AcDbText
  0
TEXT
  5
620
330
18
100
AcDbEntity
  8
TEXT
100
AcDbText
 10
1.336653892438611
 20
0.0782445083436745
 30
0.0
 40
0.0522247191011236
  1
Stylmark  Incorporated
 41
1.221428571428571
 72
     5
 11
2.665586476708275
 21
0.0782445083436745
 31
0.0
100
AcDbText
  0
TEXT
  5
621
330
18
100
AcDbEntity
  8
TEXT
100
AcDbText
 10
1.336653892438611
 20
-0.201530772555202
 30
0.0
 40
0.0522247191011236
  1
Phone  1-800-328-2495
 41
1.272321428571429
 72
     5
 11
2.665586476708275
 21
-0.201530772555202
 31
0.0
100
AcDbText
  0
LINE
  5
622
330
18
100
AcDbEntity
  8
TEXT
100
AcDbLine
 10
-0.21714919841137
 20
-0.0347665375132884
 30
0.0
 11
-0.2827493346556711
 21
-0.0347665375132884
 31
0.0
  0
ARC
  5
623
330
18
100
AcDbEntity
  8
TEXT
100
AcDbCircle
 10
-0.2827493346556711
 20
-0.0168641767079727
 30
0.0
 40
0.017902360805315
100
AcDbArc
 50
90.0
 51
270.0
  0
LINE
  5
624
330
18
100
AcDbEntity
  8
TEXT
100
AcDbLine
 10
-0.2879866647699192
 20
-0.0988600401389022
 30
0.0
 11
-0.2122088245050904
 21
-0.0988600401389022
 31
0.0
  0
LINE
  5
625
330
18
100
AcDbEntity
  8
TEXT
100
AcDbLine
 10
-0.2122088245050904
 20
-0.1328011479009667
 30
0.0
 11
-0.3700741242164245
 21
-0.1328011479009667
 31
0.0
  0
LINE
  5
626
330
18
100
AcDbEntity
  8
TEXT
100
AcDbLine
 10
-0.3700741242164227
 20
-0.2011581542344061
 30
0.0
 11
-0.21714919841137
 21
-0.2011581542344061
 31
0.0
  0
ARC
  5
627
330
18
100
AcDbEntity
  8
TEXT
100
AcDbCircle
 10
-0.2879866647699192
 20
-0.0167725806923969
 30
0.0
 40
0.0820874594465043
100
AcDbArc
 50
90.0
 51
270.0
  0
LINE
  5
628
330
18
100
AcDbEntity
  8
TEXT
100
AcDbLine
 10
-0.1122549118714078
 20
0.0653148787541049
 30
0.0
 11
-0.2879866647699192
 21
0.0653148787541049
 31
0.0
  0
ARC
  5
629
330
18
100
AcDbEntity
  8
TEXT
100
AcDbCircle
 10
-0.2122088245050904
 20
-0.1158305940199327
 30
0.0
 40
0.0169705538810321
100
AcDbArc
 50
270.0
 51
90.0
  0
ARC
  5
62A
330
18
100
AcDbEntity
  8
TEXT
100
AcDbCircle
 10
-0.21714919841137
 20
-0.117962345873849
 30
0.0
 40
0.0831958083605586
100
AcDbArc
 50
270.0
 51
90.0
  0
LINE
  5
62B
330
18
100
AcDbEntity
  8
TEXT
100
AcDbLine
 10
-0.2827493346556711
 20
0.0010381840973395
 30
0.0
 11
-0.1158436806267007
 21
0.0010381840973395
 31
0.0
  0
LWPOLYLINE
  5
62C
330
18
100
AcDbEntity
  8
TEXT
100
AcDbPolyline
 90
        2
 70
     0
 43
0.0006660908203125
 10
-0.5795071043161979
 20
-0.0479205606990192
 10
-0.5528634715036969
 20
-0.0479205606990192
  0
LINE
  5
62D
330
18
100
AcDbEntity
  8
TEXT
100
AcDbLine
 10
-0.3700741242164245
 20
-0.1328011479009667
 30
0.0
 11
-0.3700741242164227
 21
-0.2011581542344061
 31
0.0
  0
LWPOLYLINE
  5
62E
330
18
100
AcDbEntity
  8
TEXT
100
AcDbPolyline
 90
        2
 70
     0
 43
0.0006660908203125
 10
-0.5795071043161979
 20
-0.0878860099177672
 10
-0.5528634715036969
 20
-0.0878860099177672
  0
LWPOLYLINE
  5
62F
330
18
100
AcDbEntity
  8
TEXT
100
AcDbPolyline
 90
        2
 70
     0
 43
0.0001332181640625
 10
-0.6660989109568228
 20
0.0653148787541085
 10
-0.6760902732615115
 20
-0.0079551114802712
  0
LWPOLYLINE
  5
630
330
18
100
AcDbEntity
  8
TEXT
100
AcDbPolyline
 90
        2
 70
     0
 43
0.0001332181640625
 10
-0.6660989109568228
 20
0.0386712459416074
 10
-0.6760902732615115
 20
-0.0212769278865181
  0
LWPOLYLINE
  5
631
330
18
100
AcDbEntity
  8
TEXT
100
AcDbPolyline
 90
        2
 70
     0
 43
0.0006660908203125
 10
-0.6660989109568228
 20
0.0386712459416074
 10
-0.6660989109568228
 20
0.0653148787541085
  0
LWPOLYLINE
  5
632
330
18
100
AcDbEntity
  8
TEXT
100
AcDbPolyline
 90
        5
 70
     0
 43
0.0001332181640625
 10
-0.6760902732615115
 20
-0.0079551114802712
 10
-0.6760902732615115
 20
-0.0212769278865181
 10
-0.6394552781443217
 20
-0.0212769278865181
 10
-0.6394552781443217
 20
-0.057911923003708
 10
-0.626133461738073
 20
-0.057911923003708
  0
LWPOLYLINE
  5
633
330
18
100
AcDbEntity
  8
TEXT
100
AcDbPolyline
 90
        2
 70
     0
 43
0.0001332181640625
 10
-0.7060643601755743
 20
0.0386712459416074
 10
-0.6960729978708838
 20
-0.0212769278865181
  0
LWPOLYLINE
  5
634
330
18
100
AcDbEntity
  8
TEXT
100
AcDbPolyline
 90
        2
 70
     0
 43
0.0001332181640625
 10
-0.6960729978708838
 20
-0.0079551114802712
 10
-0.7060643601755743
 20
0.0653148787541085
  0
LWPOLYLINE
  5
635
330
18
100
AcDbEntity
  8
TEXT
100
AcDbPolyline
 90
        2
 70
     0
 43
0.0006660908203125
 10
-0.7060643601755743
 20
0.0386712459416074
 10
-0.7060643601755743
 20
0.0653148787541085
  0
LWPOLYLINE
  5
636
330
18
100
AcDbEntity
  8
TEXT
100
AcDbPolyline
 90
        5
 70
     0
 43
0.0001332181640625
 10
-0.7460298093943223
 20
-0.057911923003708
 10
-0.7327079929880736
 20
-0.057911923003708
 10
-0.7327079929880736
 20
-0.0212769278865181
 10
-0.6960729978708838
 20
-0.0212769278865181
 10
-0.6960729978708838
 20
-0.0079551114802712
  0
LWPOLYLINE
  5
637
330
18
100
AcDbEntity
  8
TEXT
100
AcDbPolyline
 90
        2
 70
     0
 43
0.0006660908203125
 10
-0.7926561668161991
 20
-0.0479205606990192
 10
-0.8192997996286965
 20
-0.0479205606990192
  0
LWPOLYLINE
  5
638
330
18
100
AcDbEntity
  8
TEXT
100
AcDbPolyline
 90
        2
 70
     0
 43
0.0001332181640625
 10
-0.8192997996286965
 20
-0.0479205606990192
 10
-0.7460298093943223
 20
-0.057911923003708
  0
LWPOLYLINE
  5
639
330
18
100
AcDbEntity
  8
TEXT
100
AcDbPolyline
 90
        2
 70
     0
 43
0.0001332181640625
 10
-0.7926561668161991
 20
-0.0479205606990192
 10
-0.7327079929880736
 20
-0.057911923003708
  0
LWPOLYLINE
  5
63A
330
18
100
AcDbEntity
  8
TEXT
100
AcDbPolyline
 90
        2
 70
     0
 43
0.0001332181640625
 10
-0.7926561668161991
 20
0.0386712459416074
 10
-0.7327079929880736
 20
-0.0212769278865181
  0
LWPOLYLINE
  5
63B
330
18
100
AcDbEntity
  8
TEXT
100
AcDbPolyline
 90
        3
 70
     0
 43
0.0006660908203125
 10
-0.7060643601755743
 20
0.0386712459416074
 10
-0.7926561668161991
 20
0.0386712459416074
 10
-0.7926561668161991
 20
-0.0479205606990192
  0
LWPOLYLINE
  5
63C
330
18
100
AcDbEntity
  8
TEXT
100
AcDbPolyline
 90
        3
 70
     0
 43
0.0006660908203125
 10
-0.7060643601755743
 20
0.0653148787541085
 10
-0.8192997996286965
 20
0.0653148787541085
 10
-0.8192997996286965
 20
-0.0479205606990192
  0
LWPOLYLINE
  5
63D
330
18
100
AcDbEntity
  8
TEXT
100
AcDbPolyline
 90
        5
 70
     0
 43
0.0001332181640625
 10
-0.626133461738073
 20
-0.077894647613082
 10
-0.6394552781443217
 20
-0.077894647613082
 10
-0.6394552781443217
 20
-0.1145296427302682
 10
-0.6760902732615115
 20
-0.1145296427302682
 10
-0.6760902732615115
 20
-0.1278514591365187
  0
LWPOLYLINE
  5
63E
330
18
100
AcDbEntity
  8
TEXT
100
AcDbPolyline
 90
        2
 70
     0
 43
0.0006660908203125
 10
-0.6660989109568228
 20
-0.1744778165583938
 10
-0.6660989109568228
 20
-0.2011214493708948
  0
LWPOLYLINE
  5
63F
330
18
100
AcDbEntity
  8
TEXT
100
AcDbPolyline
 90
        2
 70
     0
 43
0.0001332181640625
 10
-0.6760902732615115
 20
-0.1278514591365187
 10
-0.6660989109568228
 20
-0.2011214493708948
  0
LWPOLYLINE
  5
640
330
18
100
AcDbEntity
  8
TEXT
100
AcDbPolyline
 90
        2
 70
     0
 43
0.0001332181640625
 10
-0.6660989109568228
 20
-0.1744778165583938
 10
-0.6760902732615115
 20
-0.1145296427302682
  0
LWPOLYLINE
  5
641
330
18
100
AcDbEntity
  8
TEXT
100
AcDbPolyline
 90
        2
 70
     0
 43
0.0001332181640625
 10
-0.7060643601755743
 20
-0.2011214493708948
 10
-0.6960729978708838
 20
-0.1278514591365187
  0
LWPOLYLINE
  5
642
330
18
100
AcDbEntity
  8
TEXT
100
AcDbPolyline
 90
        2
 70
     0
 43
0.0001332181640625
 10
-0.7060643601755743
 20
-0.1744778165583938
 10
-0.6960729978708838
 20
-0.1145296427302682
  0
LWPOLYLINE
  5
643
330
18
100
AcDbEntity
  8
TEXT
100
AcDbPolyline
 90
        2
 70
     0
 43
0.0006660908203125
 10
-0.7060643601755743
 20
-0.1744778165583938
 10
-0.7060643601755743
 20
-0.2011214493708948
  0
LWPOLYLINE
  5
644
330
18
100
AcDbEntity
  8
TEXT
100
AcDbPolyline
 90
        5
 70
     0
 43
0.0001332181640625
 10
-0.6960729978708838
 20
-0.1278514591365187
 10
-0.6960729978708838
 20
-0.1145296427302682
 10
-0.7327079929880718
 20
-0.1145296427302682
 10
-0.7327079929880718
 20
-0.077894647613082
 10
-0.7460298093943223
 20
-0.077894647613082
  0
LWPOLYLINE
  5
645
330
18
100
AcDbEntity
  8
TEXT
100
AcDbPolyline
 90
        2
 70
     0
 43
0.0006660908203125
 10
-0.7926561668161991
 20
-0.0878860099177672
 10
-0.8192997996286965
 20
-0.0878860099177672
  0
LWPOLYLINE
  5
646
330
18
100
AcDbEntity
  8
TEXT
100
AcDbPolyline
 90
        2
 70
     0
 43
0.0001332181640625
 10
-0.7926561668161991
 20
-0.1744778165583938
 10
-0.7327079929880718
 20
-0.1145296427302682
  0
LWPOLYLINE
  5
647
330
18
100
AcDbEntity
  8
TEXT
100
AcDbPolyline
 90
        2
 70
     0
 43
0.0001332181640625
 10
-0.7926561668161991
 20
-0.0878860099177672
 10
-0.7327079929880718
 20
-0.077894647613082
  0
LWPOLYLINE
  5
648
330
18
100
AcDbEntity
  8
TEXT
100
AcDbPolyline
 90
        2
 70
     0
 43
0.0001332181640625
 10
-0.7460298093943223
 20
-0.077894647613082
 10
-0.8192997996286965
 20
-0.0878860099177672
  0
LWPOLYLINE
  5
649
330
18
100
AcDbEntity
  8
TEXT
100
AcDbPolyline
 90
        3
 70
     0
 43
0.0006660908203125
 10
-0.7926561668161991
 20
-0.0878860099177672
 10
-0.7926561668161991
 20
-0.1744778165583938
 10
-0.7060643601755743
 20
-0.1744778165583938
  0
LWPOLYLINE
  5
64A
330
18
100
AcDbEntity
  8
TEXT
100
AcDbPolyline
 90
        3
 70
     0
 43
0.0006660908203125
 10
-0.8192997996286965
 20
-0.0878860099177672
 10
-0.8192997996286965
 20
-0.2011214493708948
 10
-0.7060643601755743
 20
-0.2011214493708948
  0
LWPOLYLINE
  5
64B
330
18
100
AcDbEntity
  8
TEXT
100
AcDbPolyline
 90
        3
 70
     0
 43
0.0006660908203125
 10
-0.6660989109568228
 20
-0.2011214493708948
 10
-0.5528634715036969
 20
-0.2011214493708948
 10
-0.5528634715036969
 20
-0.0878860099177672
  0
LWPOLYLINE
  5
64C
330
18
100
AcDbEntity
  8
TEXT
100
AcDbPolyline
 90
        3
 70
     0
 43
0.0006660908203125
 10
-0.6660989109568228
 20
-0.1744778165583938
 10
-0.5795071043161979
 20
-0.1744778165583938
 10
-0.5795071043161979
 20
-0.0878860099177672
  0
LWPOLYLINE
  5
64D
330
18
100
AcDbEntity
  8
TEXT
100
AcDbPolyline
 90
        2
 70
     0
 43
0.0001332181640625
 10
-0.5795071043161979
 20
-0.1744778165583938
 10
-0.6394552781443217
 20
-0.1145296427302682
  0
LWPOLYLINE
  5
64E
330
18
100
AcDbEntity
  8
TEXT
100
AcDbPolyline
 90
        2
 70
     0
 43
0.0001332181640625
 10
-0.5795071043161979
 20
-0.0878860099177672
 10
-0.6394552781443217
 20
-0.077894647613082
  0
LWPOLYLINE
  5
64F
330
18
100
AcDbEntity
  8
TEXT
100
AcDbPolyline
 90
        2
 70
     0
 43
0.0001332181640625
 10
-0.5528634715036969
 20
-0.0878860099177672
 10
-0.626133461738073
 20
-0.077894647613082
  0
LWPOLYLINE
  5
650
330
18
100
AcDbEntity
  8
TEXT
100
AcDbPolyline
 90
        2
 70
     0
 43
0.0001332181640625
 10
-0.5795071043161979
 20
0.0386712459416074
 10
-0.6394552781443217
 20
-0.0212769278865181
  0
LWPOLYLINE
  5
651
330
18
100
AcDbEntity
  8
TEXT
100
AcDbPolyline
 90
        2
 70
     0
 43
0.0001332181640625
 10
-0.5795071043161979
 20
-0.0479205606990192
 10
-0.6394552781443217
 20
-0.057911923003708
  0
LWPOLYLINE
  5
652
330
18
100
AcDbEntity
  8
TEXT
100
AcDbPolyline
 90
        2
 70
     0
 43
0.0001332181640625
 10
-0.626133461738073
 20
-0.057911923003708
 10
-0.5528634715036969
 20
-0.0479205606990192
  0
LWPOLYLINE
  5
653
330
18
100
AcDbEntity
  8
TEXT
100
AcDbPolyline
 90
        3
 70
     0
 43
0.0006660908203125
 10
-0.5795071043161979
 20
-0.0479205606990192
 10
-0.5795071043161979
 20
0.0386712459416074
 10
-0.6660989109568228
 20
0.0386712459416074
  0
LWPOLYLINE
  5
654
330
18
100
AcDbEntity
  8
TEXT
100
AcDbPolyline
 90
        3
 70
     0
 43
0.0006660908203125
 10
-0.5528634715036969
 20
-0.0479205606990192
 10
-0.5528634715036969
 20
0.0653148787541085
 10
-0.6660989109568228
 20
0.0653148787541085
  0
ENDSEC
  0
SECTION
  2
OBJECTS
  0
DICTIONARY
  5
C
330
0
100
AcDbDictionary
  3
ACAD_GROUP
350
D
  3
ACAD_LAYOUT
350
659
  3
ACAD_MLINESTYLE
350
E
  3
ACAD_PLOTSETTINGS
350
65A
  3
ACAD_PLOTSTYLENAME
350
657
  3
ACDBHEADERROUNDTRIPXREC
350
665
  3
ACDBVARIABLEDICTIONARY
350
662
  0
DICTIONARY
  5
687
330
18
100
AcDbDictionary
280
     1
  3
ACAD_LAYOUTSELFREF
360
688
  0
DICTIONARY
  5
685
330
15
100
AcDbDictionary
280
     1
  3
ACAD_LAYOUTSELFREF
360
686
  0
DICTIONARY
  5
D
102
{ACAD_REACTORS
330
C
102
}
330
C
100
AcDbDictionary
  0
DICTIONARY
  5
659
102
{ACAD_REACTORS
330
C
102
}
330
C
100
AcDbDictionary
  0
DICTIONARY
  5
E
102
{ACAD_REACTORS
330
C
102
}
330
C
100
AcDbDictionary
  3
STANDARD
350
1B
  0
DICTIONARY
  5
65A
102
{ACAD_REACTORS
330
C
102
}
330
C
100
AcDbDictionary
  0
ACDBDICTIONARYWDFLT
  5
657
102
{ACAD_REACTORS
330
C
102
}
330
C
100
AcDbDictionary
281
     1
  3
Normal
350
658
100
AcDbDictionaryWithDefault
340
658
  0
DICTIONARY
  5
665
102
{ACAD_REACTORS
330
C
102
}
330
C
100
AcDbDictionary
  3
CEPSNTYPE
350
66F
  3
FINGERPRINTGUID
350
670
  3
HYPERLINKBASE
350
668
  3
INSUNITS
350
66E
  3
LAYOUTDICT
350
66A
  3
LWETCUNION
350
66D
  3
PLOTSETDICT
350
66B
  3
PLOTSTYLNAMDICT
350
66C
  3
PSVPSCALE
350
672
  3
PUCSBASE
350
675
  3
PUCSORGBACK
350
67B
  3
PUCSORGBOTTOM
350
677
  3
PUCSORGFRONT
350
67A
  3
PUCSORGLEFT
350
678
  3
PUCSORGRIGHT
350
679
  3
PUCSORGTOP
350
676
  3
PUCSORTHOREF
350
673
  3
PUCSORTHOVIEW
350
674
  3
STYLESHEET
350
669
  3
TSTACKALIGN
350
666
  3
TSTACKSIZE
350
667
  3
UCSBASE
350
67E
  3
UCSORGBACK
350
684
  3
UCSORGBOTTOM
350
680
  3
UCSORGFRONT
350
683
  3
UCSORGLEFT
350
681
  3
UCSORGRIGHT
350
682
  3
UCSORGTOP
350
67F
  3
UCSORTHOREF
350
67C
  3
UCSORTHOVIEW
350
67D
  3
VERSIONGUID
350
671
  0
DICTIONARY
  5
662
102
{ACAD_REACTORS
330
C
102
}
330
C
100
AcDbDictionary
  3
DIMASSOC
350
663
  0
XRECORD
  5
688
102
{ACAD_REACTORS
330
687
102
}
330
687
100
AcDbXrecord
340
18
  0
XRECORD
  5
686
102
{ACAD_REACTORS
330
685
102
}
330
685
100
AcDbXrecord
340
15
  0
MLINESTYLE
  5
1B
102
{ACAD_REACTORS
330
E
102
}
330
E
100
AcDbMlineStyle
  2
STANDARD
 70
     0
  3

 62
     0
 51
90.0
 52
90.0
 71
     2
 49
0.5
 62
   256
  6
BYLAYER
 49
-0.5
 62
   256
  6
BYLAYER
  0
ACDBPLACEHOLDER
  5
658
102
{ACAD_REACTORS
330
657
102
}
330
657
100
AcDbPlaceHolder
280
     0
  0
XRECORD
  5
66F
102
{ACAD_REACTORS
330
665
102
}
330
665
100
AcDbXrecord
 90
        0
  0
XRECORD
  5
670
102
{ACAD_REACTORS
330
665
102
}
330
665
100
AcDbXrecord
  1
{053E70B0-8DB5-11D6-88E6-0090279574E7}
  0
XRECORD
  5
668
102
{ACAD_REACTORS
330
665
102
}
330
665
100
AcDbXrecord
  1

  0
XRECORD
  5
66E
102
{ACAD_REACTORS
330
665
102
}
330
665
100
AcDbXrecord
 90
        0
  0
XRECORD
  5
66A
102
{ACAD_REACTORS
330
665
102
}
330
665
100
AcDbXrecord
340
659
  0
XRECORD
  5
66D
102
{ACAD_REACTORS
330
665
102
}
330
665
100
AcDbXrecord
 90
    14877
  0
XRECORD
  5
66B
102
{ACAD_REACTORS
330
665
102
}
330
665
100
AcDbXrecord
340
65A
  0
XRECORD
  5
66C
102
{ACAD_REACTORS
330
665
102
}
330
665
100
AcDbXrecord
340
657
  0
XRECORD
  5
672
102
{ACAD_REACTORS
330
665
102
}
330
665
100
AcDbXrecord
 40
0.0
  0
XRECORD
  5
675
102
{ACAD_REACTORS
330
665
102
}
330
665
100
AcDbXrecord
340
0
  0
XRECORD
  5
67B
102
{ACAD_REACTORS
330
665
102
}
330
665
100
AcDbXrecord
 10
0.0
 20
0.0
 30
0.0
  0
XRECORD
  5
677
102
{ACAD_REACTORS
330
665
102
}
330
665
100
AcDbXrecord
 10
0.0
 20
0.0
 30
0.0
  0
XRECORD
  5
67A
102
{ACAD_REACTORS
330
665
102
}
330
665
100
AcDbXrecord
 10
0.0
 20
0.0
 30
0.0
  0
XRECORD
  5
678
102
{ACAD_REACTORS
330
665
102
}
330
665
100
AcDbXrecord
 10
0.0
 20
0.0
 30
0.0
  0
XRECORD
  5
679
102
{ACAD_REACTORS
330
665
102
}
330
665
100
AcDbXrecord
 10
0.0
 20
0.0
 30
0.0
  0
XRECORD
  5
676
102
{ACAD_REACTORS
330
665
102
}
330
665
100
AcDbXrecord
 10
0.0
 20
0.0
 30
0.0
  0
XRECORD
  5
673
102
{ACAD_REACTORS
330
665
102
}
330
665
100
AcDbXrecord
340
0
  0
XRECORD
  5
674
102
{ACAD_REACTORS
330
665
102
}
330
665
100
AcDbXrecord
 70
     0
  0
XRECORD
  5
669
102
{ACAD_REACTORS
330
665
102
}
330
665
100
AcDbXrecord
  1

  0
XRECORD
  5
666
102
{ACAD_REACTORS
330
665
102
}
330
665
100
AcDbXrecord
 90
        1
  0
XRECORD
  5
667
102
{ACAD_REACTORS
330
665
102
}
330
665
100
AcDbXrecord
 90
       70
  0
XRECORD
  5
67E
102
{ACAD_REACTORS
330
665
102
}
330
665
100
AcDbXrecord
340
0
  0
XRECORD
  5
684
102
{ACAD_REACTORS
330
665
102
}
330
665
100
AcDbXrecord
 10
0.0
 20
0.0
 30
0.0
  0
XRECORD
  5
680
102
{ACAD_REACTORS
330
665
102
}
330
665
100
AcDbXrecord
 10
0.0
 20
0.0
 30
0.0
  0
XRECORD
  5
683
102
{ACAD_REACTORS
330
665
102
}
330
665
100
AcDbXrecord
 10
0.0
 20
0.0
 30
0.0
  0
XRECORD
  5
681
102
{ACAD_REACTORS
330
665
102
}
330
665
100
AcDbXrecord
 10
0.0
 20
0.0
 30
0.0
  0
XRECORD
  5
682
102
{ACAD_REACTORS
330
665
102
}
330
665
100
AcDbXrecord
 10
0.0
 20
0.0
 30
0.0
  0
XRECORD
  5
67F
102
{ACAD_REACTORS
330
665
102
}
330
665
100
AcDbXrecord
 10
0.0
 20
0.0
 30
0.0
  0
XRECORD
  5
67C
102
{ACAD_REACTORS
330
665
102
}
330
665
100
AcDbXrecord
340
0
  0
XRECORD
  5
67D
102
{ACAD_REACTORS
330
665
102
}
330
665
100
AcDbXrecord
 70
     0
  0
XRECORD
  5
671
102
{ACAD_REACTORS
330
665
102
}
330
665
100
AcDbXrecord
  1
{053E70B2-8DB5-11D6-88E6-0090279574E7}
  0
DICTIONARYVAR
  5
663
102
{ACAD_REACTORS
330
662
102
}
330
662
100
DictionaryVariables
280
     0
  1
1
  0
ENDSEC
  0
EOF
