  0
SECTION
  2
HEADER
  9
$ACADVER
  1
AC1014
  9
$ACADMAINTVER
 70
     9
  9
$DWGCODEPAGE
  3
ANSI_1252
  9
$INSBASE
 10
1.814024398678409
 20
1.709212259416337
 30
0.0
  9
$EXTMIN
 10
0.0589724373614626
 20
0.8005827364568212
 30
0.0
  9
$EXTMAX
 10
3.54419175910859
 20
1.85436237626913
 30
0.0
  9
$LIMMIN
 10
0.0
 20
0.0
  9
$LIMMAX
 10
18.0
 20
12.0
  9
$ORTHOMODE
 70
     1
  9
$REGENMODE
 70
     1
  9
$FILLMODE
 70
     1
  9
$QTEXTMODE
 70
     0
  9
$MIRRTEXT
 70
     0
  9
$DRAGMODE
 70
     2
  9
$LTSCALE
 40
1.0
  9
$OSMODE
 70
    39
  9
$ATTMODE
 70
     1
  9
$TEXTSIZE
 40
0.125
  9
$TRACEWID
 40
0.05
  9
$TEXTSTYLE
  7
ROMANS
  9
$CLAYER
  8
0
  9
$CELTYPE
  6
BYLAYER
  9
$CECOLOR
 62
   256
  9
$CELTSCALE
 40
1.0
  9
$DELOBJ
 70
     1
  9
$DISPSILH
 70
     1
  9
$DIMSCALE
 40
1.0
  9
$DIMASZ
 40
0.125
  9
$DIMEXO
 40
0.125
  9
$DIMDLI
 40
0.375
  9
$DIMRND
 40
0.0
  9
$DIMDLE
 40
0.0
  9
$DIMEXE
 40
0.125
  9
$DIMTP
 40
0.0
  9
$DIMTM
 40
0.0
  9
$DIMTXT
 40
0.125
  9
$DIMCEN
 40
-0.125
  9
$DIMTSZ
 40
0.0
  9
$DIMTOL
 70
     0
  9
$DIMLIM
 70
     0
  9
$DIMTIH
 70
     1
  9
$DIMTOH
 70
     1
  9
$DIMSE1
 70
     0
  9
$DIMSE2
 70
     0
  9
$DIMTAD
 70
     0
  9
$DIMZIN
 70
     4
  9
$DIMBLK
  1

  9
$DIMASO
 70
     1
  9
$DIMSHO
 70
     1
  9
$DIMPOST
  1

  9
$DIMAPOST
  1

  9
$DIMALT
 70
     0
  9
$DIMALTD
 70
     2
  9
$DIMALTF
 40
25.4
  9
$DIMLFAC
 40
1.0
  9
$DIMTOFL
 70
     0
  9
$DIMTVP
 40
0.0
  9
$DIMTIX
 70
     1
  9
$DIMSOXD
 70
     0
  9
$DIMSAH
 70
     0
  9
$DIMBLK1
  1

  9
$DIMBLK2
  1

  9
$DIMSTYLE
  2
STANDARD
  9
$DIMCLRD
 70
     0
  9
$DIMCLRE
 70
     0
  9
$DIMCLRT
 70
     0
  9
$DIMTFAC
 40
1.0
  9
$DIMGAP
 40
0.09
  9
$DIMJUST
 70
     0
  9
$DIMSD1
 70
     0
  9
$DIMSD2
 70
     0
  9
$DIMTOLJ
 70
     1
  9
$DIMTZIN
 70
     4
  9
$DIMALTZ
 70
     0
  9
$DIMALTTZ
 70
     0
  9
$DIMFIT
 70
     3
  9
$DIMUPT
 70
     0
  9
$DIMUNIT
 70
     2
  9
$DIMDEC
 70
     3
  9
$DIMTDEC
 70
     3
  9
$DIMALTU
 70
     2
  9
$DIMALTTD
 70
     2
  9
$DIMTXSTY
  7
ROMANS
  9
$DIMAUNIT
 70
     0
  9
$LUNITS
 70
     2
  9
$LUPREC
 70
     3
  9
$SKETCHINC
 40
0.1
  9
$FILLETRAD
 40
0.03125
  9
$AUNITS
 70
     0
  9
$AUPREC
 70
     0
  9
$MENU
  1
ACAD
  9
$ELEVATION
 40
0.0
  9
$PELEVATION
 40
0.0
  9
$THICKNESS
 40
0.0
  9
$LIMCHECK
 70
     0
  9
$BLIPMODE
 70
     0
  9
$CHAMFERA
 40
0.0
  9
$CHAMFERB
 40
0.0
  9
$CHAMFERC
 40
0.0
  9
$CHAMFERD
 40
0.0
  9
$SKPOLY
 70
     0
  9
$TDCREATE
 40
2448994.450640741
  9
$TDUPDATE
 40
2452458.300492823
  9
$TDINDWG
 40
0.0004850231
  9
$TDUSRTIMER
 40
0.0004850231
  9
$USRTIMER
 70
     1
  9
$ANGBASE
 50
0.0
  9
$ANGDIR
 70
     0
  9
$PDMODE
 70
     0
  9
$PDSIZE
 40
0.0
  9
$PLINEWID
 40
0.0
  9
$COORDS
 70
     2
  9
$SPLFRAME
 70
     0
  9
$SPLINETYPE
 70
     6
  9
$SPLINESEGS
 70
     8
  9
$ATTDIA
 70
     0
  9
$ATTREQ
 70
     1
  9
$HANDLING
 70
 22529
  9
$HANDSEED
  5
7DE1B343D9DA16D
  9
$SURFTAB1
 70
     6
  9
$SURFTAB2
 70
     6
  9
$SURFTYPE
 70
     6
  9
$SURFU
 70
     6
  9
$SURFV
 70
     6
  9
$UCSNAME
  2

  9
$UCSORG
 10
0.0
 20
0.0
 30
0.0
  9
$UCSXDIR
 10
1.0
 20
0.0
 30
0.0
  9
$UCSYDIR
 10
0.0
 20
1.0
 30
0.0
  9
$PUCSNAME
  2

  9
$PUCSORG
 10
0.0
 20
0.0
 30
0.0
  9
$PUCSXDIR
 10
1.0
 20
0.0
 30
0.0
  9
$PUCSYDIR
 10
0.0
 20
1.0
 30
0.0
  9
$USERI1
 70
     0
  9
$USERI2
 70
     0
  9
$USERI3
 70
     0
  9
$USERI4
 70
     0
  9
$USERI5
 70
     0
  9
$USERR1
 40
0.0
  9
$USERR2
 40
0.0
  9
$USERR3
 40
0.0
  9
$USERR4
 40
0.0
  9
$USERR5
 40
0.0
  9
$WORLDVIEW
 70
     1
  9
$SHADEDGE
 70
     3
  9
$SHADEDIF
 70
    70
  9
$TILEMODE
 70
     1
  9
$MAXACTVP
 70
    16
  9
$PINSBASE
 10
0.685512938027593
 20
50.00000000000001
 30
0.5457317132189382
  9
$PLIMCHECK
 70
     0
  9
$PEXTMIN
 10
1.000000000000000E+20
 20
1.000000000000000E+20
 30
1.000000000000000E+20
  9
$PEXTMAX
 10
-1.000000000000000E+20
 20
-1.000000000000000E+20
 30
-1.000000000000000E+20
  9
$PLIMMIN
 10
0.0
 20
0.0
  9
$PLIMMAX
 10
12.0
 20
9.0
  9
$UNITMODE
 70
     0
  9
$VISRETAIN
 70
     0
  9
$PLINEGEN
 70
     1
  9
$PSLTSCALE
 70
     0
  9
$TREEDEPTH
 70
  3020
  9
$PICKSTYLE
 70
     1
  9
$CMLSTYLE
  2
STANDARD
  9
$CMLJUST
 70
     0
  9
$CMLSCALE
 40
1.0
  9
$PROXYGRAPHICS
 70
     1
  9
$MEASUREMENT
 70
     0
  0
ENDSEC
  0
SECTION
  2
CLASSES
  0
CLASS
  1
LWPOLYLINE
  2
AcDbPolyline
  3
AutoCAD 2000
 90
        0
280
     0
281
     1
  0
CLASS
  1
ACDBDICTIONARYWDFLT
  2
AcDbDictionaryWithDefault
  3
AutoCAD 2000
 90
        0
280
     0
281
     0
  0
CLASS
  1
ACDBPLACEHOLDER
  2
AcDbPlaceHolder
  3
AutoCAD 2000
 90
        0
280
     0
281
     0
  0
CLASS
  1
LAYOUT
  2
AcDbLayout
  3
AutoCAD 2000
 90
        0
280
     0
281
     0
  0
CLASS
  1
DICTIONARYVAR
  2
AcDbDictionaryVar
  3
AutoCAD 2000
 90
        0
280
     0
281
     0
  0
CLASS
  1
LONG_TRANSACTION
  2
AcDbLongTransaction
  3
AutoCAD 2000
 90
        0
280
     0
281
     0
  0
CLASS
  1
LWPOLYLINE
  2
AcDbPolyline
  3
AutoCAD 2000
 90
        0
280
     0
281
     1
  0
CLASS
  1
HATCH
  2
AcDbHatch
  3
AutoCAD 2000
 90
        0
280
     0
281
     1
  0
CLASS
  1
XRECORD
  2
AcDbXrecord
  3
AutoCAD 2000
 90
        0
280
     0
281
     0
  0
ENDSEC
  0
SECTION
  2
TABLES
  0
TABLE
  2
VPORT
  5
7DE1B343D9DA114
330
0
100
AcDbSymbolTable
 70
     2
  0
VPORT
  5
7DE1B343D9DA148
330
7DE1B343D9DA114
100
AcDbSymbolTableRecord
100
AcDbViewportTableRecord
  2
*ACTIVE
 70
     0
 10
0.0
 20
0.0
 11
1.0
 21
1.0
 12
4.778231464169987
 22
1.327148459999762
 13
0.0
 23
0.0
 14
0.015625
 24
0.015625
 15
0.0
 25
0.0
 16
0.0
 26
0.0
 36
1.0
 17
0.0
 27
0.0
 37
0.0
 40
2.282647215150728
 41
4.320930232558139
 42
50.0
 43
0.0
 44
0.0
 50
0.0
 51
0.0
 71
     0
 72
  2000
 73
     1
 74
     0
 75
     0
 76
     0
 77
     0
 78
     0
  0
ENDTAB
  0
TABLE
  2
LTYPE
  5
7DE1B343D9DA111
330
0
100
AcDbSymbolTable
 70
     1
  0
LTYPE
  5
7DE1B343D9DA11E
330
7DE1B343D9DA111
100
AcDbSymbolTableRecord
100
AcDbLinetypeTableRecord
  2
BYBLOCK
 70
     0
  3

 72
    65
 73
     0
 40
0.0
  0
LTYPE
  5
7DE1B343D9DA11F
330
7DE1B343D9DA111
100
AcDbSymbolTableRecord
100
AcDbLinetypeTableRecord
  2
BYLAYER
 70
     0
  3

 72
    65
 73
     0
 40
0.0
  0
LTYPE
  5
7DE1B343D9DA120
330
7DE1B343D9DA111
100
AcDbSymbolTableRecord
100
AcDbLinetypeTableRecord
  2
CONTINUOUS
 70
     0
  3
Solid line
 72
    65
 73
     0
 40
0.0
  0
ENDTAB
  0
TABLE
  2
LAYER
  5
7DE1B343D9DA10E
330
0
100
AcDbSymbolTable
 70
     2
  0
LAYER
  5
7DE1B343D9DA11B
330
7DE1B343D9DA10E
100
AcDbSymbolTableRecord
100
AcDbLayerTableRecord
  2
0
 70
     0
 62
     7
  6
CONTINUOUS
  0
LAYER
  5
7DE1B343D9DA12B
330
7DE1B343D9DA10E
100
AcDbSymbolTableRecord
100
AcDbLayerTableRecord
  2
TEXT
 70
     0
 62
     3
  6
CONTINUOUS
  0
ENDTAB
  0
TABLE
  2
STYLE
  5
7DE1B343D9DA10F
330
0
100
AcDbSymbolTable
 70
     3
  0
STYLE
  5
7DE1B343D9DA11C
330
7DE1B343D9DA10F
100
AcDbSymbolTableRecord
100
AcDbTextStyleTableRecord
  2
STANDARD
 70
     0
 40
0.0
 41
1.0
 50
0.0
 71
     0
 42
0.3125
  3
txt
  4

  0
STYLE
  5
7DE1B343D9DA128
330
7DE1B343D9DA10F
100
AcDbSymbolTableRecord
100
AcDbTextStyleTableRecord
  2
ITALICC
 70
     0
 40
0.0
 41
1.0
 50
0.0
 71
     0
 42
0.125
  3
italicc
  4

  0
STYLE
  5
7DE1B343D9DA138
330
7DE1B343D9DA10F
100
AcDbSymbolTableRecord
100
AcDbTextStyleTableRecord
  2
ROMANS
 70
     0
 40
0.0
 41
1.0
 50
0.0
 71
     0
 42
0.125
  3
romans.shx
  4

  0
ENDTAB
  0
TABLE
  2
VIEW
  5
7DE1B343D9DA112
330
0
100
AcDbSymbolTable
 70
     0
  0
ENDTAB
  0
TABLE
  2
UCS
  5
7DE1B343D9DA113
330
0
100
AcDbSymbolTable
 70
     0
  0
ENDTAB
  0
TABLE
  2
APPID
  5
7DE1B343D9DA115
330
0
100
AcDbSymbolTable
 70
     1
  0
APPID
  5
7DE1B343D9DA11D
330
7DE1B343D9DA115
100
AcDbSymbolTableRecord
100
AcDbRegAppTableRecord
  2
ACAD
 70
     0
  0
ENDTAB
  0
TABLE
  2
DIMSTYLE
  5
7DE1B343D9DA116
330
0
100
AcDbSymbolTable
 70
     1
  0
DIMSTYLE
105
7DE1B343D9DA130
330
7DE1B343D9DA116
100
AcDbSymbolTableRecord
100
AcDbDimStyleTableRecord
  2
STANDARD
 70
     0
  3

  4

  5

  6

  7

 40
1.0
 41
0.125
 42
0.125
 43
0.375
 44
0.125
 45
0.0
 46
0.0
 47
0.0
 48
0.0
140
0.125
141
-0.125
142
0.0
143
25.4
144
1.0
145
0.0
146
1.0
147
0.09
 71
     0
 72
     0
 73
     1
 74
     1
 75
     0
 76
     0
 77
     0
 78
     4
170
     0
171
     2
172
     0
173
     0
174
     1
175
     0
176
     0
177
     0
178
     0
270
     2
271
     3
272
     3
273
     2
274
     2
340
7DE1B343D9DA138
275
     0
280
     0
281
     0
282
     0
283
     1
284
     4
285
     0
286
     0
287
     3
288
     0
  0
ENDTAB
  0
TABLE
  2
BLOCK_RECORD
  5
7DE1B343D9DA10D
330
0
100
AcDbSymbolTable
 70
     0
  0
BLOCK_RECORD
  5
7DE1B343D9DA124
102
{ACAD_XDICTIONARY
360
7DE1B343D9DA16B
102
}
330
7DE1B343D9DA10D
100
AcDbSymbolTableRecord
100
AcDbBlockTableRecord
  2
*MODEL_SPACE
  0
BLOCK_RECORD
  5
7DE1B343D9DA121
102
{ACAD_XDICTIONARY
360
7DE1B343D9DA169
102
}
330
7DE1B343D9DA10D
100
AcDbSymbolTableRecord
100
AcDbBlockTableRecord
  2
*PAPER_SPACE
  0
ENDTAB
  0
ENDSEC
  0
SECTION
  2
BLOCKS
  0
BLOCK
  5
7DE1B343D9DA12E
330
7DE1B343D9DA124
100
AcDbEntity
  8
0
100
AcDbBlockBegin
  2
*MODEL_SPACE
 70
     0
 10
0.0
 20
0.0
 30
0.0
  3
*MODEL_SPACE
  1

  0
ENDBLK
  5
7DE1B343D9DA12F
330
7DE1B343D9DA124
100
AcDbEntity
  8
0
100
AcDbBlockEnd
  0
BLOCK
  5
7DE1B343D9DA12C
330
7DE1B343D9DA121
100
AcDbEntity
 67
     1
  8
0
100
AcDbBlockBegin
  2
*PAPER_SPACE
 70
     0
 10
0.0
 20
0.0
 30
0.0
  3
*PAPER_SPACE
  1

  0
ENDBLK
  5
7DE1B343D9DA12D
330
7DE1B343D9DA121
100
AcDbEntity
 67
     1
  8
0
100
AcDbBlockEnd
  0
ENDSEC
  0
SECTION
  2
ENTITIES
  0
LWPOLYLINE
  5
7DE1B343D9D8B57
330
7DE1B343D9DA124
100
AcDbEntity
  8
0
100
AcDbPolyline
 90
       14
 70
     1
 43
0.0
 10
1.578704016588605
 20
1.656862376269123
 10
1.568704016588605
 20
1.666862376269123
 10
1.558704016588606
 20
1.656862376269123
 10
1.239954016588605
 20
1.656862376269123
 42
-0.4142135623730951
 10
1.224954016588605
 20
1.671862376269123
 10
1.224954016588605
 20
1.766862376269123
 42
-0.4142135623730951
 10
1.239954016588605
 20
1.781862376269123
 10
2.010734703381611
 20
1.781862376269123
 42
0.2266538482898642
 10
2.057417568983761
 20
1.804170068576816
 42
-2.83036174046531
 10
2.057417568983766
 20
1.634554683961432
 42
0.226653848289865
 10
2.010734703381611
 20
1.656862376269123
 10
1.811954016588605
 20
1.656862376269123
 10
1.801954016588605
 20
1.666862376269123
 10
1.791954016588606
 20
1.656862376269123
  0
CIRCLE
  5
7DE1B343D9D8B67
330
7DE1B343D9DA124
100
AcDbEntity
  8
0
100
AcDbCircle
 10
2.162454016588605
 20
1.719362376269123
 30
0.0
 40
0.075
  0
TEXT
  5
7DE1B343D9D9FCF
330
7DE1B343D9DA124
100
AcDbEntity
  8
TEXT
100
AcDbText
 10
1.048977826112415
 20
1.258601340539402
 30
0.0
 40
0.125
  1
PART #110204
  7
ITALICC
 72
     1
 11
1.801954016588605
 21
1.258601340539402
 31
0.0
100
AcDbText
  0
TEXT
  5
7DE1B343D9D9FD0
330
7DE1B343D9DA124
100
AcDbEntity
  8
TEXT
100
AcDbText
 10
2.215259174838926
 20
0.8116786978670276
 30
0.0
 40
0.0522247191011236
  1
Phone  1-800-328-2495
 41
1.272321428571429
 72
     5
 11
3.54419175910859
 21
0.8116786978670276
 31
0.0
100
AcDbText
  0
TEXT
  5
7DE1B343D9D9FD1
330
7DE1B343D9DA124
100
AcDbEntity
  8
TEXT
100
AcDbText
 10
2.215259174838926
 20
1.091453978765904
 30
0.0
 40
0.0522247191011236
  1
Stylmark  Incorporated
 41
1.221428571428573
 72
     5
 11
3.54419175910859
 21
1.091453978765904
 31
0.0
100
AcDbText
  0
TEXT
  5
7DE1B343D9D9FD2
330
7DE1B343D9DA124
100
AcDbEntity
  8
TEXT
100
AcDbText
 10
2.215259174838926
 20
0.9981955517996119
 30
0.0
 40
0.0522247191011236
  1
6536 Main St. N.E. * P.O. Box 32008
 41
0.8388932496075366
 72
     5
 11
3.54419175910859
 21
0.9981955517996119
 31
0.0
100
AcDbText
  0
TEXT
  5
7DE1B343D9D9FD3
330
7DE1B343D9DA124
100
AcDbEntity
  8
TEXT
100
AcDbText
 10
2.215259174838926
 20
0.9049371248333198
 30
0.0
 40
0.0522247191011236
  1
Minneapolis, MN 55432-0008
 41
1.11444212721585
 72
     5
 11
3.54419175910859
 21
0.9049371248333198
 31
0.0
100
AcDbText
  0
LWPOLYLINE
  5
7DE1B343D9D9FD4
330
7DE1B343D9DA124
100
AcDbEntity
  8
TEXT
100
AcDbPolyline
 90
        3
 70
     0
 43
0.0006660908203125
 10
0.0593054827716189
 20
0.9253234605044625
 10
0.0593054827716189
 20
0.8120880210513348
 10
0.1725409222247411
 20
0.8120880210513348
  0
LWPOLYLINE
  5
7DE1B343D9D9FD9
330
7DE1B343D9DA124
100
AcDbEntity
  8
TEXT
100
AcDbPolyline
 90
        3
 70
     0
 43
0.0006660908203125
 10
0.0859491155841164
 20
0.9253234605044625
 10
0.0859491155841164
 20
0.8387316538638359
 10
0.1725409222247411
 20
0.8387316538638359
  0
LWPOLYLINE
  5
7DE1B343D9D9FDE
330
7DE1B343D9DA124
100
AcDbEntity
  8
TEXT
100
AcDbPolyline
 90
        2
 70
     0
 43
0.0001332181640625
 10
0.1325754730059931
 20
0.9353148228091477
 10
0.0593054827716189
 20
0.9253234605044625
  0
LWPOLYLINE
  5
7DE1B343D9D9FE2
330
7DE1B343D9DA124
100
AcDbEntity
  8
TEXT
100
AcDbPolyline
 90
        2
 70
     0
 43
0.0001332181640625
 10
0.0859491155841164
 20
0.9253234605044625
 10
0.1458972894122437
 20
0.9353148228091477
  0
LWPOLYLINE
  5
7DE1B343D9D9FE6
330
7DE1B343D9DA124
100
AcDbEntity
  8
TEXT
100
AcDbPolyline
 90
        2
 70
     0
 43
0.0001332181640625
 10
0.0859491155841164
 20
0.8387316538638359
 10
0.1458972894122437
 20
0.8986798276919614
  0
LWPOLYLINE
  5
7DE1B343D9D9FEA
330
7DE1B343D9DA124
100
AcDbEntity
  8
TEXT
100
AcDbPolyline
 90
        3
 70
     0
 43
0.0006660908203125
 10
0.1725409222247411
 20
1.078524349176338
 10
0.0593054827716189
 20
1.078524349176338
 10
0.0593054827716189
 20
0.9652889097232105
  0
LWPOLYLINE
  5
7DE1B343D9D9FEF
330
7DE1B343D9DA124
100
AcDbEntity
  8
TEXT
100
AcDbPolyline
 90
        3
 70
     0
 43
0.0006660908203125
 10
0.1725409222247411
 20
1.051880716363837
 10
0.0859491155841164
 20
1.051880716363837
 10
0.0859491155841164
 20
0.9652889097232105
  0
LWPOLYLINE
  5
7DE1B343D9D9FF4
330
7DE1B343D9DA124
100
AcDbEntity
  8
TEXT
100
AcDbPolyline
 90
        2
 70
     0
 43
0.0001332181640625
 10
0.0859491155841164
 20
1.051880716363837
 10
0.1458972894122419
 20
0.9919325425357115
  0
LWPOLYLINE
  5
7DE1B343D9D9FF8
330
7DE1B343D9DA124
100
AcDbEntity
  8
TEXT
100
AcDbPolyline
 90
        2
 70
     0
 43
0.0001332181640625
 10
0.0859491155841164
 20
0.9652889097232105
 10
0.1458972894122419
 20
0.9552975474185217
  0
LWPOLYLINE
  5
7DE1B343D9D9FFC
330
7DE1B343D9DA124
100
AcDbEntity
  8
TEXT
100
AcDbPolyline
 90
        2
 70
     0
 43
0.0001332181640625
 10
0.0593054827716189
 20
0.9652889097232105
 10
0.1325754730059931
 20
0.9552975474185217
  0
LWPOLYLINE
  5
7DE1B343D9DA000
330
7DE1B343D9DA124
100
AcDbEntity
  8
TEXT
100
AcDbPolyline
 90
        2
 70
     0
 43
0.0006660908203125
 10
0.0859491155841164
 20
0.9253234605044625
 10
0.0593054827716189
 20
0.9253234605044625
  0
LWPOLYLINE
  5
7DE1B343D9DA004
330
7DE1B343D9DA124
100
AcDbEntity
  8
TEXT
100
AcDbPolyline
 90
        2
 70
     0
 43
0.0006660908203125
 10
0.0859491155841164
 20
0.9652889097232105
 10
0.0593054827716189
 20
0.9652889097232105
  0
LINE
  5
7DE1B343D9DA008
330
7DE1B343D9DA124
100
AcDbEntity
  8
TEXT
100
AcDbLine
 10
1.574495911898116
 20
1.014247654519569
 30
0.0
 11
1.467289638510826
 21
1.014247654519569
 31
0.0
  0
LINE
  5
7DE1B343D9DA009
330
7DE1B343D9DA124
100
AcDbEntity
  8
TEXT
100
AcDbLine
 10
1.603526810242594
 20
1.078524349176334
 30
0.0
 11
1.468694901025535
 21
1.078524349176334
 31
0.0
  0
ARC
  5
7DE1B343D9DA00A
330
7DE1B343D9DA124
100
AcDbEntity
  8
TEXT
100
AcDbCircle
 10
1.528008997418852
 20
0.9092870999133182
 30
0.0
 40
0.0676855811441166
100
AcDbArc
 50
90.0
 51
153.7768192527749
  0
LWPOLYLINE
  5
7DE1B343D9DA00B
330
7DE1B343D9DA124
100
AcDbEntity
  8
TEXT
100
AcDbPolyline
 90
        2
 70
     0
 43
0.0
 10
1.466257143056016
 20
0.8555422611382617
 42
0.2901071551932823
 10
1.509333075923652
 20
0.8120513161878236
 42
5.328517124445801
  0
ARC
  5
7DE1B343D9DA00F
330
7DE1B343D9DA124
100
AcDbEntity
  8
TEXT
100
AcDbCircle
 10
0.8228776197473667
 20
0.8718437075258734
 30
0.0
 40
0.0601160179737537
100
AcDbArc
 50
180.0000000000003
 51
264.0521544866073
  0
LINE
  5
7DE1B343D9DA010
330
7DE1B343D9DA124
100
AcDbEntity
  8
TEXT
100
AcDbLine
 10
0.8263929753729147
 20
1.112912266770472
 30
0.0
 11
0.7663503705289077
 21
1.112912266770472
 31
0.0
  0
ARC
  5
7DE1B343D9DA011
330
7DE1B343D9DA124
100
AcDbEntity
  8
TEXT
100
AcDbCircle
 10
0.5906186176303963
 20
0.9964368897298328
 30
0.0
 40
0.0820874594465043
100
AcDbArc
 50
90.0
 51
270.0
  0
LWPOLYLINE
  5
7DE1B343D9DA012
330
7DE1B343D9DA124
100
AcDbEntity
  8
TEXT
100
AcDbPolyline
 90
        2
 70
     0
 43
0.0001332181640625
 10
0.1825322845294317
 20
1.005254358941958
 10
0.1725409222247411
 20
1.078524349176338
  0
LWPOLYLINE
  5
7DE1B343D9DA016
330
7DE1B343D9DA124
100
AcDbEntity
  8
TEXT
100
AcDbPolyline
 90
        2
 70
     0
 43
0.0001332181640625
 10
0.1725409222247411
 20
1.051880716363837
 10
0.1825322845294317
 20
0.9919325425357115
  0
LWPOLYLINE
  5
7DE1B343D9DA01A
330
7DE1B343D9DA124
100
AcDbEntity
  8
TEXT
100
AcDbPolyline
 90
        3
 70
     0
 43
0.0006660908203125
 10
0.3257418108966186
 20
0.9652889097232105
 10
0.3257418108966186
 20
1.078524349176338
 10
0.2125063714434927
 20
1.078524349176338
  0
LWPOLYLINE
  5
7DE1B343D9DA01F
330
7DE1B343D9DA124
100
AcDbEntity
  8
TEXT
100
AcDbPolyline
 90
        3
 70
     0
 43
0.0006660908203125
 10
0.2990981780841175
 20
0.9652889097232105
 10
0.2990981780841175
 20
1.051880716363837
 10
0.2125063714434927
 20
1.051880716363837
  0
LWPOLYLINE
  5
7DE1B343D9DA024
330
7DE1B343D9DA124
100
AcDbEntity
  8
TEXT
100
AcDbPolyline
 90
        2
 70
     0
 43
0.0001332181640625
 10
0.2990981780841175
 20
1.051880716363837
 10
0.2391500042559937
 20
0.9919325425357115
  0
LWPOLYLINE
  5
7DE1B343D9DA028
330
7DE1B343D9DA124
100
AcDbEntity
  8
TEXT
100
AcDbPolyline
 90
        2
 70
     0
 43
0.0001332181640625
 10
0.2125063714434927
 20
1.051880716363837
 10
0.2025150091388039
 20
0.9919325425357115
  0
LWPOLYLINE
  5
7DE1B343D9DA02C
330
7DE1B343D9DA124
100
AcDbEntity
  8
TEXT
100
AcDbPolyline
 90
        2
 70
     0
 43
0.0001332181640625
 10
0.2125063714434927
 20
1.078524349176338
 10
0.2025150091388039
 20
1.005254358941958
  0
LWPOLYLINE
  5
7DE1B343D9DA030
330
7DE1B343D9DA124
100
AcDbEntity
  8
TEXT
100
AcDbPolyline
 90
        2
 70
     0
 43
0.0001332181640625
 10
0.2524718206622425
 20
0.9552975474185217
 10
0.3257418108966186
 20
0.9652889097232105
  0
LWPOLYLINE
  5
7DE1B343D9DA034
330
7DE1B343D9DA124
100
AcDbEntity
  8
TEXT
100
AcDbPolyline
 90
        2
 70
     0
 43
0.0001332181640625
 10
0.2990981780841175
 20
0.9652889097232105
 10
0.2391500042559937
 20
0.9552975474185217
  0
LWPOLYLINE
  5
7DE1B343D9DA038
330
7DE1B343D9DA124
100
AcDbEntity
  8
TEXT
100
AcDbPolyline
 90
        2
 70
     0
 43
0.0001332181640625
 10
0.3257418108966186
 20
0.9253234605044625
 10
0.2524718206622425
 20
0.9353148228091477
  0
LWPOLYLINE
  5
7DE1B343D9DA03C
330
7DE1B343D9DA124
100
AcDbEntity
  8
TEXT
100
AcDbPolyline
 90
        2
 70
     0
 43
0.0001332181640625
 10
0.2990981780841175
 20
0.9253234605044625
 10
0.2391500042559937
 20
0.9353148228091477
  0
LWPOLYLINE
  5
7DE1B343D9DA040
330
7DE1B343D9DA124
100
AcDbEntity
  8
TEXT
100
AcDbPolyline
 90
        2
 70
     0
 43
0.0001332181640625
 10
0.2990981780841175
 20
0.8387316538638359
 10
0.2391500042559937
 20
0.8986798276919614
  0
LWPOLYLINE
  5
7DE1B343D9DA044
330
7DE1B343D9DA124
100
AcDbEntity
  8
TEXT
100
AcDbPolyline
 90
        3
 70
     0
 43
0.0006660908203125
 10
0.2125063714434927
 20
0.8387316538638359
 10
0.2990981780841175
 20
0.8387316538638359
 10
0.2990981780841175
 20
0.9253234605044625
  0
LWPOLYLINE
  5
7DE1B343D9DA049
330
7DE1B343D9DA124
100
AcDbEntity
  8
TEXT
100
AcDbPolyline
 90
        3
 70
     0
 43
0.0006660908203125
 10
0.2125063714434927
 20
0.8120880210513348
 10
0.3257418108966186
 20
0.8120880210513348
 10
0.3257418108966186
 20
0.9253234605044625
  0
LWPOLYLINE
  5
7DE1B343D9DA04E
330
7DE1B343D9DA124
100
AcDbEntity
  8
TEXT
100
AcDbPolyline
 90
        5
 70
     0
 43
0.0001332181640625
 10
0.1825322845294317
 20
0.8853580112857109
 10
0.1825322845294317
 20
0.8986798276919614
 10
0.1458972894122437
 20
0.8986798276919614
 10
0.1458972894122437
 20
0.9353148228091477
 10
0.1325754730059931
 20
0.9353148228091477
  0
LWPOLYLINE
  5
7DE1B343D9DA055
330
7DE1B343D9DA124
100
AcDbEntity
  8
TEXT
100
AcDbPolyline
 90
        2
 70
     0
 43
0.0006660908203125
 10
0.1725409222247411
 20
0.8387316538638359
 10
0.1725409222247411
 20
0.8120880210513348
  0
LWPOLYLINE
  5
7DE1B343D9DA059
330
7DE1B343D9DA124
100
AcDbEntity
  8
TEXT
100
AcDbPolyline
 90
        2
 70
     0
 43
0.0001332181640625
 10
0.1725409222247411
 20
0.8387316538638359
 10
0.1825322845294317
 20
0.8986798276919614
  0
LWPOLYLINE
  5
7DE1B343D9DA05D
330
7DE1B343D9DA124
100
AcDbEntity
  8
TEXT
100
AcDbPolyline
 90
        2
 70
     0
 43
0.0001332181640625
 10
0.1725409222247411
 20
0.8120880210513348
 10
0.1825322845294317
 20
0.8853580112857109
  0
LWPOLYLINE
  5
7DE1B343D9DA061
330
7DE1B343D9DA124
100
AcDbEntity
  8
TEXT
100
AcDbPolyline
 90
        5
 70
     0
 43
0.0001332181640625
 10
0.1325754730059931
 20
0.9552975474185217
 10
0.1458972894122419
 20
0.9552975474185217
 10
0.1458972894122419
 20
0.9919325425357115
 10
0.1825322845294317
 20
0.9919325425357115
 10
0.1825322845294317
 20
1.005254358941958
  0
LWPOLYLINE
  5
7DE1B343D9DA068
330
7DE1B343D9DA124
100
AcDbEntity
  8
TEXT
100
AcDbPolyline
 90
        5
 70
     0
 43
0.0001332181640625
 10
0.2025150091388039
 20
1.005254358941958
 10
0.2025150091388039
 20
0.9919325425357115
 10
0.2391500042559937
 20
0.9919325425357115
 10
0.2391500042559937
 20
0.9552975474185217
 10
0.2524718206622425
 20
0.9552975474185217
  0
LWPOLYLINE
  5
7DE1B343D9DA06F
330
7DE1B343D9DA124
100
AcDbEntity
  8
TEXT
100
AcDbPolyline
 90
        2
 70
     0
 43
0.0001332181640625
 10
0.2125063714434927
 20
0.8387316538638359
 10
0.2025150091388039
 20
0.8986798276919614
  0
LWPOLYLINE
  5
7DE1B343D9DA073
330
7DE1B343D9DA124
100
AcDbEntity
  8
TEXT
100
AcDbPolyline
 90
        2
 70
     0
 43
0.0001332181640625
 10
0.2025150091388039
 20
0.8853580112857109
 10
0.2125063714434927
 20
0.8120880210513348
  0
LWPOLYLINE
  5
7DE1B343D9DA077
330
7DE1B343D9DA124
100
AcDbEntity
  8
TEXT
100
AcDbPolyline
 90
        2
 70
     0
 43
0.0006660908203125
 10
0.2125063714434927
 20
0.8387316538638359
 10
0.2125063714434927
 20
0.8120880210513348
  0
LWPOLYLINE
  5
7DE1B343D9DA07B
330
7DE1B343D9DA124
100
AcDbEntity
  8
TEXT
100
AcDbPolyline
 90
        5
 70
     0
 43
0.0001332181640625
 10
0.2524718206622425
 20
0.9353148228091477
 10
0.2391500042559937
 20
0.9353148228091477
 10
0.2391500042559937
 20
0.8986798276919614
 10
0.2025150091388039
 20
0.8986798276919614
 10
0.2025150091388039
 20
0.8853580112857109
  0
LWPOLYLINE
  5
7DE1B343D9DA082
330
7DE1B343D9DA124
100
AcDbEntity
  8
TEXT
100
AcDbPolyline
 90
        2
 70
     0
 43
0.0006660908203125
 10
0.2990981780841175
 20
0.9652889097232105
 10
0.3257418108966186
 20
0.9652889097232105
  0
LWPOLYLINE
  5
7DE1B343D9DA086
330
7DE1B343D9DA124
100
AcDbEntity
  8
TEXT
100
AcDbPolyline
 90
        2
 70
     0
 43
0.0006660908203125
 10
0.2990981780841175
 20
0.9253234605044625
 10
0.3257418108966186
 20
0.9253234605044625
  0
LINE
  5
7DE1B343D9DA08A
330
7DE1B343D9DA124
100
AcDbEntity
  8
TEXT
100
AcDbLine
 10
0.5958559477446435
 20
1.014247654519569
 30
0.0
 11
0.7627616017736148
 21
1.014247654519569
 31
0.0
  0
LINE
  5
7DE1B343D9DA08B
330
7DE1B343D9DA124
100
AcDbEntity
  8
TEXT
100
AcDbLine
 10
0.6614560839889445
 20
0.9784429329089412
 30
0.0
 11
0.5958559477446435
 21
0.9784429329089412
 31
0.0
  0
LINE
  5
7DE1B343D9DA08C
330
7DE1B343D9DA124
100
AcDbEntity
  8
TEXT
100
AcDbLine
 10
0.5085311581838919
 20
0.8120513161878236
 30
0.0
 11
0.6614560839889445
 21
0.8120513161878236
 31
0.0
  0
LINE
  5
7DE1B343D9DA08D
330
7DE1B343D9DA124
100
AcDbEntity
  8
TEXT
100
AcDbLine
 10
0.6663964578952242
 20
0.8804083225212629
 30
0.0
 11
0.5085311581838901
 21
0.8804083225212629
 31
0.0
  0
LINE
  5
7DE1B343D9DA08E
330
7DE1B343D9DA124
100
AcDbEntity
  8
TEXT
100
AcDbLine
 10
0.5906186176303954
 20
0.9143494302833275
 30
0.0
 11
0.6663964578952242
 21
0.9143494302833275
 31
0.0
  0
ARC
  5
7DE1B343D9DA08F
330
7DE1B343D9DA124
100
AcDbEntity
  8
TEXT
100
AcDbCircle
 10
0.5958559477446444
 20
0.9963452937142569
 30
0.0
 40
0.017902360805315
100
AcDbArc
 50
90.0
 51
270.0
  0
LINE
  5
7DE1B343D9DA090
330
7DE1B343D9DA124
100
AcDbEntity
  8
TEXT
100
AcDbLine
 10
0.5085311581838901
 20
0.8804083225212629
 30
0.0
 11
0.5085311581838919
 21
0.8120513161878236
 31
0.0
  0
LINE
  5
7DE1B343D9DA091
330
7DE1B343D9DA124
100
AcDbEntity
  8
TEXT
100
AcDbLine
 10
0.7627616017736148
 20
1.014247654519569
 30
0.0
 11
0.7627616017736148
 21
0.8718437075258734
 31
0.0
  0
ARC
  5
7DE1B343D9DA092
330
7DE1B343D9DA124
100
AcDbEntity
  8
TEXT
100
AcDbCircle
 10
0.6614560839889454
 20
0.8952471245483806
 30
0.0
 40
0.0831958083605586
100
AcDbArc
 50
270.0
 51
90.0
  0
ARC
  5
7DE1B343D9DA093
330
7DE1B343D9DA124
100
AcDbEntity
  8
TEXT
100
AcDbCircle
 10
0.6663964578952251
 20
0.897378876402297
 30
0.0
 40
0.0169705538810321
100
AcDbArc
 50
270.0
 51
90.0
  0
LWPOLYLINE
  5
7DE1B343D9DA094
330
7DE1B343D9DA124
100
AcDbEntity
  8
TEXT
100
AcDbPolyline
 90
        2
 70
     0
 43
0.0006660908203125
 10
0.1725409222247411
 20
1.051880716363837
 10
0.1725409222247411
 20
1.078524349176338
  0
LWPOLYLINE
  5
7DE1B343D9DA098
330
7DE1B343D9DA124
100
AcDbEntity
  8
TEXT
100
AcDbPolyline
 90
        2
 70
     0
 43
0.0006660908203125
 10
0.2125063714434927
 20
1.051880716363837
 10
0.2125063714434927
 20
1.078524349176338
  0
LINE
  5
7DE1B343D9DA09C
330
7DE1B343D9DA124
100
AcDbEntity
  8
TEXT
100
AcDbLine
 10
0.7663503705289077
 20
1.078524349176334
 30
0.0
 11
0.5906186176303954
 21
1.078524349176334
 31
0.0
  0
LINE
  5
7DE1B343D9DA09D
330
7DE1B343D9DA124
100
AcDbEntity
  8
TEXT
100
AcDbLine
 10
0.7663503705289077
 20
1.112912266770472
 30
0.0
 11
0.7663503705289077
 21
1.078524349176334
 31
0.0
  0
LINE
  5
7DE1B343D9DA09E
330
7DE1B343D9DA124
100
AcDbEntity
  8
TEXT
100
AcDbLine
 10
0.9568222625487599
 20
0.977652353063214
 30
0.0
 11
0.8981919415168221
 21
1.078524349176334
 31
0.0
  0
LINE
  5
7DE1B343D9DA09F
330
7DE1B343D9DA124
100
AcDbEntity
  8
TEXT
100
AcDbLine
 10
1.015570825354625
 20
1.078524349176334
 30
0.0
 11
0.9568222625487599
 21
0.977652353063214
 31
0.0
  0
LINE
  5
7DE1B343D9DA0A0
330
7DE1B343D9DA124
100
AcDbEntity
  8
TEXT
100
AcDbLine
 10
1.112501450714366
 20
0.8944391542908228
 30
0.0
 11
1.112501450714366
 21
1.146535826915145
 31
0.0
  0
LINE
  5
7DE1B343D9DA0A1
330
7DE1B343D9DA124
100
AcDbEntity
  8
TEXT
100
AcDbLine
 10
1.144813304852026
 20
1.078524349176334
 30
0.0
 11
1.144813304852026
 21
0.8776601424439263
 31
0.0
  0
LINE
  5
7DE1B343D9DA0A2
330
7DE1B343D9DA124
100
AcDbEntity
  8
TEXT
100
AcDbLine
 10
1.144813304852026
 20
0.8776601424439263
 30
0.0
 11
1.127819667967425
 21
0.8776601424439263
 31
0.0
  0
LINE
  5
7DE1B343D9DA0A3
330
7DE1B343D9DA124
100
AcDbEntity
  8
TEXT
100
AcDbLine
 10
1.113641024210561
 20
0.8120513161878236
 30
0.0
 11
1.211644357909996
 21
0.8120513161878236
 31
0.0
  0
LINE
  5
7DE1B343D9DA0A4
330
7DE1B343D9DA124
100
AcDbEntity
  8
TEXT
100
AcDbLine
 10
0.9472220255518056
 20
0.8320098222928365
 30
0.0
 11
1.04452173164525
 21
0.9963600332281046
 31
0.0
  0
ARC
  5
7DE1B343D9DA0A5
330
7DE1B343D9DA124
100
AcDbEntity
  8
TEXT
100
AcDbCircle
 10
0.9131784656395915
 20
0.8515990384615193
 30
0.0
 40
0.0392772371940762
100
AcDbArc
 50
270.1604552698595
 51
330.0831797321295
  0
LINE
  5
7DE1B343D9DA0A6
330
7DE1B343D9DA124
100
AcDbEntity
  8
TEXT
100
AcDbLine
 10
0.8166482092537204
 20
0.8120513161878236
 30
0.0
 11
0.9132884603287148
 21
0.8123219552861058
 31
0.0
  0
LWPOLYLINE
  5
7DE1B343D9DA0A7
330
7DE1B343D9DA124
100
AcDbEntity
  8
TEXT
100
AcDbPolyline
 90
        6
 70
     1
 43
0.0
 10
0.8591720128288699
 20
1.014247654519569
 10
0.8288554186086617
 20
1.014247654519569
 10
0.8288554186086617
 20
0.8911366564646748
 42
0.407328721240804
 10
0.8403990697701381
 20
0.8793177417882887
 10
0.9010207688148689
 20
0.8793177417882887
 10
0.9184861092221868
 20
0.9121299708317678
  0
LINE
  5
7DE1B343D9DA0AF
330
7DE1B343D9DA124
100
AcDbEntity
  8
TEXT
100
AcDbLine
 10
1.04452173164525
 20
0.9963600332281046
 30
0.0
 11
1.04452173164525
 21
0.8636026584027483
 31
0.0
  0
ARC
  5
7DE1B343D9DA0B0
330
7DE1B343D9DA124
100
AcDbEntity
  8
TEXT
100
AcDbCircle
 10
1.127819667967423
 20
0.8930419486873518
 30
0.0
 40
0.0153818062434269
100
AcDbArc
 50
174.7883570302258
 51
270.0
  0
LWPOLYLINE
  5
7DE1B343D9DA0B1
330
7DE1B343D9DA124
100
AcDbEntity
  8
TEXT
100
AcDbPolyline
 90
        2
 70
     0
 43
0.0
 10
1.044521731645248
 20
0.8636026584027518
 42
0.3318488747599744
 10
1.113641024210561
 20
0.8120513161878236
 42
-6.868794160588311
  0
LINE
  5
7DE1B343D9DA0B5
330
7DE1B343D9DA124
100
AcDbEntity
  8
TEXT
100
AcDbLine
 10
1.269033426899257
 20
0.8120513161878236
 30
0.0
 11
1.336091473681097
 21
0.8120513161878236
 31
0.0
  0
LINE
  5
7DE1B343D9DA0B6
330
7DE1B343D9DA124
100
AcDbEntity
  8
TEXT
100
AcDbLine
 10
1.269033426899257
 20
1.006693865353459
 30
0.0
 11
1.269033426899257
 21
0.8120513161878236
 31
0.0
  0
LINE
  5
7DE1B343D9DA0B7
330
7DE1B343D9DA124
100
AcDbEntity
  8
TEXT
100
AcDbLine
 10
1.211644357909996
 20
1.014247654519569
 30
0.0
 11
1.261479637733143
 21
1.014247654519569
 31
0.0
  0
LINE
  5
7DE1B343D9DA0B8
330
7DE1B343D9DA124
100
AcDbEntity
  8
TEXT
100
AcDbLine
 10
1.211644357909996
 20
0.8120513161878236
 30
0.0
 11
1.211644357909996
 21
1.014247654519569
 31
0.0
  0
LWPOLYLINE
  5
7DE1B343D9DA0B9
330
7DE1B343D9DA124
100
AcDbEntity
  8
TEXT
100
AcDbPolyline
 90
        2
 70
     0
 43
0.0
 10
1.261479637733141
 20
1.014247654519569
 42
-0.4142135623731017
 10
1.269033426899255
 20
1.006693865353459
 42
-0.9999999999999998
  0
LINE
  5
7DE1B343D9DA0BD
330
7DE1B343D9DA124
100
AcDbEntity
  8
TEXT
100
AcDbLine
 10
1.467289638510826
 20
1.014247654519569
 30
0.0
 11
1.467289638510826
 21
0.9391952484453625
 31
0.0
  0
LINE
  5
7DE1B343D9DA0BE
330
7DE1B343D9DA124
100
AcDbEntity
  8
TEXT
100
AcDbLine
 10
1.336091473681097
 20
1.014247654519569
 30
0.0
 11
1.390225070602047
 21
1.014247654519569
 31
0.0
  0
LINE
  5
7DE1B343D9DA0BF
330
7DE1B343D9DA124
100
AcDbEntity
  8
TEXT
100
AcDbLine
 10
1.336091473681097
 20
0.8120513161878236
 30
0.0
 11
1.336091473681097
 21
1.014247654519569
 31
0.0
  0
LWPOLYLINE
  5
7DE1B343D9DA0C0
330
7DE1B343D9DA124
100
AcDbEntity
  8
TEXT
100
AcDbPolyline
 90
        2
 70
     0
 43
0.0
 10
1.390225070602045
 20
1.014247654519569
 42
-0.4142135623731017
 10
1.397778859768159
 20
1.006693865353459
 42
-0.9999999999999998
  0
LWPOLYLINE
  5
7DE1B343D9DA0C4
330
7DE1B343D9DA124
100
AcDbEntity
  8
TEXT
100
AcDbPolyline
 90
        4
 70
     0
 43
0.0
 10
1.397778859768159
 20
1.006693865353459
 10
1.397778859768159
 20
0.8120513161878236
 10
1.466257143056016
 20
0.8120513161878236
 10
1.466257143056016
 20
0.8555422611382617
 42
-1.714843617202739
  0
LINE
  5
7DE1B343D9DA0CA
330
7DE1B343D9DA124
100
AcDbEntity
  8
TEXT
100
AcDbLine
 10
0.8263929753729147
 20
1.078524349176334
 30
0.0
 11
0.8263929753729147
 21
1.112912266770472
 31
0.0
  0
LINE
  5
7DE1B343D9DA0CB
330
7DE1B343D9DA124
100
AcDbEntity
  8
TEXT
100
AcDbLine
 10
0.8981919415168221
 20
1.078524349176334
 30
0.0
 11
0.8263929753729147
 21
1.078524349176334
 31
0.0
  0
LINE
  5
7DE1B343D9DA0CC
330
7DE1B343D9DA124
100
AcDbEntity
  8
TEXT
100
AcDbLine
 10
1.045692738148001
 20
1.078524349176334
 30
0.0
 11
1.015570825354625
 21
1.078524349176334
 31
0.0
  0
LINE
  5
7DE1B343D9DA0CD
330
7DE1B343D9DA124
100
AcDbEntity
  8
TEXT
100
AcDbLine
 10
1.045692738148001
 20
1.146535826915145
 30
0.0
 11
1.045692738148001
 21
1.078524349176334
 31
0.0
  0
LINE
  5
7DE1B343D9DA0CE
330
7DE1B343D9DA124
100
AcDbEntity
  8
TEXT
100
AcDbLine
 10
1.112501450714366
 20
1.146535826915145
 30
0.0
 11
1.045692738148001
 21
1.146535826915145
 31
0.0
  0
LWPOLYLINE
  5
7DE1B343D9DA0CF
330
7DE1B343D9DA124
100
AcDbEntity
  8
TEXT
100
AcDbPolyline
 90
        3
 70
     0
 43
0.0
 10
1.432913210312368
 20
1.078524349176338
 10
1.314613051496324
 20
1.078524349176338
 10
1.314613051496324
 20
1.051356852415442
 42
-1.960274751411753
  0
LINE
  5
7DE1B343D9DA0D4
330
7DE1B343D9DA124
100
AcDbEntity
  8
TEXT
100
AcDbLine
 10
1.278831360783163
 20
1.078524349176334
 30
0.0
 11
1.144813304852026
 21
1.078524349176334
 31
0.0
  0
LWPOLYLINE
  5
7DE1B343D9DA0D5
330
7DE1B343D9DA124
100
AcDbEntity
  8
TEXT
100
AcDbPolyline
 90
        2
 70
     0
 43
0.0
 10
1.278831360783163
 20
1.078524349176338
 42
-0.3328679258950098
 10
1.314613051496324
 20
1.051356852415442
 42
6.772930709997214
  0
LINE
  5
7DE1B343D9DA0D9
330
7DE1B343D9DA124
100
AcDbEntity
  8
TEXT
100
AcDbLine
 10
1.468694901025535
 20
1.078524349176334
 30
0.0
 11
1.468694901025535
 21
1.05020180340669
 31
0.0
  0
LWPOLYLINE
  5
7DE1B343D9DA0DA
330
7DE1B343D9DA124
100
AcDbEntity
  8
TEXT
100
AcDbPolyline
 90
        2
 70
     0
 43
0.0
 10
1.432913210312368
 20
1.078524349176338
 42
-0.3277054968067132
 10
1.468694901025533
 20
1.050201803406694
 42
6.667889725900311
  0
LINE
  5
7DE1B343D9DA0DE
330
7DE1B343D9DA124
100
AcDbEntity
  8
TEXT
100
AcDbLine
 10
1.682486749117635
 20
0.9733123706229072
 30
0.0
 11
1.638735977935734
 21
1.055562646619052
 31
0.0
  0
LINE
  5
7DE1B343D9DA0DF
330
7DE1B343D9DA124
100
AcDbEntity
  8
TEXT
100
AcDbLine
 10
1.682486749117635
 20
1.078524349176334
 30
0.0
 11
1.682486749117635
 21
0.9733123706229072
 31
0.0
  0
LINE
  5
7DE1B343D9DA0E0
330
7DE1B343D9DA124
100
AcDbEntity
  8
TEXT
100
AcDbLine
 10
1.910170488056004
 20
1.002659022764796
 30
0.0
 11
1.910170488056004
 21
1.143988554943935
 31
0.0
  0
LINE
  5
7DE1B343D9DA0E1
330
7DE1B343D9DA124
100
AcDbEntity
  8
TEXT
100
AcDbLine
 10
1.957268646611989
 20
1.078524349176334
 30
0.0
 11
1.910170488056004
 21
1.002659022764796
 31
0.0
  0
LINE
  5
7DE1B343D9DA0E2
330
7DE1B343D9DA124
100
AcDbEntity
  8
TEXT
100
AcDbLine
 10
1.967703363375912
 20
0.968631106235361
 30
0.0
 11
2.032260479341617
 21
1.078524349176334
 31
0.0
  0
LINE
  5
7DE1B343D9DA0E3
330
7DE1B343D9DA124
100
AcDbEntity
  8
TEXT
100
AcDbLine
 10
1.846335496833231
 20
0.8120513161878236
 30
0.0
 11
1.910713681151852
 21
0.8120513161878236
 31
0.0
  0
LWPOLYLINE
  5
7DE1B343D9DA0E4
330
7DE1B343D9DA124
100
AcDbEntity
  8
TEXT
100
AcDbPolyline
 90
        2
 70
     0
 43
0.0
 10
1.686426426422673
 20
0.8555422611382617
 42
-0.2901071551932486
 10
1.643350493555029
 20
0.8120513161878236
 42
-5.328517124445184
  0
ARC
  5
7DE1B343D9DA0E8
330
7DE1B343D9DA124
100
AcDbEntity
  8
TEXT
100
AcDbCircle
 10
1.574495911898114
 20
0.9858882795195718
 30
0.0
 40
0.028359375
100
AcDbArc
 50
25.78218179591245
 51
90.0
  0
LINE
  5
7DE1B343D9DA0E9
330
7DE1B343D9DA124
100
AcDbEntity
  8
TEXT
100
AcDbLine
 10
1.610296987202237
 20
0.9769726810574368
 30
0.0
 11
1.600032226788673
 21
0.9982232206301311
 31
0.0
  0
LINE
  5
7DE1B343D9DA0EA
330
7DE1B343D9DA124
100
AcDbEntity
  8
TEXT
100
AcDbLine
 10
1.528008997418854
 20
0.9769726810574368
 30
0.0
 11
1.610296987202237
 21
0.9769726810574368
 31
0.0
  0
LWPOLYLINE
  5
7DE1B343D9DA0EB
330
7DE1B343D9DA124
100
AcDbEntity
  8
TEXT
100
AcDbPolyline
 90
        4
 70
     1
 43
0.0
 10
1.623228028485136
 20
0.9150152941718488
 10
1.534567709825278
 20
0.9150152941718488
 42
0.9999999999999998
 10
1.534567709825278
 20
0.8726167536679881
 10
1.623228028485136
 20
0.8726167536679881
 42
1.0
  0
LWPOLYLINE
  5
7DE1B343D9DA0F1
330
7DE1B343D9DA124
100
AcDbEntity
  8
TEXT
100
AcDbPolyline
 90
        2
 70
     0
 43
0.0
 10
1.509333075923652
 20
0.8120513161878236
 10
1.643350493555029
 20
0.8120513161878236
 42
0.9999999999999998
  0
LINE
  5
7DE1B343D9DA0F5
330
7DE1B343D9DA124
100
AcDbEntity
  8
TEXT
100
AcDbLine
 10
1.769687515540668
 20
1.014247654519569
 30
0.0
 11
1.846335496833226
 21
1.014247654519569
 31
0.0
  0
LINE
  5
7DE1B343D9DA0F6
330
7DE1B343D9DA124
100
AcDbEntity
  8
TEXT
100
AcDbLine
 10
1.846335496833226
 20
1.014247654519569
 30
0.0
 11
1.846335496833231
 21
0.8120513161878236
 31
0.0
  0
ARC
  5
7DE1B343D9DA0F7
330
7DE1B343D9DA124
100
AcDbEntity
  8
TEXT
100
AcDbCircle
 10
1.769687515540666
 20
0.9893417792369064
 30
0.0
 40
0.0249058752826653
100
AcDbArc
 50
89.99971217465335
 51
179.9999999999985
  0
LINE
  5
7DE1B343D9DA0F8
330
7DE1B343D9DA124
100
AcDbEntity
  8
TEXT
100
AcDbLine
 10
1.744781640258009
 20
0.8120513161878236
 30
0.0
 11
1.744781640258004
 21
0.989341821619292
 31
0.0
  0
LWPOLYLINE
  5
7DE1B343D9DA0F9
330
7DE1B343D9DA124
100
AcDbEntity
  8
TEXT
100
AcDbPolyline
 90
        2
 70
     0
 43
0.0
 10
1.686426426422673
 20
0.8120513161878236
 10
1.744781640258007
 20
0.8120513161878236
  0
LWPOLYLINE
  5
7DE1B343D9DA0FD
330
7DE1B343D9DA124
100
AcDbEntity
  8
TEXT
100
AcDbPolyline
 90
        2
 70
     0
 43
0.0
 10
1.686426426422673
 20
0.8555422611382617
 10
1.686426426422673
 20
0.8120513161878236
  0
LINE
  5
7DE1B343D9DA101
330
7DE1B343D9DA124
100
AcDbEntity
  8
TEXT
100
AcDbLine
 10
2.063195586739522
 20
0.8120513161878236
 30
0.0
 11
1.967703363375912
 21
0.968631106235361
 31
0.0
  0
LINE
  5
7DE1B343D9DA102
330
7DE1B343D9DA124
100
AcDbEntity
  8
TEXT
100
AcDbLine
 10
1.986617214363316
 20
0.8120513161878236
 30
0.0
 11
2.063195586739522
 21
0.8120513161878236
 31
0.0
  0
LINE
  5
7DE1B343D9DA103
330
7DE1B343D9DA124
100
AcDbEntity
  8
TEXT
100
AcDbLine
 10
1.910713681151852
 20
0.9436308846640038
 30
0.0
 11
1.986617214363316
 21
0.8120513161878236
 31
0.0
  0
LINE
  5
7DE1B343D9DA104
330
7DE1B343D9DA124
100
AcDbEntity
  8
TEXT
100
AcDbLine
 10
1.910713681151852
 20
0.8120513161878236
 30
0.0
 11
1.910713681151852
 21
0.9436308846640038
 31
0.0
  0
LINE
  5
7DE1B343D9DA105
330
7DE1B343D9DA124
100
AcDbEntity
  8
TEXT
100
AcDbLine
 10
1.910170488056004
 20
1.143988554943935
 30
0.0
 11
1.841855609506731
 21
1.143988554943935
 31
0.0
  0
ARC
  5
7DE1B343D9DA106
330
7DE1B343D9DA124
100
AcDbEntity
  8
TEXT
100
AcDbCircle
 10
1.601499870465525
 20
1.036940782055432
 30
0.0
 40
0.0416329381542859
100
AcDbArc
 50
26.56974201007528
 51
87.20939649401342
  0
LINE
  5
7DE1B343D9DA107
330
7DE1B343D9DA124
100
AcDbEntity
  8
TEXT
100
AcDbLine
 10
1.746383655417136
 20
1.078524349176334
 30
0.0
 11
1.682486749117635
 21
1.078524349176334
 31
0.0
  0
LINE
  5
7DE1B343D9DA108
330
7DE1B343D9DA124
100
AcDbEntity
  8
TEXT
100
AcDbLine
 10
1.746383655417136
 20
1.050976699315459
 30
0.0
 11
1.746383655417136
 21
1.078524349176334
 31
0.0
  0
ARC
  5
7DE1B343D9DA109
330
7DE1B343D9DA124
100
AcDbEntity
  8
TEXT
100
AcDbCircle
 10
1.777576472480244
 20
1.047278621894069
 30
0.0
 40
0.0314112657011332
100
AcDbArc
 50
95.88484768694724
 51
173.2388340632136
  0
LINE
  5
7DE1B343D9DA10A
330
7DE1B343D9DA124
100
AcDbEntity
  8
TEXT
100
AcDbLine
 10
1.841855609506726
 20
1.078524349176334
 30
0.0
 11
1.774355891857209
 21
1.078524349176334
 31
0.0
  0
LINE
  5
7DE1B343D9DA10B
330
7DE1B343D9DA124
100
AcDbEntity
  8
TEXT
100
AcDbLine
 10
1.841855609506731
 20
1.143988554943935
 30
0.0
 11
1.841855609506726
 21
1.078524349176334
 31
0.0
  0
LINE
  5
7DE1B343D9DA10C
330
7DE1B343D9DA124
100
AcDbEntity
  8
TEXT
100
AcDbLine
 10
2.032260479341617
 20
1.078524349176334
 30
0.0
 11
1.957268646611991
 21
1.078524349176334
 31
0.0
  0
ENDSEC
  0
SECTION
  2
OBJECTS
  0
DICTIONARY
  5
7DE1B343D9DA118
330
0
100
AcDbDictionary
  3
ACAD_GROUP
350
7DE1B343D9DA119
  3
ACAD_LAYOUT
350
7DE1B343D9DA13E
  3
ACAD_MLINESTYLE
350
7DE1B343D9DA11A
  3
ACAD_PLOTSETTINGS
350
7DE1B343D9DA13F
  3
ACAD_PLOTSTYLENAME
350
7DE1B343D9DA13C
  3
ACDBHEADERROUNDTRIPXREC
350
7DE1B343D9DA149
  3
ACDBVARIABLEDICTIONARY
350
7DE1B343D9DA146
  0
DICTIONARY
  5
7DE1B343D9DA16B
330
7DE1B343D9DA124
100
AcDbDictionary
280
     1
  3
ACAD_LAYOUTSELFREF
360
7DE1B343D9DA16C
  0
DICTIONARY
  5
7DE1B343D9DA169
330
7DE1B343D9DA121
100
AcDbDictionary
280
     1
  3
ACAD_LAYOUTSELFREF
360
7DE1B343D9DA16A
  0
DICTIONARY
  5
7DE1B343D9DA119
102
{ACAD_REACTORS
330
7DE1B343D9DA118
102
}
330
7DE1B343D9DA118
100
AcDbDictionary
  0
DICTIONARY
  5
7DE1B343D9DA13E
102
{ACAD_REACTORS
330
7DE1B343D9DA118
102
}
330
7DE1B343D9DA118
100
AcDbDictionary
  0
DICTIONARY
  5
7DE1B343D9DA11A
102
{ACAD_REACTORS
330
7DE1B343D9DA118
102
}
330
7DE1B343D9DA118
100
AcDbDictionary
  3
STANDARD
350
7DE1B343D9DA127
  0
DICTIONARY
  5
7DE1B343D9DA13F
102
{ACAD_REACTORS
330
7DE1B343D9DA118
102
}
330
7DE1B343D9DA118
100
AcDbDictionary
  0
ACDBDICTIONARYWDFLT
  5
7DE1B343D9DA13C
102
{ACAD_REACTORS
330
7DE1B343D9DA118
102
}
330
7DE1B343D9DA118
100
AcDbDictionary
281
     1
  3
Normal
350
7DE1B343D9DA13D
100
AcDbDictionaryWithDefault
340
7DE1B343D9DA13D
  0
DICTIONARY
  5
7DE1B343D9DA149
102
{ACAD_REACTORS
330
7DE1B343D9DA118
102
}
330
7DE1B343D9DA118
100
AcDbDictionary
  3
CEPSNTYPE
350
7DE1B343D9DA153
  3
FINGERPRINTGUID
350
7DE1B343D9DA154
  3
HYPERLINKBASE
350
7DE1B343D9DA14C
  3
INSUNITS
350
7DE1B343D9DA152
  3
LAYOUTDICT
350
7DE1B343D9DA14E
  3
LWETCUNION
350
7DE1B343D9DA151
  3
PLOTSETDICT
350
7DE1B343D9DA14F
  3
PLOTSTYLNAMDICT
350
7DE1B343D9DA150
  3
PSVPSCALE
350
7DE1B343D9DA156
  3
PUCSBASE
350
7DE1B343D9DA159
  3
PUCSORGBACK
350
7DE1B343D9DA15F
  3
PUCSORGBOTTOM
350
7DE1B343D9DA15B
  3
PUCSORGFRONT
350
7DE1B343D9DA15E
  3
PUCSORGLEFT
350
7DE1B343D9DA15C
  3
PUCSORGRIGHT
350
7DE1B343D9DA15D
  3
PUCSORGTOP
350
7DE1B343D9DA15A
  3
PUCSORTHOREF
350
7DE1B343D9DA157
  3
PUCSORTHOVIEW
350
7DE1B343D9DA158
  3
STYLESHEET
350
7DE1B343D9DA14D
  3
TSTACKALIGN
350
7DE1B343D9DA14A
  3
TSTACKSIZE
350
7DE1B343D9DA14B
  3
UCSBASE
350
7DE1B343D9DA162
  3
UCSORGBACK
350
7DE1B343D9DA168
  3
UCSORGBOTTOM
350
7DE1B343D9DA164
  3
UCSORGFRONT
350
7DE1B343D9DA167
  3
UCSORGLEFT
350
7DE1B343D9DA165
  3
UCSORGRIGHT
350
7DE1B343D9DA166
  3
UCSORGTOP
350
7DE1B343D9DA163
  3
UCSORTHOREF
350
7DE1B343D9DA160
  3
UCSORTHOVIEW
350
7DE1B343D9DA161
  3
VERSIONGUID
350
7DE1B343D9DA155
  0
DICTIONARY
  5
7DE1B343D9DA146
102
{ACAD_REACTORS
330
7DE1B343D9DA118
102
}
330
7DE1B343D9DA118
100
AcDbDictionary
  3
DIMASSOC
350
7DE1B343D9DA147
  0
XRECORD
  5
7DE1B343D9DA16C
102
{ACAD_REACTORS
330
7DE1B343D9DA16B
102
}
330
7DE1B343D9DA16B
100
AcDbXrecord
340
7DE1B343D9DA124
  0
XRECORD
  5
7DE1B343D9DA16A
102
{ACAD_REACTORS
330
7DE1B343D9DA169
102
}
330
7DE1B343D9DA169
100
AcDbXrecord
340
7DE1B343D9DA121
  0
MLINESTYLE
  5
7DE1B343D9DA127
102
{ACAD_REACTORS
330
7DE1B343D9DA11A
102
}
330
7DE1B343D9DA11A
100
AcDbMlineStyle
  2
STANDARD
 70
     0
  3

 62
     0
 51
90.0
 52
90.0
 71
     2
 49
0.5
 62
   256
  6
BYLAYER
 49
-0.5
 62
   256
  6
BYLAYER
  0
ACDBPLACEHOLDER
  5
7DE1B343D9DA13D
102
{ACAD_REACTORS
330
7DE1B343D9DA13C
102
}
330
7DE1B343D9DA13C
100
AcDbPlaceHolder
280
     0
  0
XRECORD
  5
7DE1B343D9DA153
102
{ACAD_REACTORS
330
7DE1B343D9DA149
102
}
330
7DE1B343D9DA149
100
AcDbXrecord
 90
        0
  0
XRECORD
  5
7DE1B343D9DA154
102
{ACAD_REACTORS
330
7DE1B343D9DA149
102
}
330
7DE1B343D9DA149
100
AcDbXrecord
  1
{010AACB0-8DB5-11D6-88E6-0090279574E7}
  0
XRECORD
  5
7DE1B343D9DA14C
102
{ACAD_REACTORS
330
7DE1B343D9DA149
102
}
330
7DE1B343D9DA149
100
AcDbXrecord
  1

  0
XRECORD
  5
7DE1B343D9DA152
102
{ACAD_REACTORS
330
7DE1B343D9DA149
102
}
330
7DE1B343D9DA149
100
AcDbXrecord
 90
        0
  0
XRECORD
  5
7DE1B343D9DA14E
102
{ACAD_REACTORS
330
7DE1B343D9DA149
102
}
330
7DE1B343D9DA149
100
AcDbXrecord
340
7DE1B343D9DA13E
  0
XRECORD
  5
7DE1B343D9DA151
102
{ACAD_REACTORS
330
7DE1B343D9DA149
102
}
330
7DE1B343D9DA149
100
AcDbXrecord
 90
    14877
  0
XRECORD
  5
7DE1B343D9DA14F
102
{ACAD_REACTORS
330
7DE1B343D9DA149
102
}
330
7DE1B343D9DA149
100
AcDbXrecord
340
7DE1B343D9DA13F
  0
XRECORD
  5
7DE1B343D9DA150
102
{ACAD_REACTORS
330
7DE1B343D9DA149
102
}
330
7DE1B343D9DA149
100
AcDbXrecord
340
7DE1B343D9DA13C
  0
XRECORD
  5
7DE1B343D9DA156
102
{ACAD_REACTORS
330
7DE1B343D9DA149
102
}
330
7DE1B343D9DA149
100
AcDbXrecord
 40
0.0
  0
XRECORD
  5
7DE1B343D9DA159
102
{ACAD_REACTORS
330
7DE1B343D9DA149
102
}
330
7DE1B343D9DA149
100
AcDbXrecord
340
0
  0
XRECORD
  5
7DE1B343D9DA15F
102
{ACAD_REACTORS
330
7DE1B343D9DA149
102
}
330
7DE1B343D9DA149
100
AcDbXrecord
 10
0.0
 20
0.0
 30
0.0
  0
XRECORD
  5
7DE1B343D9DA15B
102
{ACAD_REACTORS
330
7DE1B343D9DA149
102
}
330
7DE1B343D9DA149
100
AcDbXrecord
 10
0.0
 20
0.0
 30
0.0
  0
XRECORD
  5
7DE1B343D9DA15E
102
{ACAD_REACTORS
330
7DE1B343D9DA149
102
}
330
7DE1B343D9DA149
100
AcDbXrecord
 10
0.0
 20
0.0
 30
0.0
  0
XRECORD
  5
7DE1B343D9DA15C
102
{ACAD_REACTORS
330
7DE1B343D9DA149
102
}
330
7DE1B343D9DA149
100
AcDbXrecord
 10
0.0
 20
0.0
 30
0.0
  0
XRECORD
  5
7DE1B343D9DA15D
102
{ACAD_REACTORS
330
7DE1B343D9DA149
102
}
330
7DE1B343D9DA149
100
AcDbXrecord
 10
0.0
 20
0.0
 30
0.0
  0
XRECORD
  5
7DE1B343D9DA15A
102
{ACAD_REACTORS
330
7DE1B343D9DA149
102
}
330
7DE1B343D9DA149
100
AcDbXrecord
 10
0.0
 20
0.0
 30
0.0
  0
XRECORD
  5
7DE1B343D9DA157
102
{ACAD_REACTORS
330
7DE1B343D9DA149
102
}
330
7DE1B343D9DA149
100
AcDbXrecord
340
0
  0
XRECORD
  5
7DE1B343D9DA158
102
{ACAD_REACTORS
330
7DE1B343D9DA149
102
}
330
7DE1B343D9DA149
100
AcDbXrecord
 70
     0
  0
XRECORD
  5
7DE1B343D9DA14D
102
{ACAD_REACTORS
330
7DE1B343D9DA149
102
}
330
7DE1B343D9DA149
100
AcDbXrecord
  1

  0
XRECORD
  5
7DE1B343D9DA14A
102
{ACAD_REACTORS
330
7DE1B343D9DA149
102
}
330
7DE1B343D9DA149
100
AcDbXrecord
 90
        1
  0
XRECORD
  5
7DE1B343D9DA14B
102
{ACAD_REACTORS
330
7DE1B343D9DA149
102
}
330
7DE1B343D9DA149
100
AcDbXrecord
 90
       70
  0
XRECORD
  5
7DE1B343D9DA162
102
{ACAD_REACTORS
330
7DE1B343D9DA149
102
}
330
7DE1B343D9DA149
100
AcDbXrecord
340
0
  0
XRECORD
  5
7DE1B343D9DA168
102
{ACAD_REACTORS
330
7DE1B343D9DA149
102
}
330
7DE1B343D9DA149
100
AcDbXrecord
 10
0.0
 20
0.0
 30
0.0
  0
XRECORD
  5
7DE1B343D9DA164
102
{ACAD_REACTORS
330
7DE1B343D9DA149
102
}
330
7DE1B343D9DA149
100
AcDbXrecord
 10
0.0
 20
0.0
 30
0.0
  0
XRECORD
  5
7DE1B343D9DA167
102
{ACAD_REACTORS
330
7DE1B343D9DA149
102
}
330
7DE1B343D9DA149
100
AcDbXrecord
 10
0.0
 20
0.0
 30
0.0
  0
XRECORD
  5
7DE1B343D9DA165
102
{ACAD_REACTORS
330
7DE1B343D9DA149
102
}
330
7DE1B343D9DA149
100
AcDbXrecord
 10
0.0
 20
0.0
 30
0.0
  0
XRECORD
  5
7DE1B343D9DA166
102
{ACAD_REACTORS
330
7DE1B343D9DA149
102
}
330
7DE1B343D9DA149
100
AcDbXrecord
 10
0.0
 20
0.0
 30
0.0
  0
XRECORD
  5
7DE1B343D9DA163
102
{ACAD_REACTORS
330
7DE1B343D9DA149
102
}
330
7DE1B343D9DA149
100
AcDbXrecord
 10
0.0
 20
0.0
 30
0.0
  0
XRECORD
  5
7DE1B343D9DA160
102
{ACAD_REACTORS
330
7DE1B343D9DA149
102
}
330
7DE1B343D9DA149
100
AcDbXrecord
340
0
  0
XRECORD
  5
7DE1B343D9DA161
102
{ACAD_REACTORS
330
7DE1B343D9DA149
102
}
330
7DE1B343D9DA149
100
AcDbXrecord
 70
     0
  0
XRECORD
  5
7DE1B343D9DA155
102
{ACAD_REACTORS
330
7DE1B343D9DA149
102
}
330
7DE1B343D9DA149
100
AcDbXrecord
  1
{010AACB2-8DB5-11D6-88E6-0090279574E7}
  0
DICTIONARYVAR
  5
7DE1B343D9DA147
102
{ACAD_REACTORS
330
7DE1B343D9DA146
102
}
330
7DE1B343D9DA146
100
DictionaryVariables
280
     0
  1
1
  0
ENDSEC
  0
EOF
