  0
SECTION
  2
HEADER
  9
$ACADVER
  1
AC1014
  9
$ACADMAINTVER
 70
     9
  9
$DWGCODEPAGE
  3
ANSI_1252
  9
$INSBASE
 10
8.265625
 20
4.453125
 30
0.0
  9
$EXTMIN
 10
-0.8800906859051444
 20
-0.2794462159729291
 30
0.0
  9
$EXTMAX
 10
2.605128635841984
 20
1.533611107294014
 30
0.0
  9
$LIMMIN
 10
0.0
 20
0.0
  9
$LIMMAX
 10
8.5
 20
11.0
  9
$ORTHOMODE
 70
     1
  9
$REGENMODE
 70
     1
  9
$FILLMODE
 70
     1
  9
$QTEXTMODE
 70
     0
  9
$MIRRTEXT
 70
     0
  9
$DRAGMODE
 70
     2
  9
$LTSCALE
 40
0.7
  9
$OSMODE
 70
    39
  9
$ATTMODE
 70
     1
  9
$TEXTSIZE
 40
0.125
  9
$TRACEWID
 40
0.05
  9
$TEXTSTYLE
  7
ROMANS
  9
$CLAYER
  8
0
  9
$CELTYPE
  6
BYLAYER
  9
$CECOLOR
 62
   256
  9
$CELTSCALE
 40
1.0
  9
$DELOBJ
 70
     1
  9
$DISPSILH
 70
     1
  9
$DIMSCALE
 40
1.0
  9
$DIMASZ
 40
0.125
  9
$DIMEXO
 40
0.125
  9
$DIMDLI
 40
0.375
  9
$DIMRND
 40
0.0
  9
$DIMDLE
 40
0.0
  9
$DIMEXE
 40
0.125
  9
$DIMTP
 40
0.0
  9
$DIMTM
 40
0.01
  9
$DIMTXT
 40
0.125
  9
$DIMCEN
 40
-0.125
  9
$DIMTSZ
 40
0.0
  9
$DIMTOL
 70
     0
  9
$DIMLIM
 70
     0
  9
$DIMTIH
 70
     1
  9
$DIMTOH
 70
     1
  9
$DIMSE1
 70
     0
  9
$DIMSE2
 70
     0
  9
$DIMTAD
 70
     0
  9
$DIMZIN
 70
     4
  9
$DIMBLK
  1

  9
$DIMASO
 70
     1
  9
$DIMSHO
 70
     1
  9
$DIMPOST
  1

  9
$DIMAPOST
  1

  9
$DIMALT
 70
     0
  9
$DIMALTD
 70
     2
  9
$DIMALTF
 40
25.4
  9
$DIMLFAC
 40
0.25
  9
$DIMTOFL
 70
     0
  9
$DIMTVP
 40
0.0
  9
$DIMTIX
 70
     1
  9
$DIMSOXD
 70
     0
  9
$DIMSAH
 70
     0
  9
$DIMBLK1
  1

  9
$DIMBLK2
  1

  9
$DIMSTYLE
  2
STANDARD
  9
$DIMCLRD
 70
     0
  9
$DIMCLRE
 70
     0
  9
$DIMCLRT
 70
     0
  9
$DIMTFAC
 40
1.0
  9
$DIMGAP
 40
0.09
  9
$DIMJUST
 70
     0
  9
$DIMSD1
 70
     0
  9
$DIMSD2
 70
     0
  9
$DIMTOLJ
 70
     1
  9
$DIMTZIN
 70
     0
  9
$DIMALTZ
 70
     0
  9
$DIMALTTZ
 70
     0
  9
$DIMFIT
 70
     3
  9
$DIMUPT
 70
     0
  9
$DIMUNIT
 70
     2
  9
$DIMDEC
 70
     3
  9
$DIMTDEC
 70
     4
  9
$DIMALTU
 70
     2
  9
$DIMALTTD
 70
     2
  9
$DIMTXSTY
  7
ROMANS
  9
$DIMAUNIT
 70
     0
  9
$LUNITS
 70
     2
  9
$LUPREC
 70
     3
  9
$SKETCHINC
 40
0.1
  9
$FILLETRAD
 40
0.025
  9
$AUNITS
 70
     0
  9
$AUPREC
 70
     0
  9
$MENU
  1
ACAD
  9
$ELEVATION
 40
0.0
  9
$PELEVATION
 40
0.0
  9
$THICKNESS
 40
0.0
  9
$LIMCHECK
 70
     0
  9
$BLIPMODE
 70
     0
  9
$CHAMFERA
 40
0.0
  9
$CHAMFERB
 40
0.0
  9
$CHAMFERC
 40
0.0
  9
$CHAMFERD
 40
0.0
  9
$SKPOLY
 70
     0
  9
$TDCREATE
 40
2449695.446003819
  9
$TDUPDATE
 40
2452458.300409027
  9
$TDINDWG
 40
0.0060370602
  9
$TDUSRTIMER
 40
0.0060370602
  9
$USRTIMER
 70
     1
  9
$ANGBASE
 50
0.0
  9
$ANGDIR
 70
     0
  9
$PDMODE
 70
     0
  9
$PDSIZE
 40
0.0
  9
$PLINEWID
 40
0.0
  9
$COORDS
 70
     2
  9
$SPLFRAME
 70
     0
  9
$SPLINETYPE
 70
     6
  9
$SPLINESEGS
 70
     8
  9
$ATTDIA
 70
     0
  9
$ATTREQ
 70
     1
  9
$HANDLING
 70
 22529
  9
$HANDSEED
  5
3F3
  9
$SURFTAB1
 70
     6
  9
$SURFTAB2
 70
     6
  9
$SURFTYPE
 70
     6
  9
$SURFU
 70
     6
  9
$SURFV
 70
     6
  9
$UCSNAME
  2

  9
$UCSORG
 10
0.0
 20
0.0
 30
0.0
  9
$UCSXDIR
 10
1.0
 20
0.0
 30
0.0
  9
$UCSYDIR
 10
0.0
 20
1.0
 30
0.0
  9
$PUCSNAME
  2

  9
$PUCSORG
 10
0.0
 20
0.0
 30
0.0
  9
$PUCSXDIR
 10
1.0
 20
0.0
 30
0.0
  9
$PUCSYDIR
 10
0.0
 20
1.0
 30
0.0
  9
$USERI1
 70
     0
  9
$USERI2
 70
     0
  9
$USERI3
 70
     0
  9
$USERI4
 70
     0
  9
$USERI5
 70
     0
  9
$USERR1
 40
0.0
  9
$USERR2
 40
0.0
  9
$USERR3
 40
0.0
  9
$USERR4
 40
0.0
  9
$USERR5
 40
0.0
  9
$WORLDVIEW
 70
     1
  9
$SHADEDGE
 70
     3
  9
$SHADEDIF
 70
    70
  9
$TILEMODE
 70
     1
  9
$MAXACTVP
 70
    16
  9
$PINSBASE
 10
0.0
 20
0.0
 30
0.0
  9
$PLIMCHECK
 70
     0
  9
$PEXTMIN
 10
1.000000000000000E+20
 20
1.000000000000000E+20
 30
1.000000000000000E+20
  9
$PEXTMAX
 10
-1.000000000000000E+20
 20
-1.000000000000000E+20
 30
-1.000000000000000E+20
  9
$PLIMMIN
 10
0.0
 20
0.0
  9
$PLIMMAX
 10
12.0
 20
9.0
  9
$UNITMODE
 70
     0
  9
$VISRETAIN
 70
     0
  9
$PLINEGEN
 70
     1
  9
$PSLTSCALE
 70
     0
  9
$TREEDEPTH
 70
  3020
  9
$PICKSTYLE
 70
     1
  9
$CMLSTYLE
  2
STANDARD
  9
$CMLJUST
 70
     0
  9
$CMLSCALE
 40
1.0
  9
$PROXYGRAPHICS
 70
     1
  9
$MEASUREMENT
 70
     0
  0
ENDSEC
  0
SECTION
  2
CLASSES
  0
CLASS
  1
LWPOLYLINE
  2
AcDbPolyline
  3
AutoCAD 2000
 90
        0
280
     0
281
     1
  0
CLASS
  1
ACDBDICTIONARYWDFLT
  2
AcDbDictionaryWithDefault
  3
AutoCAD 2000
 90
        0
280
     0
281
     0
  0
CLASS
  1
ACDBPLACEHOLDER
  2
AcDbPlaceHolder
  3
AutoCAD 2000
 90
        0
280
     0
281
     0
  0
CLASS
  1
LAYOUT
  2
AcDbLayout
  3
AutoCAD 2000
 90
        0
280
     0
281
     0
  0
CLASS
  1
DICTIONARYVAR
  2
AcDbDictionaryVar
  3
AutoCAD 2000
 90
        0
280
     0
281
     0
  0
CLASS
  1
LONG_TRANSACTION
  2
AcDbLongTransaction
  3
AutoCAD 2000
 90
        0
280
     0
281
     0
  0
CLASS
  1
LWPOLYLINE
  2
AcDbPolyline
  3
AutoCAD 2000
 90
        0
280
     0
281
     1
  0
CLASS
  1
HATCH
  2
AcDbHatch
  3
AutoCAD 2000
 90
        0
280
     0
281
     1
  0
CLASS
  1
XRECORD
  2
AcDbXrecord
  3
AutoCAD 2000
 90
        0
280
     0
281
     0
  0
ENDSEC
  0
SECTION
  2
TABLES
  0
TABLE
  2
VPORT
  5
8
330
0
100
AcDbSymbolTable
 70
     2
  0
VPORT
  5
3CE
330
8
100
AcDbSymbolTableRecord
100
AcDbViewportTableRecord
  2
*ACTIVE
 70
     0
 10
0.0
 20
0.0
 11
1.0
 21
1.0
 12
3.785068753783477
 22
0.629821854556873
 13
0.0
 23
0.0
 14
0.015625
 24
0.015625
 15
0.0
 25
0.0
 16
0.0
 26
0.0
 36
1.0
 17
0.0
 27
0.0
 37
0.0
 40
2.164235145745973
 41
4.320930232558139
 42
50.0
 43
0.0
 44
0.0
 50
0.0
 51
0.0
 71
     0
 72
  2000
 73
     1
 74
     1
 75
     0
 76
     0
 77
     0
 78
     0
  0
ENDTAB
  0
TABLE
  2
LTYPE
  5
5
330
0
100
AcDbSymbolTable
 70
     1
  0
LTYPE
  5
12
330
5
100
AcDbSymbolTableRecord
100
AcDbLinetypeTableRecord
  2
BYBLOCK
 70
     0
  3

 72
    65
 73
     0
 40
0.0
  0
LTYPE
  5
13
330
5
100
AcDbSymbolTableRecord
100
AcDbLinetypeTableRecord
  2
BYLAYER
 70
     0
  3

 72
    65
 73
     0
 40
0.0
  0
LTYPE
  5
14
330
5
100
AcDbSymbolTableRecord
100
AcDbLinetypeTableRecord
  2
CONTINUOUS
 70
     0
  3
Solid line
 72
    65
 73
     0
 40
0.0
  0
ENDTAB
  0
TABLE
  2
LAYER
  5
2
330
0
100
AcDbSymbolTable
 70
     2
  0
LAYER
  5
F
330
2
100
AcDbSymbolTableRecord
100
AcDbLayerTableRecord
  2
0
 70
     0
 62
     7
  6
CONTINUOUS
  0
LAYER
  5
24
330
2
100
AcDbSymbolTableRecord
100
AcDbLayerTableRecord
  2
TEXT
 70
     0
 62
     3
  6
CONTINUOUS
  0
ENDTAB
  0
TABLE
  2
STYLE
  5
3
330
0
100
AcDbSymbolTable
 70
     3
  0
STYLE
  5
10
330
3
100
AcDbSymbolTableRecord
100
AcDbTextStyleTableRecord
  2
STANDARD
 70
     0
 40
0.0
 41
1.0
 50
0.0
 71
     0
 42
0.125
  3
txt
  4

  0
STYLE
  5
2BB
330
3
100
AcDbSymbolTableRecord
100
AcDbTextStyleTableRecord
  2
ITALICC
 70
     0
 40
0.0
 41
1.0
 50
0.0
 71
     0
 42
0.125
  3
italicc
  4

  0
STYLE
  5
3CA
330
3
100
AcDbSymbolTableRecord
100
AcDbTextStyleTableRecord
  2
ROMANS
 70
     0
 40
0.0
 41
1.0
 50
0.0
 71
     0
 42
0.125
  3
romans.shx
  4

  0
ENDTAB
  0
TABLE
  2
VIEW
  5
6
330
0
100
AcDbSymbolTable
 70
     0
  0
ENDTAB
  0
TABLE
  2
UCS
  5
7
330
0
100
AcDbSymbolTable
 70
     0
  0
ENDTAB
  0
TABLE
  2
APPID
  5
9
330
0
100
AcDbSymbolTable
 70
     1
  0
APPID
  5
11
330
9
100
AcDbSymbolTableRecord
100
AcDbRegAppTableRecord
  2
ACAD
 70
     0
  0
ENDTAB
  0
TABLE
  2
DIMSTYLE
  5
A
330
0
100
AcDbSymbolTable
 70
     1
  0
DIMSTYLE
105
2B1
330
A
100
AcDbSymbolTableRecord
100
AcDbDimStyleTableRecord
  2
STANDARD
 70
     0
  3

  4

  5

  6

  7

 40
1.0
 41
0.18
 42
0.0625
 43
0.38
 44
0.18
 45
0.0
 46
0.0
 47
0.0
 48
0.0
140
0.18
141
0.09
142
0.0
143
25.4
144
1.0
145
0.0
146
1.0
147
0.09
 71
     0
 72
     0
 73
     1
 74
     1
 75
     0
 76
     0
 77
     0
 78
     0
170
     0
171
     2
172
     0
173
     0
174
     0
175
     0
176
     0
177
     0
178
     0
270
     2
271
     4
272
     4
273
     2
274
     2
340
10
275
     0
280
     0
281
     0
282
     0
283
     1
284
     0
285
     0
286
     0
287
     3
288
     0
  0
ENDTAB
  0
TABLE
  2
BLOCK_RECORD
  5
1
330
0
100
AcDbSymbolTable
 70
     0
  0
BLOCK_RECORD
  5
18
102
{ACAD_XDICTIONARY
360
3F1
102
}
330
1
100
AcDbSymbolTableRecord
100
AcDbBlockTableRecord
  2
*MODEL_SPACE
  0
BLOCK_RECORD
  5
15
102
{ACAD_XDICTIONARY
360
3EF
102
}
330
1
100
AcDbSymbolTableRecord
100
AcDbBlockTableRecord
  2
*PAPER_SPACE
  0
ENDTAB
  0
ENDSEC
  0
SECTION
  2
BLOCKS
  0
BLOCK
  5
2A
330
18
100
AcDbEntity
  8
0
100
AcDbBlockBegin
  2
*MODEL_SPACE
 70
     0
 10
0.0
 20
0.0
 30
0.0
  3
*MODEL_SPACE
  1

  0
ENDBLK
  5
2B
330
18
100
AcDbEntity
  8
0
100
AcDbBlockEnd
  0
BLOCK
  5
28
330
15
100
AcDbEntity
 67
     1
  8
0
100
AcDbBlockBegin
  2
*PAPER_SPACE
 70
     0
 10
0.0
 20
0.0
 30
0.0
  3
*PAPER_SPACE
  1

  0
ENDBLK
  5
29
330
15
100
AcDbEntity
 67
     1
  8
0
100
AcDbBlockEnd
  0
ENDSEC
  0
SECTION
  2
ENTITIES
  0
LWPOLYLINE
  5
69
330
18
100
AcDbEntity
  8
0
100
AcDbPolyline
 90
       40
 70
     1
 43
0.0
 10
0.9413897599822757
 20
1.098611107294014
 10
0.9413897599822757
 20
1.293611107294014
 10
0.8073897599822757
 20
1.293611107294014
 10
0.8667325952079924
 20
1.515081583421577
 42
-0.9999999999999953
 10
0.9150288865224458
 20
1.502140631166451
 10
0.8725510286243361
 20
1.343611107294014
 10
0.9663897599822758
 20
1.343611107294014
 10
1.060228491340215
 20
1.343611107294014
 10
1.017750633442105
 20
1.502140631166451
 42
-0.9999999999999953
 10
1.066046924756559
 20
1.515081583421577
 10
1.125389759982275
 20
1.293611107294014
 10
0.9913897599822758
 20
1.293611107294014
 10
0.9913897599822758
 20
1.098611107294014
 10
1.098889759982276
 20
1.098611107294014
 10
1.098889759982276
 20
0.9186111072940141
 10
1.131803306010823
 20
0.9186111072940141
 42
-0.3325349765675916
 10
1.155783083460084
 20
0.9006800728112557
 42
-0.0717901718382811
 10
1.186389759982275
 20
0.6886111072940144
 10
1.186389759982275
 20
0.6536111072940143
 42
-0.4142135623730951
 10
1.161389759982275
 20
0.6286111072940143
 10
1.053889759982275
 20
0.6286111072940143
 10
1.053889759982275
 20
0.6786111072940142
 10
1.13631832776616
 20
0.678611107294014
 42
0.0686954226013817
 10
1.112851140993786
 20
0.8686111072940141
 10
1.053889759982275
 20
0.8686111072940143
 10
1.053889759982275
 20
1.048611107294014
 10
0.9663897599822758
 20
1.048611107294014
 10
0.8788897599822757
 20
1.048611107294014
 10
0.8788897599822757
 20
0.8686111072940143
 10
0.8199283789707655
 20
0.8686111072940143
 42
0.0686954226013816
 10
0.7964611921983913
 20
0.6786111072940142
 10
0.8788897599822757
 20
0.6786111072940142
 10
0.8788897599822757
 20
0.6286111072940143
 10
0.7713897599822759
 20
0.6286111072940143
 42
-0.4142135623730951
 10
0.7463897599822759
 20
0.6536111072940143
 10
0.7463897599822759
 20
0.6886111072940144
 42
-0.0717901718382811
 10
0.7769964365044672
 20
0.9006800728112557
 42
-0.3325349765675916
 10
0.8009762139537276
 20
0.9186111072940141
 10
0.8338897599822757
 20
0.9186111072940141
 10
0.8338897599822757
 20
1.098611107294014
  0
TEXT
  5
340
330
18
100
AcDbEntity
  8
TEXT
100
AcDbText
 10
0.1099147028458087
 20
0.1785723881096524
 30
0.0
 40
0.125
  1
PART #110203
  7
ITALICC
 72
     1
 11
0.8628908933219987
 21
0.1785723881096524
 31
0.0
100
AcDbText
  0
LINE
  5
341
330
18
100
AcDbEntity
  8
TEXT
100
AcDbLine
 10
1.018205523345382
 20
-0.0015046032534158
 30
0.0
 11
0.9711073647893977
 21
-0.0773699296649539
 31
0.0
  0
LINE
  5
342
330
18
100
AcDbEntity
  8
TEXT
100
AcDbLine
 10
0.9711073647893977
 20
-0.0773699296649539
 30
0.0
 11
0.9711073647893977
 21
0.0639596025141849
 31
0.0
  0
LINE
  5
343
330
18
100
AcDbEntity
  8
TEXT
100
AcDbLine
 10
0.9711073647893977
 20
0.0639596025141849
 30
0.0
 11
0.9027924862401244
 21
0.0639596025141849
 31
0.0
  0
LINE
  5
344
330
18
100
AcDbEntity
  8
TEXT
100
AcDbLine
 10
0.9027924862401244
 20
0.0639596025141849
 30
0.0
 11
0.902792486240119
 21
-0.0015046032534158
 31
0.0
  0
LINE
  5
345
330
18
100
AcDbEntity
  8
TEXT
100
AcDbLine
 10
1.028640240109305
 20
-0.1113978461943894
 30
0.0
 11
1.09319735607501
 21
-0.0015046032534158
 31
0.0
  0
LINE
  5
346
330
18
100
AcDbEntity
  8
TEXT
100
AcDbLine
 10
1.09319735607501
 20
-0.0015046032534158
 30
0.0
 11
1.018205523345383
 21
-0.0015046032534158
 31
0.0
  0
LINE
  5
347
330
18
100
AcDbEntity
  8
TEXT
100
AcDbLine
 10
0.9072723735666246
 20
-0.2679776362419268
 30
0.0
 11
0.971650557885245
 21
-0.2679776362419268
 31
0.0
  0
LINE
  5
348
330
18
100
AcDbEntity
  8
TEXT
100
AcDbLine
 10
0.971650557885245
 20
-0.2679776362419268
 30
0.0
 11
0.971650557885245
 21
-0.1363980677657466
 31
0.0
  0
LINE
  5
349
330
18
100
AcDbEntity
  8
TEXT
100
AcDbLine
 10
0.971650557885245
 20
-0.1363980677657466
 30
0.0
 11
1.047554091096709
 21
-0.2679776362419268
 31
0.0
  0
LINE
  5
34A
330
18
100
AcDbEntity
  8
TEXT
100
AcDbLine
 10
1.047554091096709
 20
-0.2679776362419268
 30
0.0
 11
1.124132463472915
 21
-0.2679776362419268
 31
0.0
  0
LINE
  5
34B
330
18
100
AcDbEntity
  8
TEXT
100
AcDbLine
 10
0.9072723735666192
 20
-0.0657812979101813
 30
0.0
 11
0.9072723735666246
 21
-0.2679776362419268
 31
0.0
  0
LINE
  5
34C
330
18
100
AcDbEntity
  8
TEXT
100
AcDbLine
 10
1.124132463472915
 20
-0.2679776362419268
 30
0.0
 11
1.028640240109305
 21
-0.1113978461943894
 31
0.0
  0
ARC
  5
34D
330
18
100
AcDbEntity
  8
TEXT
100
AcDbCircle
 10
0.8306243922740605
 20
-0.090687173192844
 30
0.0
 40
0.0249058752826653
100
AcDbArc
 50
89.99971217465335
 51
179.9999999999985
  0
ARC
  5
34E
330
18
100
AcDbEntity
  8
TEXT
100
AcDbCircle
 10
0.8385133492136382
 20
-0.0327503305356807
 30
0.0
 40
0.0314112657011332
100
AcDbArc
 50
95.88484768694724
 51
173.2388340632136
  0
LINE
  5
34F
330
18
100
AcDbEntity
  8
TEXT
100
AcDbLine
 10
0.8073205321505296
 20
-0.0290522531142905
 30
0.0
 11
0.8073205321505296
 21
-0.0015046032534158
 31
0.0
  0
LINE
  5
350
330
18
100
AcDbEntity
  8
TEXT
100
AcDbLine
 10
0.8073205321505296
 20
-0.0015046032534158
 30
0.0
 11
0.7434236258510288
 21
-0.0015046032534158
 31
0.0
  0
LINE
  5
351
330
18
100
AcDbEntity
  8
TEXT
100
AcDbLine
 10
0.7434236258510288
 20
-0.0015046032534158
 30
0.0
 11
0.7434236258510288
 21
-0.1067165818068432
 31
0.0
  0
LINE
  5
352
330
18
100
AcDbEntity
  8
TEXT
100
AcDbLine
 10
0.6644636869759877
 20
-0.0015046032534158
 30
0.0
 11
0.5296317777589286
 21
-0.0015046032534158
 31
0.0
  0
LINE
  5
353
330
18
100
AcDbEntity
  8
TEXT
100
AcDbLine
 10
0.5296317777589286
 20
-0.0015046032534158
 30
0.0
 11
0.5296317777589286
 21
-0.0298271490230597
 31
0.0
  0
LINE
  5
354
330
18
100
AcDbEntity
  8
TEXT
100
AcDbLine
 10
0.5889458741522473
 20
-0.1030562713723135
 30
0.0
 11
0.6712338639356306
 21
-0.1030562713723135
 31
0.0
  0
LINE
  5
355
330
18
100
AcDbEntity
  8
TEXT
100
AcDbLine
 10
0.6712338639356306
 20
-0.1030562713723135
 30
0.0
 11
0.6609691035220662
 21
-0.0818057317996193
 31
0.0
  0
LINE
  5
356
330
18
100
AcDbEntity
  8
TEXT
100
AcDbLine
 10
0.6354327886315092
 20
-0.0657812979101813
 30
0.0
 11
0.5282265152442199
 21
-0.0657812979101813
 31
0.0
  0
ARC
  5
357
330
18
100
AcDbEntity
  8
TEXT
100
AcDbCircle
 10
0.6354327886315084
 20
-0.0941406729101786
 30
0.0
 40
0.028359375
100
AcDbArc
 50
25.78218179591245
 51
90.0
  0
LINE
  5
358
330
18
100
AcDbEntity
  8
TEXT
100
AcDbLine
 10
0.7434236258510288
 20
-0.1067165818068432
 30
0.0
 11
0.6996728546691271
 21
-0.024466305810698
 31
0.0
  0
ARC
  5
359
330
18
100
AcDbEntity
  8
TEXT
100
AcDbCircle
 10
0.6624367471989192
 20
-0.0430881703743182
 30
0.0
 40
0.0416329381542859
100
AcDbArc
 50
26.56974201007528
 51
87.20939649401342
  0
LWPOLYLINE
  5
35A
330
18
100
AcDbEntity
  8
TEXT
100
AcDbPolyline
 90
        2
 70
     0
 43
0.0
 10
0.7473633031560674
 20
-0.2244866912914887
 42
-0.2901071551932486
 10
0.704287370288423
 20
-0.2679776362419268
 42
-5.328517124445184
  0
LWPOLYLINE
  5
35B
330
18
100
AcDbEntity
  8
TEXT
100
AcDbPolyline
 90
        2
 70
     0
 43
0.0
 10
0.7473633031560674
 20
-0.2244866912914887
 10
0.7473633031560674
 20
-0.2679776362419268
  0
LWPOLYLINE
  5
35C
330
18
100
AcDbEntity
  8
TEXT
100
AcDbPolyline
 90
        2
 70
     0
 43
0.0
 10
0.7473633031560674
 20
-0.2679776362419268
 10
0.8057185169914014
 20
-0.2679776362419268
  0
LWPOLYLINE
  5
35D
330
18
100
AcDbEntity
  8
TEXT
100
AcDbPolyline
 90
        2
 70
     0
 43
0.0
 10
0.5271940197894108
 20
-0.2244866912914887
 42
0.2901071551932823
 10
0.5702699526570463
 20
-0.2679776362419268
 42
5.328517124445801
  0
LWPOLYLINE
  5
35E
330
18
100
AcDbEntity
  8
TEXT
100
AcDbPolyline
 90
        2
 70
     0
 43
0.0
 10
0.5702699526570463
 20
-0.2679776362419268
 10
0.704287370288423
 20
-0.2679776362419268
 42
0.9999999999999998
  0
LWPOLYLINE
  5
35F
330
18
100
AcDbEntity
  8
TEXT
100
AcDbPolyline
 90
        4
 70
     1
 43
0.0
 10
0.6841649052185304
 20
-0.1650136582579016
 10
0.5955045865586719
 20
-0.1650136582579016
 42
0.9999999999999998
 10
0.5955045865586719
 20
-0.2074121987617623
 10
0.6841649052185304
 20
-0.2074121987617623
 42
1.0
  0
ARC
  5
360
330
18
100
AcDbEntity
  8
TEXT
100
AcDbCircle
 10
0.5889458741522465
 20
-0.1707418525164321
 30
0.0
 40
0.0676855811441166
100
AcDbArc
 50
90.0
 51
153.7768192527749
  0
LINE
  5
361
330
18
100
AcDbEntity
  8
TEXT
100
AcDbLine
 10
0.8057185169914022
 20
-0.2679776362419268
 30
0.0
 11
0.8057185169913969
 21
-0.0906871308104584
 31
0.0
  0
LINE
  5
362
330
18
100
AcDbEntity
  8
TEXT
100
AcDbLine
 10
0.5282265152442199
 20
-0.0657812979101813
 30
0.0
 11
0.5282265152442199
 21
-0.1408337039843879
 31
0.0
  0
LINE
  5
363
330
18
100
AcDbEntity
  8
TEXT
100
AcDbLine
 10
0.8306243922740614
 20
-0.0657812979101813
 30
0.0
 11
0.9072723735666192
 21
-0.0657812979101813
 31
0.0
  0
LINE
  5
364
330
18
100
AcDbEntity
  8
TEXT
100
AcDbLine
 10
0.902792486240119
 20
-0.0015046032534158
 30
0.0
 11
0.8352927685906026
 21
-0.0015046032534158
 31
0.0
  0
LWPOLYLINE
  5
365
330
18
100
AcDbEntity
  8
TEXT
100
AcDbPolyline
 90
        2
 70
     0
 43
0.0
 10
0.3224165144665356
 20
-0.0657812979101813
 42
-0.4142135623731017
 10
0.3299703036326491
 20
-0.0733350870762912
 42
-0.9999999999999998
  0
LWPOLYLINE
  5
366
330
18
100
AcDbEntity
  8
TEXT
100
AcDbPolyline
 90
        2
 70
     0
 43
0.0
 10
0.4511619473354394
 20
-0.0657812979101813
 42
-0.4142135623731017
 10
0.4587157365015529
 20
-0.0733350870762912
 42
-0.9999999999999998
  0
LWPOLYLINE
  5
367
330
18
100
AcDbEntity
  8
TEXT
100
AcDbPolyline
 90
        2
 70
     0
 43
0.0
 10
0.3397682375165569
 20
-0.0015046032534123
 42
-0.3328679258950098
 10
0.3755499282297183
 20
-0.0286721000143082
 42
6.772930709997214
  0
LWPOLYLINE
  5
368
330
18
100
AcDbEntity
  8
TEXT
100
AcDbPolyline
 90
        3
 70
     0
 43
0.0
 10
0.4938500870457628
 20
-0.0015046032534123
 10
0.3755499282297183
 20
-0.0015046032534123
 10
0.3755499282297183
 20
-0.0286721000143082
 42
-1.960274751411753
  0
LINE
  5
369
330
18
100
AcDbEntity
  8
TEXT
100
AcDbLine
 10
0.39702835041449
 20
-0.0657812979101813
 30
0.0
 11
0.4511619473354403
 21
-0.0657812979101813
 31
0.0
  0
LINE
  5
36A
330
18
100
AcDbEntity
  8
TEXT
100
AcDbLine
 10
0.2725812346433889
 20
-0.0657812979101813
 30
0.0
 11
0.3224165144665365
 21
-0.0657812979101813
 31
0.0
  0
LINE
  5
36B
330
18
100
AcDbEntity
  8
TEXT
100
AcDbLine
 10
0.339768237516556
 20
-0.0015046032534158
 30
0.0
 11
0.2057501815854197
 21
-0.0015046032534158
 31
0.0
  0
LINE
  5
36C
330
18
100
AcDbEntity
  8
TEXT
100
AcDbLine
 10
0.32997030363265
 20
-0.2679776362419268
 30
0.0
 11
0.39702835041449
 21
-0.2679776362419268
 31
0.0
  0
LINE
  5
36D
330
18
100
AcDbEntity
  8
TEXT
100
AcDbLine
 10
0.1745779009439543
 20
-0.2679776362419268
 30
0.0
 11
0.2725812346433889
 21
-0.2679776362419268
 31
0.0
  0
LINE
  5
36E
330
18
100
AcDbEntity
  8
TEXT
100
AcDbLine
 10
0.2057501815854197
 20
-0.2023688099858241
 30
0.0
 11
0.1887565447008184
 21
-0.2023688099858241
 31
0.0
  0
ARC
  5
36F
330
18
100
AcDbEntity
  8
TEXT
100
AcDbCircle
 10
0.1887565447008175
 20
-0.1869870037423986
 30
0.0
 40
0.0153818062434269
100
AcDbArc
 50
174.7883570302258
 51
270.0
  0
LINE
  5
370
330
18
100
AcDbEntity
  8
TEXT
100
AcDbLine
 10
0.2725812346433889
 20
-0.2679776362419268
 30
0.0
 11
0.2725812346433889
 21
-0.0657812979101813
 31
0.0
  0
LINE
  5
371
330
18
100
AcDbEntity
  8
TEXT
100
AcDbLine
 10
0.32997030363265
 20
-0.0733350870762912
 30
0.0
 11
0.32997030363265
 21
-0.2679776362419268
 31
0.0
  0
LINE
  5
372
330
18
100
AcDbEntity
  8
TEXT
100
AcDbLine
 10
0.39702835041449
 20
-0.2679776362419268
 30
0.0
 11
0.39702835041449
 21
-0.0657812979101813
 31
0.0
  0
LINE
  5
373
330
18
100
AcDbEntity
  8
TEXT
100
AcDbLine
 10
0.2057501815854197
 20
-0.0015046032534158
 30
0.0
 11
0.2057501815854197
 21
-0.2023688099858241
 31
0.0
  0
LINE
  5
374
330
18
100
AcDbEntity
  8
TEXT
100
AcDbLine
 10
0.1734383274477595
 20
-0.1855897981389276
 30
0.0
 11
0.1734383274477595
 21
0.0665068744853947
 31
0.0
  0
LINE
  5
375
330
18
100
AcDbEntity
  8
TEXT
100
AcDbLine
 10
0.1066296148813945
 20
0.0665068744853947
 30
0.0
 11
0.1066296148813945
 21
-0.0015046032534158
 31
0.0
  0
LINE
  5
376
330
18
100
AcDbEntity
  8
TEXT
100
AcDbLine
 10
0.1066296148813945
 20
-0.0015046032534158
 30
0.0
 11
0.0765077020880183
 21
-0.0015046032534158
 31
0.0
  0
LINE
  5
377
330
18
100
AcDbEntity
  8
TEXT
100
AcDbLine
 10
0.0765077020880183
 20
-0.0015046032534158
 30
0.0
 11
0.0177591392821528
 21
-0.1023765993665364
 31
0.0
  0
LINE
  5
378
330
18
100
AcDbEntity
  8
TEXT
100
AcDbLine
 10
0.0177591392821528
 20
-0.1023765993665364
 30
0.0
 11
-0.0408711817497851
 21
-0.0015046032534158
 31
0.0
  0
LINE
  5
379
330
18
100
AcDbEntity
  8
TEXT
100
AcDbLine
 10
-0.1126701478936924
 20
-0.0015046032534158
 30
0.0
 11
-0.1126701478936924
 21
0.0328833143407223
 31
0.0
  0
LINE
  5
37A
330
18
100
AcDbEntity
  8
TEXT
100
AcDbLine
 10
-0.1126701478936924
 20
0.0328833143407223
 30
0.0
 11
-0.1727127527376995
 21
0.0328833143407223
 31
0.0
  0
LINE
  5
37B
330
18
100
AcDbEntity
  8
TEXT
100
AcDbLine
 10
-0.1727127527376995
 20
0.0328833143407223
 30
0.0
 11
-0.1727127527376995
 21
-0.0015046032534158
 31
0.0
  0
LINE
  5
37C
330
18
100
AcDbEntity
  8
TEXT
100
AcDbLine
 10
-0.0408711817497851
 20
-0.0015046032534158
 30
0.0
 11
-0.1126701478936924
 21
-0.0015046032534158
 31
0.0
  0
ARC
  5
37D
330
18
100
AcDbEntity
  8
TEXT
100
AcDbCircle
 10
-0.0258846576270155
 20
-0.2284299139682311
 30
0.0
 40
0.0392772371940762
100
AcDbArc
 50
270.1604552698595
 51
330.0831797321295
  0
ARC
  5
37E
330
18
100
AcDbEntity
  8
TEXT
100
AcDbCircle
 10
-0.1161855035192403
 20
-0.208185244903877
 30
0.0
 40
0.0601160179737537
100
AcDbArc
 50
180.0000000000003
 51
264.0521544866073
  0
LINE
  5
37F
330
18
100
AcDbEntity
  8
TEXT
100
AcDbLine
 10
-0.1224149140128867
 20
-0.2679776362419268
 30
0.0
 11
-0.0257746629378923
 21
-0.2677069971436445
 31
0.0
  0
LWPOLYLINE
  5
380
330
18
100
AcDbEntity
  8
TEXT
100
AcDbPolyline
 90
        6
 70
     1
 43
0.0
 10
-0.0798911104377371
 20
-0.0657812979101813
 10
-0.1102077046579453
 20
-0.0657812979101813
 10
-0.1102077046579453
 20
-0.1888922959650756
 42
0.407328721240804
 10
-0.0986640534964689
 20
-0.2007112106414617
 10
-0.0380423544517381
 20
-0.2007112106414617
 10
-0.0205770140444202
 20
-0.1678989815979825
  0
LINE
  5
381
330
18
100
AcDbEntity
  8
TEXT
100
AcDbLine
 10
-0.1763015214929924
 20
-0.0657812979101813
 30
0.0
 11
-0.1763015214929924
 21
-0.208185244903877
 31
0.0
  0
LINE
  5
382
330
18
100
AcDbEntity
  8
TEXT
100
AcDbLine
 10
0.0081589022851984
 20
-0.2480191301369139
 30
0.0
 11
0.1054586083786431
 21
-0.0836689192016458
 31
0.0
  0
LINE
  5
383
330
18
100
AcDbEntity
  8
TEXT
100
AcDbLine
 10
0.1054586083786431
 20
-0.0836689192016458
 30
0.0
 11
0.1054586083786431
 21
-0.2164262940270021
 31
0.0
  0
LWPOLYLINE
  5
384
330
18
100
AcDbEntity
  8
TEXT
100
AcDbPolyline
 90
        2
 70
     0
 43
0.0
 10
0.1054586083786422
 20
-0.2164262940269985
 42
0.3318488747599744
 10
0.1745779009439552
 20
-0.2679776362419268
 42
-6.868794160588311
  0
LINE
  5
385
330
18
100
AcDbEntity
  8
TEXT
100
AcDbLine
 10
0.1734383274477595
 20
0.0665068744853947
 30
0.0
 11
0.1066296148813945
 21
0.0665068744853947
 31
0.0
  0
LWPOLYLINE
  5
386
330
18
100
AcDbEntity
  8
TEXT
100
AcDbPolyline
 90
        4
 70
     0
 43
0.0
 10
0.4587157365015529
 20
-0.0733350870762912
 10
0.4587157365015529
 20
-0.2679776362419268
 10
0.5271940197894108
 20
-0.2679776362419268
 10
0.5271940197894108
 20
-0.2244866912914887
 42
-1.714843617202739
  0
LWPOLYLINE
  5
387
330
18
100
AcDbEntity
  8
TEXT
100
AcDbPolyline
 90
        2
 70
     0
 43
0.0
 10
0.4938500870457628
 20
-0.0015046032534123
 42
-0.3277054968067132
 10
0.5296317777589277
 20
-0.0298271490230562
 42
6.667889725900311
  0
TEXT
  5
388
330
18
100
AcDbEntity
  8
TEXT
100
AcDbText
 10
1.27619605157232
 20
-0.1750918275964306
 30
0.0
 40
0.0522247191011236
  1
Minneapolis, MN 55432-0008
 41
1.11444212721585
 72
     5
 11
2.605128635841984
 21
-0.1750918275964306
 31
0.0
100
AcDbText
  0
TEXT
  5
389
330
18
100
AcDbEntity
  8
TEXT
100
AcDbText
 10
1.27619605157232
 20
-0.0818334006301385
 30
0.0
 40
0.0522247191011236
  1
6536 Main St. N.E. * P.O. Box 32008
 41
0.8388932496075353
 72
     5
 11
2.605128635841984
 21
-0.0818334006301385
 31
0.0
100
AcDbText
  0
TEXT
  5
38A
330
18
100
AcDbEntity
  8
TEXT
100
AcDbText
 10
1.27619605157232
 20
0.0114250263361537
 30
0.0
 40
0.0522247191011236
  1
Stylmark  Incorporated
 41
1.221428571428571
 72
     5
 11
2.605128635841984
 21
0.0114250263361537
 31
0.0
100
AcDbText
  0
TEXT
  5
38B
330
18
100
AcDbEntity
  8
TEXT
100
AcDbText
 10
1.27619605157232
 20
-0.2683502545627228
 30
0.0
 40
0.0522247191011236
  1
Phone  1-800-328-2495
 41
1.272321428571429
 72
     5
 11
2.605128635841984
 21
-0.2683502545627228
 31
0.0
100
AcDbText
  0
LINE
  5
38C
330
18
100
AcDbEntity
  8
TEXT
100
AcDbLine
 10
-0.2776070392776617
 20
-0.1015860195208091
 30
0.0
 11
-0.3432071755219628
 21
-0.1015860195208091
 31
0.0
  0
ARC
  5
38D
330
18
100
AcDbEntity
  8
TEXT
100
AcDbCircle
 10
-0.3432071755219628
 20
-0.0836836587154935
 30
0.0
 40
0.017902360805315
100
AcDbArc
 50
90.0
 51
270.0
  0
LINE
  5
38E
330
18
100
AcDbEntity
  8
TEXT
100
AcDbLine
 10
-0.3484445056362109
 20
-0.1656795221464229
 30
0.0
 11
-0.2726666653713821
 21
-0.1656795221464229
 31
0.0
  0
LINE
  5
38F
330
18
100
AcDbEntity
  8
TEXT
100
AcDbLine
 10
-0.2726666653713821
 20
-0.1996206299084875
 30
0.0
 11
-0.4305319650827162
 21
-0.1996206299084875
 31
0.0
  0
LINE
  5
390
330
18
100
AcDbEntity
  8
TEXT
100
AcDbLine
 10
-0.4305319650827144
 20
-0.2679776362419268
 30
0.0
 11
-0.2776070392776617
 21
-0.2679776362419268
 31
0.0
  0
ARC
  5
391
330
18
100
AcDbEntity
  8
TEXT
100
AcDbCircle
 10
-0.3484445056362109
 20
-0.0835920626999176
 30
0.0
 40
0.0820874594465043
100
AcDbArc
 50
90.0
 51
270.0
  0
LINE
  5
392
330
18
100
AcDbEntity
  8
TEXT
100
AcDbLine
 10
-0.1727127527376995
 20
-0.0015046032534158
 30
0.0
 11
-0.3484445056362109
 21
-0.0015046032534158
 31
0.0
  0
ARC
  5
393
330
18
100
AcDbEntity
  8
TEXT
100
AcDbCircle
 10
-0.2726666653713821
 20
-0.1826500760274534
 30
0.0
 40
0.0169705538810321
100
AcDbArc
 50
270.0
 51
90.0
  0
ARC
  5
394
330
18
100
AcDbEntity
  8
TEXT
100
AcDbCircle
 10
-0.2776070392776617
 20
-0.1847818278813698
 30
0.0
 40
0.0831958083605586
100
AcDbArc
 50
270.0
 51
90.0
  0
LINE
  5
395
330
18
100
AcDbEntity
  8
TEXT
100
AcDbLine
 10
-0.3432071755219628
 20
-0.0657812979101813
 30
0.0
 11
-0.1763015214929924
 21
-0.0657812979101813
 31
0.0
  0
LWPOLYLINE
  5
396
330
18
100
AcDbEntity
  8
TEXT
100
AcDbPolyline
 90
        2
 70
     0
 43
0.0006660908203125
 10
-0.6399649451824896
 20
-0.1147400427065399
 10
-0.6133213123699886
 20
-0.1147400427065399
  0
LINE
  5
397
330
18
100
AcDbEntity
  8
TEXT
100
AcDbLine
 10
-0.4305319650827162
 20
-0.1996206299084875
 30
0.0
 11
-0.4305319650827144
 21
-0.2679776362419268
 31
0.0
  0
LWPOLYLINE
  5
398
330
18
100
AcDbEntity
  8
TEXT
100
AcDbPolyline
 90
        2
 70
     0
 43
0.0006660908203125
 10
-0.6399649451824896
 20
-0.1547054919252879
 10
-0.6133213123699886
 20
-0.1547054919252879
  0
LWPOLYLINE
  5
399
330
18
100
AcDbEntity
  8
TEXT
100
AcDbPolyline
 90
        2
 70
     0
 43
0.0001332181640625
 10
-0.7265567518231144
 20
-0.0015046032534123
 10
-0.7365481141278032
 20
-0.0747745934877919
  0
LWPOLYLINE
  5
39A
330
18
100
AcDbEntity
  8
TEXT
100
AcDbPolyline
 90
        2
 70
     0
 43
0.0001332181640625
 10
-0.7265567518231144
 20
-0.0281482360659133
 10
-0.7365481141278032
 20
-0.0880964098940389
  0
LWPOLYLINE
  5
39B
330
18
100
AcDbEntity
  8
TEXT
100
AcDbPolyline
 90
        2
 70
     0
 43
0.0006660908203125
 10
-0.7265567518231144
 20
-0.0281482360659133
 10
-0.7265567518231144
 20
-0.0015046032534123
  0
LWPOLYLINE
  5
39C
330
18
100
AcDbEntity
  8
TEXT
100
AcDbPolyline
 90
        5
 70
     0
 43
0.0001332181640625
 10
-0.7365481141278032
 20
-0.0747745934877919
 10
-0.7365481141278032
 20
-0.0880964098940389
 10
-0.6999131190106134
 20
-0.0880964098940389
 10
-0.6999131190106134
 20
-0.1247314050112287
 10
-0.6865913026043647
 20
-0.1247314050112287
  0
LWPOLYLINE
  5
39D
330
18
100
AcDbEntity
  8
TEXT
100
AcDbPolyline
 90
        2
 70
     0
 43
0.0001332181640625
 10
-0.766522201041866
 20
-0.0281482360659133
 10
-0.7565308387371755
 20
-0.0880964098940389
  0
LWPOLYLINE
  5
39E
330
18
100
AcDbEntity
  8
TEXT
100
AcDbPolyline
 90
        2
 70
     0
 43
0.0001332181640625
 10
-0.7565308387371755
 20
-0.0747745934877919
 10
-0.766522201041866
 20
-0.0015046032534123
  0
LWPOLYLINE
  5
39F
330
18
100
AcDbEntity
  8
TEXT
100
AcDbPolyline
 90
        2
 70
     0
 43
0.0006660908203125
 10
-0.766522201041866
 20
-0.0281482360659133
 10
-0.766522201041866
 20
-0.0015046032534123
  0
LWPOLYLINE
  5
3A0
330
18
100
AcDbEntity
  8
TEXT
100
AcDbPolyline
 90
        5
 70
     0
 43
0.0001332181640625
 10
-0.8064876502606139
 20
-0.1247314050112287
 10
-0.7931658338543653
 20
-0.1247314050112287
 10
-0.7931658338543653
 20
-0.0880964098940389
 10
-0.7565308387371755
 20
-0.0880964098940389
 10
-0.7565308387371755
 20
-0.0747745934877919
  0
LWPOLYLINE
  5
3A1
330
18
100
AcDbEntity
  8
TEXT
100
AcDbPolyline
 90
        2
 70
     0
 43
0.0006660908203125
 10
-0.8531140076824907
 20
-0.1147400427065399
 10
-0.8797576404949882
 20
-0.1147400427065399
  0
LWPOLYLINE
  5
3A2
330
18
100
AcDbEntity
  8
TEXT
100
AcDbPolyline
 90
        2
 70
     0
 43
0.0001332181640625
 10
-0.8797576404949882
 20
-0.1147400427065399
 10
-0.8064876502606139
 20
-0.1247314050112287
  0
LWPOLYLINE
  5
3A3
330
18
100
AcDbEntity
  8
TEXT
100
AcDbPolyline
 90
        2
 70
     0
 43
0.0001332181640625
 10
-0.8531140076824907
 20
-0.1147400427065399
 10
-0.7931658338543653
 20
-0.1247314050112287
  0
LWPOLYLINE
  5
3A4
330
18
100
AcDbEntity
  8
TEXT
100
AcDbPolyline
 90
        2
 70
     0
 43
0.0001332181640625
 10
-0.8531140076824907
 20
-0.0281482360659133
 10
-0.7931658338543653
 20
-0.0880964098940389
  0
LWPOLYLINE
  5
3A5
330
18
100
AcDbEntity
  8
TEXT
100
AcDbPolyline
 90
        3
 70
     0
 43
0.0006660908203125
 10
-0.766522201041866
 20
-0.0281482360659133
 10
-0.8531140076824907
 20
-0.0281482360659133
 10
-0.8531140076824907
 20
-0.1147400427065399
  0
LWPOLYLINE
  5
3A6
330
18
100
AcDbEntity
  8
TEXT
100
AcDbPolyline
 90
        3
 70
     0
 43
0.0006660908203125
 10
-0.766522201041866
 20
-0.0015046032534123
 10
-0.8797576404949882
 20
-0.0015046032534123
 10
-0.8797576404949882
 20
-0.1147400427065399
  0
LWPOLYLINE
  5
3A7
330
18
100
AcDbEntity
  8
TEXT
100
AcDbPolyline
 90
        5
 70
     0
 43
0.0001332181640625
 10
-0.6865913026043647
 20
-0.1447141296206027
 10
-0.6999131190106134
 20
-0.1447141296206027
 10
-0.6999131190106134
 20
-0.181349124737789
 10
-0.7365481141278032
 20
-0.181349124737789
 10
-0.7365481141278032
 20
-0.1946709411440395
  0
LWPOLYLINE
  5
3A8
330
18
100
AcDbEntity
  8
TEXT
100
AcDbPolyline
 90
        2
 70
     0
 43
0.0006660908203125
 10
-0.7265567518231144
 20
-0.2412972985659145
 10
-0.7265567518231144
 20
-0.2679409313784156
  0
LWPOLYLINE
  5
3A9
330
18
100
AcDbEntity
  8
TEXT
100
AcDbPolyline
 90
        2
 70
     0
 43
0.0001332181640625
 10
-0.7365481141278032
 20
-0.1946709411440395
 10
-0.7265567518231144
 20
-0.2679409313784156
  0
LWPOLYLINE
  5
3AA
330
18
100
AcDbEntity
  8
TEXT
100
AcDbPolyline
 90
        2
 70
     0
 43
0.0001332181640625
 10
-0.7265567518231144
 20
-0.2412972985659145
 10
-0.7365481141278032
 20
-0.181349124737789
  0
LWPOLYLINE
  5
3AB
330
18
100
AcDbEntity
  8
TEXT
100
AcDbPolyline
 90
        2
 70
     0
 43
0.0001332181640625
 10
-0.766522201041866
 20
-0.2679409313784156
 10
-0.7565308387371755
 20
-0.1946709411440395
  0
LWPOLYLINE
  5
3AC
330
18
100
AcDbEntity
  8
TEXT
100
AcDbPolyline
 90
        2
 70
     0
 43
0.0001332181640625
 10
-0.766522201041866
 20
-0.2412972985659145
 10
-0.7565308387371755
 20
-0.181349124737789
  0
LWPOLYLINE
  5
3AD
330
18
100
AcDbEntity
  8
TEXT
100
AcDbPolyline
 90
        2
 70
     0
 43
0.0006660908203125
 10
-0.766522201041866
 20
-0.2412972985659145
 10
-0.766522201041866
 20
-0.2679409313784156
  0
LWPOLYLINE
  5
3AE
330
18
100
AcDbEntity
  8
TEXT
100
AcDbPolyline
 90
        5
 70
     0
 43
0.0001332181640625
 10
-0.7565308387371755
 20
-0.1946709411440395
 10
-0.7565308387371755
 20
-0.181349124737789
 10
-0.7931658338543635
 20
-0.181349124737789
 10
-0.7931658338543635
 20
-0.1447141296206027
 10
-0.8064876502606139
 20
-0.1447141296206027
  0
LWPOLYLINE
  5
3AF
330
18
100
AcDbEntity
  8
TEXT
100
AcDbPolyline
 90
        2
 70
     0
 43
0.0006660908203125
 10
-0.8531140076824907
 20
-0.1547054919252879
 10
-0.8797576404949882
 20
-0.1547054919252879
  0
LWPOLYLINE
  5
3B0
330
18
100
AcDbEntity
  8
TEXT
100
AcDbPolyline
 90
        2
 70
     0
 43
0.0001332181640625
 10
-0.8531140076824907
 20
-0.2412972985659145
 10
-0.7931658338543635
 20
-0.181349124737789
  0
LWPOLYLINE
  5
3B1
330
18
100
AcDbEntity
  8
TEXT
100
AcDbPolyline
 90
        2
 70
     0
 43
0.0001332181640625
 10
-0.8531140076824907
 20
-0.1547054919252879
 10
-0.7931658338543635
 20
-0.1447141296206027
  0
LWPOLYLINE
  5
3B2
330
18
100
AcDbEntity
  8
TEXT
100
AcDbPolyline
 90
        2
 70
     0
 43
0.0001332181640625
 10
-0.8064876502606139
 20
-0.1447141296206027
 10
-0.8797576404949882
 20
-0.1547054919252879
  0
LWPOLYLINE
  5
3B3
330
18
100
AcDbEntity
  8
TEXT
100
AcDbPolyline
 90
        3
 70
     0
 43
0.0006660908203125
 10
-0.8531140076824907
 20
-0.1547054919252879
 10
-0.8531140076824907
 20
-0.2412972985659145
 10
-0.766522201041866
 20
-0.2412972985659145
  0
LWPOLYLINE
  5
3B4
330
18
100
AcDbEntity
  8
TEXT
100
AcDbPolyline
 90
        3
 70
     0
 43
0.0006660908203125
 10
-0.8797576404949882
 20
-0.1547054919252879
 10
-0.8797576404949882
 20
-0.2679409313784156
 10
-0.766522201041866
 20
-0.2679409313784156
  0
LWPOLYLINE
  5
3B5
330
18
100
AcDbEntity
  8
TEXT
100
AcDbPolyline
 90
        3
 70
     0
 43
0.0006660908203125
 10
-0.7265567518231144
 20
-0.2679409313784156
 10
-0.6133213123699886
 20
-0.2679409313784156
 10
-0.6133213123699886
 20
-0.1547054919252879
  0
LWPOLYLINE
  5
3B6
330
18
100
AcDbEntity
  8
TEXT
100
AcDbPolyline
 90
        3
 70
     0
 43
0.0006660908203125
 10
-0.7265567518231144
 20
-0.2412972985659145
 10
-0.6399649451824896
 20
-0.2412972985659145
 10
-0.6399649451824896
 20
-0.1547054919252879
  0
LWPOLYLINE
  5
3B7
330
18
100
AcDbEntity
  8
TEXT
100
AcDbPolyline
 90
        2
 70
     0
 43
0.0001332181640625
 10
-0.6399649451824896
 20
-0.2412972985659145
 10
-0.6999131190106134
 20
-0.181349124737789
  0
LWPOLYLINE
  5
3B8
330
18
100
AcDbEntity
  8
TEXT
100
AcDbPolyline
 90
        2
 70
     0
 43
0.0001332181640625
 10
-0.6399649451824896
 20
-0.1547054919252879
 10
-0.6999131190106134
 20
-0.1447141296206027
  0
LWPOLYLINE
  5
3B9
330
18
100
AcDbEntity
  8
TEXT
100
AcDbPolyline
 90
        2
 70
     0
 43
0.0001332181640625
 10
-0.6133213123699886
 20
-0.1547054919252879
 10
-0.6865913026043647
 20
-0.1447141296206027
  0
LWPOLYLINE
  5
3BA
330
18
100
AcDbEntity
  8
TEXT
100
AcDbPolyline
 90
        2
 70
     0
 43
0.0001332181640625
 10
-0.6399649451824896
 20
-0.0281482360659133
 10
-0.6999131190106134
 20
-0.0880964098940389
  0
LWPOLYLINE
  5
3BB
330
18
100
AcDbEntity
  8
TEXT
100
AcDbPolyline
 90
        2
 70
     0
 43
0.0001332181640625
 10
-0.6399649451824896
 20
-0.1147400427065399
 10
-0.6999131190106134
 20
-0.1247314050112287
  0
LWPOLYLINE
  5
3BC
330
18
100
AcDbEntity
  8
TEXT
100
AcDbPolyline
 90
        2
 70
     0
 43
0.0001332181640625
 10
-0.6865913026043647
 20
-0.1247314050112287
 10
-0.6133213123699886
 20
-0.1147400427065399
  0
LWPOLYLINE
  5
3BD
330
18
100
AcDbEntity
  8
TEXT
100
AcDbPolyline
 90
        3
 70
     0
 43
0.0006660908203125
 10
-0.6399649451824896
 20
-0.1147400427065399
 10
-0.6399649451824896
 20
-0.0281482360659133
 10
-0.7265567518231144
 20
-0.0281482360659133
  0
LWPOLYLINE
  5
3BE
330
18
100
AcDbEntity
  8
TEXT
100
AcDbPolyline
 90
        3
 70
     0
 43
0.0006660908203125
 10
-0.6133213123699886
 20
-0.1147400427065399
 10
-0.6133213123699886
 20
-0.0015046032534123
 10
-0.7265567518231144
 20
-0.0015046032534123
  0
ENDSEC
  0
SECTION
  2
OBJECTS
  0
DICTIONARY
  5
C
330
0
100
AcDbDictionary
  3
ACAD_GROUP
350
D
  3
ACAD_LAYOUT
350
3C3
  3
ACAD_MLINESTYLE
350
E
  3
ACAD_PLOTSETTINGS
350
3C4
  3
ACAD_PLOTSTYLENAME
350
3C1
  3
ACDBHEADERROUNDTRIPXREC
350
3CF
  3
ACDBVARIABLEDICTIONARY
350
3CC
  0
DICTIONARY
  5
3F1
330
18
100
AcDbDictionary
280
     1
  3
ACAD_LAYOUTSELFREF
360
3F2
  0
DICTIONARY
  5
3EF
330
15
100
AcDbDictionary
280
     1
  3
ACAD_LAYOUTSELFREF
360
3F0
  0
DICTIONARY
  5
D
102
{ACAD_REACTORS
330
C
102
}
330
C
100
AcDbDictionary
  0
DICTIONARY
  5
3C3
102
{ACAD_REACTORS
330
C
102
}
330
C
100
AcDbDictionary
  0
DICTIONARY
  5
E
102
{ACAD_REACTORS
330
C
102
}
330
C
100
AcDbDictionary
  3
STANDARD
350
1B
  0
DICTIONARY
  5
3C4
102
{ACAD_REACTORS
330
C
102
}
330
C
100
AcDbDictionary
  0
ACDBDICTIONARYWDFLT
  5
3C1
102
{ACAD_REACTORS
330
C
102
}
330
C
100
AcDbDictionary
281
     1
  3
Normal
350
3C2
100
AcDbDictionaryWithDefault
340
3C2
  0
DICTIONARY
  5
3CF
102
{ACAD_REACTORS
330
C
102
}
330
C
100
AcDbDictionary
  3
CEPSNTYPE
350
3D9
  3
FINGERPRINTGUID
350
3DA
  3
HYPERLINKBASE
350
3D2
  3
INSUNITS
350
3D8
  3
LAYOUTDICT
350
3D4
  3
LWETCUNION
350
3D7
  3
PLOTSETDICT
350
3D5
  3
PLOTSTYLNAMDICT
350
3D6
  3
PSVPSCALE
350
3DC
  3
PUCSBASE
350
3DF
  3
PUCSORGBACK
350
3E5
  3
PUCSORGBOTTOM
350
3E1
  3
PUCSORGFRONT
350
3E4
  3
PUCSORGLEFT
350
3E2
  3
PUCSORGRIGHT
350
3E3
  3
PUCSORGTOP
350
3E0
  3
PUCSORTHOREF
350
3DD
  3
PUCSORTHOVIEW
350
3DE
  3
STYLESHEET
350
3D3
  3
TSTACKALIGN
350
3D0
  3
TSTACKSIZE
350
3D1
  3
UCSBASE
350
3E8
  3
UCSORGBACK
350
3EE
  3
UCSORGBOTTOM
350
3EA
  3
UCSORGFRONT
350
3ED
  3
UCSORGLEFT
350
3EB
  3
UCSORGRIGHT
350
3EC
  3
UCSORGTOP
350
3E9
  3
UCSORTHOREF
350
3E6
  3
UCSORTHOVIEW
350
3E7
  3
VERSIONGUID
350
3DB
  0
DICTIONARY
  5
3CC
102
{ACAD_REACTORS
330
C
102
}
330
C
100
AcDbDictionary
  3
DIMASSOC
350
3CD
  0
XRECORD
  5
3F2
102
{ACAD_REACTORS
330
3F1
102
}
330
3F1
100
AcDbXrecord
340
18
  0
XRECORD
  5
3F0
102
{ACAD_REACTORS
330
3EF
102
}
330
3EF
100
AcDbXrecord
340
15
  0
MLINESTYLE
  5
1B
102
{ACAD_REACTORS
330
E
102
}
330
E
100
AcDbMlineStyle
  2
STANDARD
 70
     0
  3

 62
     0
 51
90.0
 52
90.0
 71
     2
 49
0.5
 62
   256
  6
BYLAYER
 49
-0.5
 62
   256
  6
BYLAYER
  0
ACDBPLACEHOLDER
  5
3C2
102
{ACAD_REACTORS
330
3C1
102
}
330
3C1
100
AcDbPlaceHolder
280
     0
  0
XRECORD
  5
3D9
102
{ACAD_REACTORS
330
3CF
102
}
330
3CF
100
AcDbXrecord
 90
        0
  0
XRECORD
  5
3DA
102
{ACAD_REACTORS
330
3CF
102
}
330
3CF
100
AcDbXrecord
  1
{FCB23C30-8DB4-11D6-88E6-0090279574E7}
  0
XRECORD
  5
3D2
102
{ACAD_REACTORS
330
3CF
102
}
330
3CF
100
AcDbXrecord
  1

  0
XRECORD
  5
3D8
102
{ACAD_REACTORS
330
3CF
102
}
330
3CF
100
AcDbXrecord
 90
        0
  0
XRECORD
  5
3D4
102
{ACAD_REACTORS
330
3CF
102
}
330
3CF
100
AcDbXrecord
340
3C3
  0
XRECORD
  5
3D7
102
{ACAD_REACTORS
330
3CF
102
}
330
3CF
100
AcDbXrecord
 90
    14877
  0
XRECORD
  5
3D5
102
{ACAD_REACTORS
330
3CF
102
}
330
3CF
100
AcDbXrecord
340
3C4
  0
XRECORD
  5
3D6
102
{ACAD_REACTORS
330
3CF
102
}
330
3CF
100
AcDbXrecord
340
3C1
  0
XRECORD
  5
3DC
102
{ACAD_REACTORS
330
3CF
102
}
330
3CF
100
AcDbXrecord
 40
0.0
  0
XRECORD
  5
3DF
102
{ACAD_REACTORS
330
3CF
102
}
330
3CF
100
AcDbXrecord
340
0
  0
XRECORD
  5
3E5
102
{ACAD_REACTORS
330
3CF
102
}
330
3CF
100
AcDbXrecord
 10
0.0
 20
0.0
 30
0.0
  0
XRECORD
  5
3E1
102
{ACAD_REACTORS
330
3CF
102
}
330
3CF
100
AcDbXrecord
 10
0.0
 20
0.0
 30
0.0
  0
XRECORD
  5
3E4
102
{ACAD_REACTORS
330
3CF
102
}
330
3CF
100
AcDbXrecord
 10
0.0
 20
0.0
 30
0.0
  0
XRECORD
  5
3E2
102
{ACAD_REACTORS
330
3CF
102
}
330
3CF
100
AcDbXrecord
 10
0.0
 20
0.0
 30
0.0
  0
XRECORD
  5
3E3
102
{ACAD_REACTORS
330
3CF
102
}
330
3CF
100
AcDbXrecord
 10
0.0
 20
0.0
 30
0.0
  0
XRECORD
  5
3E0
102
{ACAD_REACTORS
330
3CF
102
}
330
3CF
100
AcDbXrecord
 10
0.0
 20
0.0
 30
0.0
  0
XRECORD
  5
3DD
102
{ACAD_REACTORS
330
3CF
102
}
330
3CF
100
AcDbXrecord
340
0
  0
XRECORD
  5
3DE
102
{ACAD_REACTORS
330
3CF
102
}
330
3CF
100
AcDbXrecord
 70
     0
  0
XRECORD
  5
3D3
102
{ACAD_REACTORS
330
3CF
102
}
330
3CF
100
AcDbXrecord
  1

  0
XRECORD
  5
3D0
102
{ACAD_REACTORS
330
3CF
102
}
330
3CF
100
AcDbXrecord
 90
        1
  0
XRECORD
  5
3D1
102
{ACAD_REACTORS
330
3CF
102
}
330
3CF
100
AcDbXrecord
 90
       70
  0
XRECORD
  5
3E8
102
{ACAD_REACTORS
330
3CF
102
}
330
3CF
100
AcDbXrecord
340
0
  0
XRECORD
  5
3EE
102
{ACAD_REACTORS
330
3CF
102
}
330
3CF
100
AcDbXrecord
 10
0.0
 20
0.0
 30
0.0
  0
XRECORD
  5
3EA
102
{ACAD_REACTORS
330
3CF
102
}
330
3CF
100
AcDbXrecord
 10
0.0
 20
0.0
 30
0.0
  0
XRECORD
  5
3ED
102
{ACAD_REACTORS
330
3CF
102
}
330
3CF
100
AcDbXrecord
 10
0.0
 20
0.0
 30
0.0
  0
XRECORD
  5
3EB
102
{ACAD_REACTORS
330
3CF
102
}
330
3CF
100
AcDbXrecord
 10
0.0
 20
0.0
 30
0.0
  0
XRECORD
  5
3EC
102
{ACAD_REACTORS
330
3CF
102
}
330
3CF
100
AcDbXrecord
 10
0.0
 20
0.0
 30
0.0
  0
XRECORD
  5
3E9
102
{ACAD_REACTORS
330
3CF
102
}
330
3CF
100
AcDbXrecord
 10
0.0
 20
0.0
 30
0.0
  0
XRECORD
  5
3E6
102
{ACAD_REACTORS
330
3CF
102
}
330
3CF
100
AcDbXrecord
340
0
  0
XRECORD
  5
3E7
102
{ACAD_REACTORS
330
3CF
102
}
330
3CF
100
AcDbXrecord
 70
     0
  0
XRECORD
  5
3DB
102
{ACAD_REACTORS
330
3CF
102
}
330
3CF
100
AcDbXrecord
  1
{FCB23C32-8DB4-11D6-88E6-0090279574E7}
  0
DICTIONARYVAR
  5
3CD
102
{ACAD_REACTORS
330
3CC
102
}
330
3CC
100
DictionaryVariables
280
     0
  1
1
  0
ENDSEC
  0
EOF
