  0
SECTION
  2
HEADER
  9
$ACADVER
  1
AC1014
  9
$ACADMAINTVER
 70
     9
  9
$DWGCODEPAGE
  3
ANSI_1252
  9
$INSBASE
 10
1.634691474833407
 20
0.8400631105260687
 30
0.0
  9
$EXTMIN
 10
-0.1082901043937359
 20
0.0895589901056393
 30
0.0
  9
$EXTMAX
 10
3.376929217353391
 20
2.340063110526068
 30
0.0
  9
$LIMMIN
 10
0.0
 20
0.0
  9
$LIMMAX
 10
18.0
 20
12.0
  9
$ORTHOMODE
 70
     1
  9
$REGENMODE
 70
     1
  9
$FILLMODE
 70
     1
  9
$QTEXTMODE
 70
     0
  9
$MIRRTEXT
 70
     0
  9
$DRAGMODE
 70
     2
  9
$LTSCALE
 40
1.0
  9
$OSMODE
 70
    39
  9
$ATTMODE
 70
     1
  9
$TEXTSIZE
 40
0.125
  9
$TRACEWID
 40
0.05
  9
$TEXTSTYLE
  7
ROMANS
  9
$CLAYER
  8
0
  9
$CELTYPE
  6
BYLAYER
  9
$CECOLOR
 62
   256
  9
$CELTSCALE
 40
1.0
  9
$DELOBJ
 70
     1
  9
$DISPSILH
 70
     1
  9
$DIMSCALE
 40
1.0
  9
$DIMASZ
 40
0.125
  9
$DIMEXO
 40
0.125
  9
$DIMDLI
 40
0.375
  9
$DIMRND
 40
0.0
  9
$DIMDLE
 40
0.0
  9
$DIMEXE
 40
0.125
  9
$DIMTP
 40
0.0
  9
$DIMTM
 40
0.0
  9
$DIMTXT
 40
0.125
  9
$DIMCEN
 40
-0.125
  9
$DIMTSZ
 40
0.0
  9
$DIMTOL
 70
     0
  9
$DIMLIM
 70
     0
  9
$DIMTIH
 70
     1
  9
$DIMTOH
 70
     1
  9
$DIMSE1
 70
     0
  9
$DIMSE2
 70
     0
  9
$DIMTAD
 70
     0
  9
$DIMZIN
 70
     4
  9
$DIMBLK
  1

  9
$DIMASO
 70
     1
  9
$DIMSHO
 70
     1
  9
$DIMPOST
  1

  9
$DIMAPOST
  1

  9
$DIMALT
 70
     0
  9
$DIMALTD
 70
     2
  9
$DIMALTF
 40
25.4
  9
$DIMLFAC
 40
1.0
  9
$DIMTOFL
 70
     0
  9
$DIMTVP
 40
0.0
  9
$DIMTIX
 70
     1
  9
$DIMSOXD
 70
     0
  9
$DIMSAH
 70
     0
  9
$DIMBLK1
  1

  9
$DIMBLK2
  1

  9
$DIMSTYLE
  2
STANDARD
  9
$DIMCLRD
 70
     0
  9
$DIMCLRE
 70
     0
  9
$DIMCLRT
 70
     0
  9
$DIMTFAC
 40
1.0
  9
$DIMGAP
 40
0.09
  9
$DIMJUST
 70
     0
  9
$DIMSD1
 70
     0
  9
$DIMSD2
 70
     0
  9
$DIMTOLJ
 70
     1
  9
$DIMTZIN
 70
     4
  9
$DIMALTZ
 70
     0
  9
$DIMALTTZ
 70
     0
  9
$DIMFIT
 70
     3
  9
$DIMUPT
 70
     0
  9
$DIMUNIT
 70
     2
  9
$DIMDEC
 70
     3
  9
$DIMTDEC
 70
     3
  9
$DIMALTU
 70
     2
  9
$DIMALTTD
 70
     2
  9
$DIMTXSTY
  7
ROMANS
  9
$DIMAUNIT
 70
     0
  9
$LUNITS
 70
     2
  9
$LUPREC
 70
     3
  9
$SKETCHINC
 40
0.1
  9
$FILLETRAD
 40
0.03125
  9
$AUNITS
 70
     0
  9
$AUPREC
 70
     0
  9
$MENU
  1
ACAD
  9
$ELEVATION
 40
0.0
  9
$PELEVATION
 40
0.0
  9
$THICKNESS
 40
0.0
  9
$LIMCHECK
 70
     0
  9
$BLIPMODE
 70
     0
  9
$CHAMFERA
 40
0.0
  9
$CHAMFERB
 40
0.0
  9
$CHAMFERC
 40
0.0
  9
$CHAMFERD
 40
0.0
  9
$SKPOLY
 70
     0
  9
$TDCREATE
 40
2448994.448821991
  9
$TDUPDATE
 40
2452458.300324757
  9
$TDINDWG
 40
0.0009872222
  9
$TDUSRTIMER
 40
0.0009872222
  9
$USRTIMER
 70
     1
  9
$ANGBASE
 50
0.0
  9
$ANGDIR
 70
     0
  9
$PDMODE
 70
     0
  9
$PDSIZE
 40
0.0
  9
$PLINEWID
 40
0.0
  9
$COORDS
 70
     2
  9
$SPLFRAME
 70
     0
  9
$SPLINETYPE
 70
     6
  9
$SPLINESEGS
 70
     8
  9
$ATTDIA
 70
     0
  9
$ATTREQ
 70
     1
  9
$HANDLING
 70
 22529
  9
$HANDSEED
  5
7DE1B343D9D96DA
  9
$SURFTAB1
 70
     6
  9
$SURFTAB2
 70
     6
  9
$SURFTYPE
 70
     6
  9
$SURFU
 70
     6
  9
$SURFV
 70
     6
  9
$UCSNAME
  2

  9
$UCSORG
 10
0.0
 20
0.0
 30
0.0
  9
$UCSXDIR
 10
1.0
 20
0.0
 30
0.0
  9
$UCSYDIR
 10
0.0
 20
1.0
 30
0.0
  9
$PUCSNAME
  2

  9
$PUCSORG
 10
0.0
 20
0.0
 30
0.0
  9
$PUCSXDIR
 10
1.0
 20
0.0
 30
0.0
  9
$PUCSYDIR
 10
0.0
 20
1.0
 30
0.0
  9
$USERI1
 70
     0
  9
$USERI2
 70
     0
  9
$USERI3
 70
     0
  9
$USERI4
 70
     0
  9
$USERI5
 70
     0
  9
$USERR1
 40
0.0
  9
$USERR2
 40
0.0
  9
$USERR3
 40
0.0
  9
$USERR4
 40
0.0
  9
$USERR5
 40
0.0
  9
$WORLDVIEW
 70
     1
  9
$SHADEDGE
 70
     3
  9
$SHADEDIF
 70
    70
  9
$TILEMODE
 70
     1
  9
$MAXACTVP
 70
    16
  9
$PINSBASE
 10
0.7342605192347219
 20
50.00000000000001
 30
0.8871951275544381
  9
$PLIMCHECK
 70
     0
  9
$PEXTMIN
 10
1.000000000000000E+20
 20
1.000000000000000E+20
 30
1.000000000000000E+20
  9
$PEXTMAX
 10
-1.000000000000000E+20
 20
-1.000000000000000E+20
 30
-1.000000000000000E+20
  9
$PLIMMIN
 10
0.0
 20
0.0
  9
$PLIMMAX
 10
12.0
 20
9.0
  9
$UNITMODE
 70
     0
  9
$VISRETAIN
 70
     0
  9
$PLINEGEN
 70
     1
  9
$PSLTSCALE
 70
     0
  9
$TREEDEPTH
 70
  3020
  9
$PICKSTYLE
 70
     1
  9
$CMLSTYLE
  2
STANDARD
  9
$CMLJUST
 70
     0
  9
$CMLSCALE
 40
1.0
  9
$PROXYGRAPHICS
 70
     1
  9
$MEASUREMENT
 70
     0
  0
ENDSEC
  0
SECTION
  2
CLASSES
  0
CLASS
  1
LWPOLYLINE
  2
AcDbPolyline
  3
AutoCAD 2000
 90
        0
280
     0
281
     1
  0
CLASS
  1
ACDBDICTIONARYWDFLT
  2
AcDbDictionaryWithDefault
  3
AutoCAD 2000
 90
        0
280
     0
281
     0
  0
CLASS
  1
ACDBPLACEHOLDER
  2
AcDbPlaceHolder
  3
AutoCAD 2000
 90
        0
280
     0
281
     0
  0
CLASS
  1
LAYOUT
  2
AcDbLayout
  3
AutoCAD 2000
 90
        0
280
     0
281
     0
  0
CLASS
  1
DICTIONARYVAR
  2
AcDbDictionaryVar
  3
AutoCAD 2000
 90
        0
280
     0
281
     0
  0
CLASS
  1
LONG_TRANSACTION
  2
AcDbLongTransaction
  3
AutoCAD 2000
 90
        0
280
     0
281
     0
  0
CLASS
  1
LWPOLYLINE
  2
AcDbPolyline
  3
AutoCAD 2000
 90
        0
280
     0
281
     1
  0
CLASS
  1
HATCH
  2
AcDbHatch
  3
AutoCAD 2000
 90
        0
280
     0
281
     1
  0
CLASS
  1
XRECORD
  2
AcDbXrecord
  3
AutoCAD 2000
 90
        0
280
     0
281
     0
  0
ENDSEC
  0
SECTION
  2
TABLES
  0
TABLE
  2
VPORT
  5
7DE1B343D9D9666
330
0
100
AcDbSymbolTable
 70
     2
  0
VPORT
  5
7DE1B343D9D96B5
330
7DE1B343D9D9666
100
AcDbSymbolTableRecord
100
AcDbViewportTableRecord
  2
*ACTIVE
 70
     0
 10
0.0
 20
0.0
 11
1.0
 21
1.0
 12
4.948600988168831
 22
1.214996360259824
 13
0.0
 23
0.0
 14
0.015625
 24
0.015625
 15
0.0
 25
0.0
 16
0.0
 26
0.0
 36
1.0
 17
0.0
 27
0.0
 37
0.0
 40
2.541553940089881
 41
4.320930232558139
 42
50.0
 43
0.0
 44
0.0
 50
0.0
 51
0.0
 71
     0
 72
  2000
 73
     1
 74
     0
 75
     0
 76
     0
 77
     0
 78
     0
  0
ENDTAB
  0
TABLE
  2
LTYPE
  5
7DE1B343D9D9663
330
0
100
AcDbSymbolTable
 70
     1
  0
LTYPE
  5
7DE1B343D9D9670
330
7DE1B343D9D9663
100
AcDbSymbolTableRecord
100
AcDbLinetypeTableRecord
  2
BYBLOCK
 70
     0
  3

 72
    65
 73
     0
 40
0.0
  0
LTYPE
  5
7DE1B343D9D9671
330
7DE1B343D9D9663
100
AcDbSymbolTableRecord
100
AcDbLinetypeTableRecord
  2
BYLAYER
 70
     0
  3

 72
    65
 73
     0
 40
0.0
  0
LTYPE
  5
7DE1B343D9D9672
330
7DE1B343D9D9663
100
AcDbSymbolTableRecord
100
AcDbLinetypeTableRecord
  2
CONTINUOUS
 70
     0
  3
Solid line
 72
    65
 73
     0
 40
0.0
  0
ENDTAB
  0
TABLE
  2
LAYER
  5
7DE1B343D9D9660
330
0
100
AcDbSymbolTable
 70
     3
  0
LAYER
  5
7DE1B343D9D966D
330
7DE1B343D9D9660
100
AcDbSymbolTableRecord
100
AcDbLayerTableRecord
  2
0
 70
     0
 62
     7
  6
CONTINUOUS
  0
LAYER
  5
7DE1B343D9D967D
330
7DE1B343D9D9660
100
AcDbSymbolTableRecord
100
AcDbLayerTableRecord
  2
TEXT
 70
     0
 62
     3
  6
CONTINUOUS
  0
LAYER
  5
7DE1B343D9D968D
330
7DE1B343D9D9660
100
AcDbSymbolTableRecord
100
AcDbLayerTableRecord
  2
ASHADE
 70
     4
 62
     7
  6
CONTINUOUS
  0
ENDTAB
  0
TABLE
  2
STYLE
  5
7DE1B343D9D9661
330
0
100
AcDbSymbolTable
 70
     4
  0
STYLE
  5
7DE1B343D9D966E
330
7DE1B343D9D9661
100
AcDbSymbolTableRecord
100
AcDbTextStyleTableRecord
  2
STANDARD
 70
     0
 40
0.0
 41
1.0
 50
0.0
 71
     0
 42
0.3125
  3
txt
  4

  0
STYLE
  5
7DE1B343D9D967A
330
7DE1B343D9D9661
100
AcDbSymbolTableRecord
100
AcDbTextStyleTableRecord
  2
ITALICC
 70
     0
 40
0.0
 41
1.0
 50
0.0
 71
     0
 42
0.125
  3
italicc
  4

  0
STYLE
  5
7DE1B343D9D968A
330
7DE1B343D9D9661
100
AcDbSymbolTableRecord
100
AcDbTextStyleTableRecord
  2
ASHADE
 70
     0
 40
0.2
 41
1.0
 50
0.0
 71
     0
 42
0.3125
  3
simplex
  4

  0
STYLE
  5
7DE1B343D9D96A5
330
7DE1B343D9D9661
100
AcDbSymbolTableRecord
100
AcDbTextStyleTableRecord
  2
ROMANS
 70
     0
 40
0.0
 41
1.0
 50
0.0
 71
     0
 42
0.125
  3
romans.shx
  4

  0
ENDTAB
  0
TABLE
  2
VIEW
  5
7DE1B343D9D9664
330
0
100
AcDbSymbolTable
 70
     0
  0
ENDTAB
  0
TABLE
  2
UCS
  5
7DE1B343D9D9665
330
0
100
AcDbSymbolTable
 70
     0
  0
ENDTAB
  0
TABLE
  2
APPID
  5
7DE1B343D9D9667
330
0
100
AcDbSymbolTable
 70
     6
  0
APPID
  5
7DE1B343D9D966F
330
7DE1B343D9D9667
100
AcDbSymbolTableRecord
100
AcDbRegAppTableRecord
  2
ACAD
 70
     0
  0
APPID
  5
7DE1B343D9D968B
330
7DE1B343D9D9667
100
AcDbSymbolTableRecord
100
AcDbRegAppTableRecord
  2
AVE_RENDER
 70
     0
  0
APPID
  5
7DE1B343D9D968C
330
7DE1B343D9D9667
100
AcDbSymbolTableRecord
100
AcDbRegAppTableRecord
  2
AVE_ENTITY_MATERIAL
 70
     0
  0
APPID
  5
7DE1B343D9D9699
330
7DE1B343D9D9667
100
AcDbSymbolTableRecord
100
AcDbRegAppTableRecord
  2
AVE_FINISH
 70
     0
  0
APPID
  5
7DE1B343D9D969A
330
7DE1B343D9D9667
100
AcDbSymbolTableRecord
100
AcDbRegAppTableRecord
  2
AVE_MATERIAL
 70
     0
  0
APPID
  5
7DE1B343D9D969B
330
7DE1B343D9D9667
100
AcDbSymbolTableRecord
100
AcDbRegAppTableRecord
  2
AVE_GLOBAL
 70
     0
  0
ENDTAB
  0
TABLE
  2
DIMSTYLE
  5
7DE1B343D9D9668
330
0
100
AcDbSymbolTable
 70
     1
  0
DIMSTYLE
105
7DE1B343D9D9682
330
7DE1B343D9D9668
100
AcDbSymbolTableRecord
100
AcDbDimStyleTableRecord
  2
STANDARD
 70
     0
  3

  4

  5

  6

  7

 40
1.0
 41
0.125
 42
0.125
 43
0.375
 44
0.125
 45
0.0
 46
0.0
 47
0.0
 48
0.0
140
0.125
141
-0.125
142
0.0
143
25.4
144
1.0
145
0.0
146
1.0
147
0.09
 71
     0
 72
     0
 73
     1
 74
     1
 75
     0
 76
     0
 77
     0
 78
     4
170
     0
171
     2
172
     0
173
     0
174
     1
175
     0
176
     0
177
     0
178
     0
270
     2
271
     3
272
     3
273
     2
274
     2
340
7DE1B343D9D96A5
275
     0
280
     0
281
     0
282
     0
283
     1
284
     4
285
     0
286
     0
287
     3
288
     0
  0
ENDTAB
  0
TABLE
  2
BLOCK_RECORD
  5
7DE1B343D9D965F
330
0
100
AcDbSymbolTable
 70
     2
  0
BLOCK_RECORD
  5
7DE1B343D9D9676
102
{ACAD_XDICTIONARY
360
7DE1B343D9D96D8
102
}
330
7DE1B343D9D965F
100
AcDbSymbolTableRecord
100
AcDbBlockTableRecord
  2
*MODEL_SPACE
  0
BLOCK_RECORD
  5
7DE1B343D9D9673
102
{ACAD_XDICTIONARY
360
7DE1B343D9D96D6
102
}
330
7DE1B343D9D965F
100
AcDbSymbolTableRecord
100
AcDbBlockTableRecord
  2
*PAPER_SPACE
  0
BLOCK_RECORD
  5
7DE1B343D9D968E
330
7DE1B343D9D965F
100
AcDbSymbolTableRecord
100
AcDbBlockTableRecord
  2
AVE_RENDER
  0
BLOCK_RECORD
  5
7DE1B343D9D969C
330
7DE1B343D9D965F
100
AcDbSymbolTableRecord
100
AcDbBlockTableRecord
  2
AVE_GLOBAL
  0
ENDTAB
  0
ENDSEC
  0
SECTION
  2
BLOCKS
  0
BLOCK
  5
7DE1B343D9D9680
330
7DE1B343D9D9676
100
AcDbEntity
  8
0
100
AcDbBlockBegin
  2
*MODEL_SPACE
 70
     0
 10
0.0
 20
0.0
 30
0.0
  3
*MODEL_SPACE
  1

  0
ENDBLK
  5
7DE1B343D9D9681
330
7DE1B343D9D9676
100
AcDbEntity
  8
0
100
AcDbBlockEnd
  0
BLOCK
  5
7DE1B343D9D967E
330
7DE1B343D9D9673
100
AcDbEntity
 67
     1
  8
0
100
AcDbBlockBegin
  2
*PAPER_SPACE
 70
     0
 10
0.0
 20
0.0
 30
0.0
  3
*PAPER_SPACE
  1

  0
ENDBLK
  5
7DE1B343D9D967F
330
7DE1B343D9D9673
100
AcDbEntity
 67
     1
  8
0
100
AcDbBlockEnd
  0
BLOCK
  5
7DE1B343D9D968F
330
7DE1B343D9D968E
100
AcDbEntity
  8
0
100
AcDbBlockBegin
  2
AVE_RENDER
 70
     0
 10
0.0
 20
0.0
 30
0.0
  3
AVE_RENDER
  1
AVE_RENDER
  0
ENDBLK
  5
7DE1B343D9D9690
330
7DE1B343D9D968E
100
AcDbEntity
  8
0
100
AcDbBlockEnd
  0
BLOCK
  5
7DE1B343D9D969D
330
7DE1B343D9D969C
100
AcDbEntity
  8
0
100
AcDbBlockBegin
  2
AVE_GLOBAL
 70
     0
 10
0.0
 20
0.0
 30
0.0
  3
AVE_GLOBAL
  1
AVE_GLOBAL
  0
ENDBLK
  5
7DE1B343D9D969E
330
7DE1B343D9D969C
100
AcDbEntity
  8
0
100
AcDbBlockEnd
  0
ENDSEC
  0
SECTION
  2
ENTITIES
  0
LWPOLYLINE
  5
7DE1B343D9D80EB
330
7DE1B343D9D9676
100
AcDbEntity
  8
0
100
AcDbPolyline
 90
       14
 70
     1
 43
0.0
 10
0.1350310334116114
 20
0.8719780041430897
 42
1.0
 10
0.1975168851375195
 20
0.8706482169090481
 42
-0.005553499446962
 10
0.1985508131988998
 20
0.9025631105260689
 10
0.5805648870968799
 20
0.9025631105260689
 42
0.2679491924311233
 10
0.6076281809651434
 20
0.9181881105260689
 10
0.634691474833407
 20
0.9650631105260689
 10
0.2026365701597075
 20
0.9650631105260689
 42
-0.9165151389911677
 10
3.066746379507107
 20
0.9650631105260689
 10
2.634691474833406
 20
0.9650631105260689
 10
2.66175476870167
 20
0.9181881105260689
 42
0.2679491924311233
 10
2.688818062569934
 20
0.9025631105260689
 10
3.070832136467914
 20
0.9025631105260689
 42
-0.005553499446962
 10
3.071866064529294
 20
0.8706482169090481
 42
1.0
 10
3.134351916255202
 20
0.8719780041430897
 42
0.9789450103725606
  0
TEXT
  5
7DE1B343D9D9521
330
7DE1B343D9D9676
100
AcDbEntity
  8
TEXT
100
AcDbText
 10
0.8817152843572173
 20
0.5475775941882209
 30
0.0
 40
0.125
  1
PART #110202
  7
ITALICC
 72
     1
 11
1.634691474833407
 21
0.5475775941882209
 31
0.0
100
AcDbText
  0
TEXT
  5
7DE1B343D9D9522
330
7DE1B343D9D9676
100
AcDbEntity
  8
TEXT
100
AcDbText
 10
2.047996633083728
 20
0.1006549515158457
 30
0.0
 40
0.0522247191011236
  1
Phone  1-800-328-2495
 41
1.272321428571429
 72
     5
 11
3.376929217353391
 21
0.1006549515158457
 31
0.0
100
AcDbText
  0
TEXT
  5
7DE1B343D9D9523
330
7DE1B343D9D9676
100
AcDbEntity
  8
TEXT
100
AcDbText
 10
2.047996633083728
 20
0.3804302324147222
 30
0.0
 40
0.0522247191011236
  1
Stylmark  Incorporated
 41
1.221428571428573
 72
     5
 11
3.376929217353391
 21
0.3804302324147222
 31
0.0
100
AcDbText
  0
TEXT
  5
7DE1B343D9D9524
330
7DE1B343D9D9676
100
AcDbEntity
  8
TEXT
100
AcDbText
 10
2.047996633083728
 20
0.28717180544843
 30
0.0
 40
0.0522247191011236
  1
6536 Main St. N.E. * P.O. Box 32008
 41
0.8388932496075366
 72
     5
 11
3.376929217353391
 21
0.28717180544843
 31
0.0
100
AcDbText
  0
TEXT
  5
7DE1B343D9D9525
330
7DE1B343D9D9676
100
AcDbEntity
  8
TEXT
100
AcDbText
 10
2.047996633083728
 20
0.1939133784821379
 30
0.0
 40
0.0522247191011236
  1
Minneapolis, MN 55432-0008
 41
1.11444212721585
 72
     5
 11
3.376929217353391
 21
0.1939133784821379
 31
0.0
100
AcDbText
  0
LWPOLYLINE
  5
7DE1B343D9D9526
330
7DE1B343D9D9676
100
AcDbEntity
  8
TEXT
100
AcDbPolyline
 90
        3
 70
     0
 43
0.0006660908203125
 10
-0.1079570589835797
 20
0.2142997141532805
 10
-0.1079570589835797
 20
0.1010642747001529
 10
0.0052783804695427
 20
0.1010642747001529
  0
LWPOLYLINE
  5
7DE1B343D9D952B
330
7DE1B343D9D9676
100
AcDbEntity
  8
TEXT
100
AcDbPolyline
 90
        3
 70
     0
 43
0.0006660908203125
 10
-0.0813134261710822
 20
0.2142997141532805
 10
-0.0813134261710822
 20
0.1277079075126539
 10
0.0052783804695427
 20
0.1277079075126539
  0
LWPOLYLINE
  5
7DE1B343D9D9530
330
7DE1B343D9D9676
100
AcDbEntity
  8
TEXT
100
AcDbPolyline
 90
        2
 70
     0
 43
0.0001332181640625
 10
-0.0346870687492054
 20
0.2242910764579657
 10
-0.1079570589835797
 20
0.2142997141532805
  0
LWPOLYLINE
  5
7DE1B343D9D9534
330
7DE1B343D9D9676
100
AcDbEntity
  8
TEXT
100
AcDbPolyline
 90
        2
 70
     0
 43
0.0001332181640625
 10
-0.0813134261710822
 20
0.2142997141532805
 10
-0.0213652523429548
 20
0.2242910764579657
  0
LWPOLYLINE
  5
7DE1B343D9D9538
330
7DE1B343D9D9676
100
AcDbEntity
  8
TEXT
100
AcDbPolyline
 90
        2
 70
     0
 43
0.0001332181640625
 10
-0.0813134261710822
 20
0.1277079075126539
 10
-0.0213652523429548
 20
0.1876560813407795
  0
LWPOLYLINE
  5
7DE1B343D9D953C
330
7DE1B343D9D9676
100
AcDbEntity
  8
TEXT
100
AcDbPolyline
 90
        3
 70
     0
 43
0.0006660908203125
 10
0.0052783804695427
 20
0.3675006028251562
 10
-0.1079570589835797
 20
0.3675006028251562
 10
-0.1079570589835797
 20
0.2542651633720285
  0
LWPOLYLINE
  5
7DE1B343D9D9541
330
7DE1B343D9D9676
100
AcDbEntity
  8
TEXT
100
AcDbPolyline
 90
        3
 70
     0
 43
0.0006660908203125
 10
0.0052783804695427
 20
0.3408569700126551
 10
-0.0813134261710822
 20
0.3408569700126551
 10
-0.0813134261710822
 20
0.2542651633720285
  0
LWPOLYLINE
  5
7DE1B343D9D9546
330
7DE1B343D9D9676
100
AcDbEntity
  8
TEXT
100
AcDbPolyline
 90
        2
 70
     0
 43
0.0001332181640625
 10
-0.0813134261710822
 20
0.3408569700126551
 10
-0.0213652523429566
 20
0.2809087961845296
  0
LWPOLYLINE
  5
7DE1B343D9D954A
330
7DE1B343D9D9676
100
AcDbEntity
  8
TEXT
100
AcDbPolyline
 90
        2
 70
     0
 43
0.0001332181640625
 10
-0.0813134261710822
 20
0.2542651633720285
 10
-0.0213652523429566
 20
0.2442738010673398
  0
LWPOLYLINE
  5
7DE1B343D9D954E
330
7DE1B343D9D9676
100
AcDbEntity
  8
TEXT
100
AcDbPolyline
 90
        2
 70
     0
 43
0.0001332181640625
 10
-0.1079570589835797
 20
0.2542651633720285
 10
-0.0346870687492054
 20
0.2442738010673398
  0
LWPOLYLINE
  5
7DE1B343D9D9552
330
7DE1B343D9D9676
100
AcDbEntity
  8
TEXT
100
AcDbPolyline
 90
        2
 70
     0
 43
0.0006660908203125
 10
-0.0813134261710822
 20
0.2142997141532805
 10
-0.1079570589835797
 20
0.2142997141532805
  0
LWPOLYLINE
  5
7DE1B343D9D9556
330
7DE1B343D9D9676
100
AcDbEntity
  8
TEXT
100
AcDbPolyline
 90
        2
 70
     0
 43
0.0006660908203125
 10
-0.0813134261710822
 20
0.2542651633720285
 10
-0.1079570589835797
 20
0.2542651633720285
  0
LINE
  5
7DE1B343D9D955A
330
7DE1B343D9D9676
100
AcDbEntity
  8
TEXT
100
AcDbLine
 10
1.407233370142917
 20
0.3032239081683872
 30
0.0
 11
1.300027096755628
 21
0.3032239081683872
 31
0.0
  0
LINE
  5
7DE1B343D9D955B
330
7DE1B343D9D9676
100
AcDbEntity
  8
TEXT
100
AcDbLine
 10
1.436264268487396
 20
0.3675006028251526
 30
0.0
 11
1.301432359270337
 21
0.3675006028251526
 31
0.0
  0
ARC
  5
7DE1B343D9D955C
330
7DE1B343D9D9676
100
AcDbEntity
  8
TEXT
100
AcDbCircle
 10
1.360746455663654
 20
0.1982633535621363
 30
0.0
 40
0.0676855811441166
100
AcDbArc
 50
90.0
 51
153.7768192527749
  0
LWPOLYLINE
  5
7DE1B343D9D955D
330
7DE1B343D9D9676
100
AcDbEntity
  8
TEXT
100
AcDbPolyline
 90
        2
 70
     0
 43
0.0
 10
1.298994601300818
 20
0.1445185147870798
 42
0.2901071551932823
 10
1.342070534168454
 20
0.1010275698366416
 42
5.328517124445801
  0
ARC
  5
7DE1B343D9D9561
330
7DE1B343D9D9676
100
AcDbEntity
  8
TEXT
100
AcDbCircle
 10
0.6556150779921684
 20
0.1608199611746914
 30
0.0
 40
0.0601160179737537
100
AcDbArc
 50
180.0000000000003
 51
264.0521544866073
  0
LINE
  5
7DE1B343D9D9562
330
7DE1B343D9D9676
100
AcDbEntity
  8
TEXT
100
AcDbLine
 10
0.6591304336177162
 20
0.4018885204192908
 30
0.0
 11
0.5990878287737092
 21
0.4018885204192908
 31
0.0
  0
ARC
  5
7DE1B343D9D9563
330
7DE1B343D9D9676
100
AcDbEntity
  8
TEXT
100
AcDbCircle
 10
0.4233560758751978
 20
0.2854131433786509
 30
0.0
 40
0.0820874594465043
100
AcDbArc
 50
90.0
 51
270.0
  0
LWPOLYLINE
  5
7DE1B343D9D9564
330
7DE1B343D9D9676
100
AcDbEntity
  8
TEXT
100
AcDbPolyline
 90
        2
 70
     0
 43
0.0001332181640625
 10
0.0152697427742332
 20
0.2942306125907765
 10
0.0052783804695427
 20
0.3675006028251562
  0
LWPOLYLINE
  5
7DE1B343D9D9568
330
7DE1B343D9D9676
100
AcDbEntity
  8
TEXT
100
AcDbPolyline
 90
        2
 70
     0
 43
0.0001332181640625
 10
0.0052783804695427
 20
0.3408569700126551
 10
0.0152697427742332
 20
0.2809087961845296
  0
LWPOLYLINE
  5
7DE1B343D9D956C
330
7DE1B343D9D9676
100
AcDbEntity
  8
TEXT
100
AcDbPolyline
 90
        3
 70
     0
 43
0.0006660908203125
 10
0.1584792691414201
 20
0.2542651633720285
 10
0.1584792691414201
 20
0.3675006028251562
 10
0.0452438296882942
 20
0.3675006028251562
  0
LWPOLYLINE
  5
7DE1B343D9D9571
330
7DE1B343D9D9676
100
AcDbEntity
  8
TEXT
100
AcDbPolyline
 90
        3
 70
     0
 43
0.0006660908203125
 10
0.131835636328919
 20
0.2542651633720285
 10
0.131835636328919
 20
0.3408569700126551
 10
0.0452438296882942
 20
0.3408569700126551
  0
LWPOLYLINE
  5
7DE1B343D9D9576
330
7DE1B343D9D9676
100
AcDbEntity
  8
TEXT
100
AcDbPolyline
 90
        2
 70
     0
 43
0.0001332181640625
 10
0.131835636328919
 20
0.3408569700126551
 10
0.0718874625007953
 20
0.2809087961845296
  0
LWPOLYLINE
  5
7DE1B343D9D957A
330
7DE1B343D9D9676
100
AcDbEntity
  8
TEXT
100
AcDbPolyline
 90
        2
 70
     0
 43
0.0001332181640625
 10
0.0452438296882942
 20
0.3408569700126551
 10
0.0352524673836054
 20
0.2809087961845296
  0
LWPOLYLINE
  5
7DE1B343D9D957E
330
7DE1B343D9D9676
100
AcDbEntity
  8
TEXT
100
AcDbPolyline
 90
        2
 70
     0
 43
0.0001332181640625
 10
0.0452438296882942
 20
0.3675006028251562
 10
0.0352524673836054
 20
0.2942306125907765
  0
LWPOLYLINE
  5
7DE1B343D9D9582
330
7DE1B343D9D9676
100
AcDbEntity
  8
TEXT
100
AcDbPolyline
 90
        2
 70
     0
 43
0.0001332181640625
 10
0.085209278907044
 20
0.2442738010673398
 10
0.1584792691414201
 20
0.2542651633720285
  0
LWPOLYLINE
  5
7DE1B343D9D9586
330
7DE1B343D9D9676
100
AcDbEntity
  8
TEXT
100
AcDbPolyline
 90
        2
 70
     0
 43
0.0001332181640625
 10
0.131835636328919
 20
0.2542651633720285
 10
0.0718874625007953
 20
0.2442738010673398
  0
LWPOLYLINE
  5
7DE1B343D9D958A
330
7DE1B343D9D9676
100
AcDbEntity
  8
TEXT
100
AcDbPolyline
 90
        2
 70
     0
 43
0.0001332181640625
 10
0.1584792691414201
 20
0.2142997141532805
 10
0.085209278907044
 20
0.2242910764579657
  0
LWPOLYLINE
  5
7DE1B343D9D958E
330
7DE1B343D9D9676
100
AcDbEntity
  8
TEXT
100
AcDbPolyline
 90
        2
 70
     0
 43
0.0001332181640625
 10
0.131835636328919
 20
0.2142997141532805
 10
0.0718874625007953
 20
0.2242910764579657
  0
LWPOLYLINE
  5
7DE1B343D9D9592
330
7DE1B343D9D9676
100
AcDbEntity
  8
TEXT
100
AcDbPolyline
 90
        2
 70
     0
 43
0.0001332181640625
 10
0.131835636328919
 20
0.1277079075126539
 10
0.0718874625007953
 20
0.1876560813407795
  0
LWPOLYLINE
  5
7DE1B343D9D9596
330
7DE1B343D9D9676
100
AcDbEntity
  8
TEXT
100
AcDbPolyline
 90
        3
 70
     0
 43
0.0006660908203125
 10
0.0452438296882942
 20
0.1277079075126539
 10
0.131835636328919
 20
0.1277079075126539
 10
0.131835636328919
 20
0.2142997141532805
  0
LWPOLYLINE
  5
7DE1B343D9D959B
330
7DE1B343D9D9676
100
AcDbEntity
  8
TEXT
100
AcDbPolyline
 90
        3
 70
     0
 43
0.0006660908203125
 10
0.0452438296882942
 20
0.1010642747001529
 10
0.1584792691414201
 20
0.1010642747001529
 10
0.1584792691414201
 20
0.2142997141532805
  0
LWPOLYLINE
  5
7DE1B343D9D95A0
330
7DE1B343D9D9676
100
AcDbEntity
  8
TEXT
100
AcDbPolyline
 90
        5
 70
     0
 43
0.0001332181640625
 10
0.0152697427742332
 20
0.174334264934529
 10
0.0152697427742332
 20
0.1876560813407795
 10
-0.0213652523429548
 20
0.1876560813407795
 10
-0.0213652523429548
 20
0.2242910764579657
 10
-0.0346870687492054
 20
0.2242910764579657
  0
LWPOLYLINE
  5
7DE1B343D9D95A7
330
7DE1B343D9D9676
100
AcDbEntity
  8
TEXT
100
AcDbPolyline
 90
        2
 70
     0
 43
0.0006660908203125
 10
0.0052783804695427
 20
0.1277079075126539
 10
0.0052783804695427
 20
0.1010642747001529
  0
LWPOLYLINE
  5
7DE1B343D9D95AB
330
7DE1B343D9D9676
100
AcDbEntity
  8
TEXT
100
AcDbPolyline
 90
        2
 70
     0
 43
0.0001332181640625
 10
0.0052783804695427
 20
0.1277079075126539
 10
0.0152697427742332
 20
0.1876560813407795
  0
LWPOLYLINE
  5
7DE1B343D9D95AF
330
7DE1B343D9D9676
100
AcDbEntity
  8
TEXT
100
AcDbPolyline
 90
        2
 70
     0
 43
0.0001332181640625
 10
0.0052783804695427
 20
0.1010642747001529
 10
0.0152697427742332
 20
0.174334264934529
  0
LWPOLYLINE
  5
7DE1B343D9D95B3
330
7DE1B343D9D9676
100
AcDbEntity
  8
TEXT
100
AcDbPolyline
 90
        5
 70
     0
 43
0.0001332181640625
 10
-0.0346870687492054
 20
0.2442738010673398
 10
-0.0213652523429566
 20
0.2442738010673398
 10
-0.0213652523429566
 20
0.2809087961845296
 10
0.0152697427742332
 20
0.2809087961845296
 10
0.0152697427742332
 20
0.2942306125907765
  0
LWPOLYLINE
  5
7DE1B343D9D95BA
330
7DE1B343D9D9676
100
AcDbEntity
  8
TEXT
100
AcDbPolyline
 90
        5
 70
     0
 43
0.0001332181640625
 10
0.0352524673836054
 20
0.2942306125907765
 10
0.0352524673836054
 20
0.2809087961845296
 10
0.0718874625007953
 20
0.2809087961845296
 10
0.0718874625007953
 20
0.2442738010673398
 10
0.085209278907044
 20
0.2442738010673398
  0
LWPOLYLINE
  5
7DE1B343D9D95C1
330
7DE1B343D9D9676
100
AcDbEntity
  8
TEXT
100
AcDbPolyline
 90
        2
 70
     0
 43
0.0001332181640625
 10
0.0452438296882942
 20
0.1277079075126539
 10
0.0352524673836054
 20
0.1876560813407795
  0
LWPOLYLINE
  5
7DE1B343D9D95C5
330
7DE1B343D9D9676
100
AcDbEntity
  8
TEXT
100
AcDbPolyline
 90
        2
 70
     0
 43
0.0001332181640625
 10
0.0352524673836054
 20
0.174334264934529
 10
0.0452438296882942
 20
0.1010642747001529
  0
LWPOLYLINE
  5
7DE1B343D9D95C9
330
7DE1B343D9D9676
100
AcDbEntity
  8
TEXT
100
AcDbPolyline
 90
        2
 70
     0
 43
0.0006660908203125
 10
0.0452438296882942
 20
0.1277079075126539
 10
0.0452438296882942
 20
0.1010642747001529
  0
LWPOLYLINE
  5
7DE1B343D9D95CD
330
7DE1B343D9D9676
100
AcDbEntity
  8
TEXT
100
AcDbPolyline
 90
        5
 70
     0
 43
0.0001332181640625
 10
0.085209278907044
 20
0.2242910764579657
 10
0.0718874625007953
 20
0.2242910764579657
 10
0.0718874625007953
 20
0.1876560813407795
 10
0.0352524673836054
 20
0.1876560813407795
 10
0.0352524673836054
 20
0.174334264934529
  0
LWPOLYLINE
  5
7DE1B343D9D95D4
330
7DE1B343D9D9676
100
AcDbEntity
  8
TEXT
100
AcDbPolyline
 90
        2
 70
     0
 43
0.0006660908203125
 10
0.131835636328919
 20
0.2542651633720285
 10
0.1584792691414201
 20
0.2542651633720285
  0
LWPOLYLINE
  5
7DE1B343D9D95D8
330
7DE1B343D9D9676
100
AcDbEntity
  8
TEXT
100
AcDbPolyline
 90
        2
 70
     0
 43
0.0006660908203125
 10
0.131835636328919
 20
0.2142997141532805
 10
0.1584792691414201
 20
0.2142997141532805
  0
LINE
  5
7DE1B343D9D95DC
330
7DE1B343D9D9676
100
AcDbEntity
  8
TEXT
100
AcDbLine
 10
0.428593405989445
 20
0.3032239081683872
 30
0.0
 11
0.5954990600184163
 21
0.3032239081683872
 31
0.0
  0
LINE
  5
7DE1B343D9D95DD
330
7DE1B343D9D9676
100
AcDbEntity
  8
TEXT
100
AcDbLine
 10
0.494193542233746
 20
0.2674191865577593
 30
0.0
 11
0.428593405989445
 21
0.2674191865577593
 31
0.0
  0
LINE
  5
7DE1B343D9D95DE
330
7DE1B343D9D9676
100
AcDbEntity
  8
TEXT
100
AcDbLine
 10
0.3412686164286933
 20
0.1010275698366416
 30
0.0
 11
0.494193542233746
 21
0.1010275698366416
 31
0.0
  0
LINE
  5
7DE1B343D9D95DF
330
7DE1B343D9D9676
100
AcDbEntity
  8
TEXT
100
AcDbLine
 10
0.4991339161400257
 20
0.169384576170081
 30
0.0
 11
0.3412686164286915
 21
0.169384576170081
 31
0.0
  0
LINE
  5
7DE1B343D9D95E0
330
7DE1B343D9D9676
100
AcDbEntity
  8
TEXT
100
AcDbLine
 10
0.4233560758751969
 20
0.2033256839321456
 30
0.0
 11
0.4991339161400257
 21
0.2033256839321456
 31
0.0
  0
ARC
  5
7DE1B343D9D95E1
330
7DE1B343D9D9676
100
AcDbEntity
  8
TEXT
100
AcDbCircle
 10
0.4285934059894459
 20
0.285321547363075
 30
0.0
 40
0.017902360805315
100
AcDbArc
 50
90.0
 51
270.0
  0
LINE
  5
7DE1B343D9D95E2
330
7DE1B343D9D9676
100
AcDbEntity
  8
TEXT
100
AcDbLine
 10
0.3412686164286915
 20
0.169384576170081
 30
0.0
 11
0.3412686164286933
 21
0.1010275698366416
 31
0.0
  0
LINE
  5
7DE1B343D9D95E3
330
7DE1B343D9D9676
100
AcDbEntity
  8
TEXT
100
AcDbLine
 10
0.5954990600184163
 20
0.3032239081683872
 30
0.0
 11
0.5954990600184163
 21
0.1608199611746914
 31
0.0
  0
ARC
  5
7DE1B343D9D95E4
330
7DE1B343D9D9676
100
AcDbEntity
  8
TEXT
100
AcDbCircle
 10
0.4941935422337469
 20
0.1842233781971987
 30
0.0
 40
0.0831958083605586
100
AcDbArc
 50
270.0
 51
90.0
  0
ARC
  5
7DE1B343D9D95E5
330
7DE1B343D9D9676
100
AcDbEntity
  8
TEXT
100
AcDbCircle
 10
0.4991339161400266
 20
0.186355130051115
 30
0.0
 40
0.0169705538810321
100
AcDbArc
 50
270.0
 51
90.0
  0
LWPOLYLINE
  5
7DE1B343D9D95E6
330
7DE1B343D9D9676
100
AcDbEntity
  8
TEXT
100
AcDbPolyline
 90
        2
 70
     0
 43
0.0006660908203125
 10
0.0052783804695427
 20
0.3408569700126551
 10
0.0052783804695427
 20
0.3675006028251562
  0
LWPOLYLINE
  5
7DE1B343D9D95EA
330
7DE1B343D9D9676
100
AcDbEntity
  8
TEXT
100
AcDbPolyline
 90
        2
 70
     0
 43
0.0006660908203125
 10
0.0452438296882942
 20
0.3408569700126551
 10
0.0452438296882942
 20
0.3675006028251562
  0
LINE
  5
7DE1B343D9D95EE
330
7DE1B343D9D9676
100
AcDbEntity
  8
TEXT
100
AcDbLine
 10
0.5990878287737092
 20
0.3675006028251526
 30
0.0
 11
0.4233560758751969
 21
0.3675006028251526
 31
0.0
  0
LINE
  5
7DE1B343D9D95EF
330
7DE1B343D9D9676
100
AcDbEntity
  8
TEXT
100
AcDbLine
 10
0.5990878287737092
 20
0.4018885204192908
 30
0.0
 11
0.5990878287737092
 21
0.3675006028251526
 31
0.0
  0
LINE
  5
7DE1B343D9D95F0
330
7DE1B343D9D9676
100
AcDbEntity
  8
TEXT
100
AcDbLine
 10
0.7895597207935614
 20
0.266628606712032
 30
0.0
 11
0.7309293997616236
 21
0.3675006028251526
 31
0.0
  0
LINE
  5
7DE1B343D9D95F1
330
7DE1B343D9D9676
100
AcDbEntity
  8
TEXT
100
AcDbLine
 10
0.8483082835994268
 20
0.3675006028251526
 30
0.0
 11
0.7895597207935614
 21
0.266628606712032
 31
0.0
  0
LINE
  5
7DE1B343D9D95F2
330
7DE1B343D9D9676
100
AcDbEntity
  8
TEXT
100
AcDbLine
 10
0.9452389089591681
 20
0.1834154079396408
 30
0.0
 11
0.9452389089591681
 21
0.4355120805639632
 31
0.0
  0
LINE
  5
7DE1B343D9D95F3
330
7DE1B343D9D9676
100
AcDbEntity
  8
TEXT
100
AcDbLine
 10
0.9775507630968283
 20
0.3675006028251526
 30
0.0
 11
0.9775507630968283
 21
0.1666363960927444
 31
0.0
  0
LINE
  5
7DE1B343D9D95F4
330
7DE1B343D9D9676
100
AcDbEntity
  8
TEXT
100
AcDbLine
 10
0.9775507630968283
 20
0.1666363960927444
 30
0.0
 11
0.9605571262122269
 21
0.1666363960927444
 31
0.0
  0
LINE
  5
7DE1B343D9D95F5
330
7DE1B343D9D9676
100
AcDbEntity
  8
TEXT
100
AcDbLine
 10
0.9463784824553629
 20
0.1010275698366416
 30
0.0
 11
1.044381816154797
 21
0.1010275698366416
 31
0.0
  0
LINE
  5
7DE1B343D9D95F6
330
7DE1B343D9D9676
100
AcDbEntity
  8
TEXT
100
AcDbLine
 10
0.7799594837966071
 20
0.1209860759416546
 30
0.0
 11
0.8772591898900516
 21
0.2853362868769227
 31
0.0
  0
ARC
  5
7DE1B343D9D95F7
330
7DE1B343D9D9676
100
AcDbEntity
  8
TEXT
100
AcDbCircle
 10
0.7459159238843931
 20
0.1405752921103374
 30
0.0
 40
0.0392772371940762
100
AcDbArc
 50
270.1604552698595
 51
330.0831797321295
  0
LINE
  5
7DE1B343D9D95F8
330
7DE1B343D9D9676
100
AcDbEntity
  8
TEXT
100
AcDbLine
 10
0.6493856674985219
 20
0.1010275698366416
 30
0.0
 11
0.7460259185735163
 21
0.1012982089349239
 31
0.0
  0
LWPOLYLINE
  5
7DE1B343D9D95F9
330
7DE1B343D9D9676
100
AcDbEntity
  8
TEXT
100
AcDbPolyline
 90
        6
 70
     1
 43
0.0
 10
0.6919094710736716
 20
0.3032239081683872
 10
0.6615928768534634
 20
0.3032239081683872
 10
0.6615928768534634
 20
0.1801129101134928
 42
0.407328721240804
 10
0.6731365280149398
 20
0.1682939954371068
 10
0.7337582270596706
 20
0.1682939954371068
 10
0.7512235674669885
 20
0.2011062244805859
  0
LINE
  5
7DE1B343D9D9601
330
7DE1B343D9D9676
100
AcDbEntity
  8
TEXT
100
AcDbLine
 10
0.8772591898900516
 20
0.2853362868769227
 30
0.0
 11
0.8772591898900516
 21
0.1525789120515664
 31
0.0
  0
ARC
  5
7DE1B343D9D9602
330
7DE1B343D9D9676
100
AcDbEntity
  8
TEXT
100
AcDbCircle
 10
0.9605571262122252
 20
0.1820182023361698
 30
0.0
 40
0.0153818062434269
100
AcDbArc
 50
174.7883570302258
 51
270.0
  0
LWPOLYLINE
  5
7DE1B343D9D9603
330
7DE1B343D9D9676
100
AcDbEntity
  8
TEXT
100
AcDbPolyline
 90
        2
 70
     0
 43
0.0
 10
0.8772591898900499
 20
0.1525789120515699
 42
0.3318488747599744
 10
0.9463784824553629
 20
0.1010275698366416
 42
-6.868794160588311
  0
LINE
  5
7DE1B343D9D9607
330
7DE1B343D9D9676
100
AcDbEntity
  8
TEXT
100
AcDbLine
 10
1.101770885144058
 20
0.1010275698366416
 30
0.0
 11
1.168828931925898
 21
0.1010275698366416
 31
0.0
  0
LINE
  5
7DE1B343D9D9608
330
7DE1B343D9D9676
100
AcDbEntity
  8
TEXT
100
AcDbLine
 10
1.101770885144058
 20
0.2956701190022772
 30
0.0
 11
1.101770885144058
 21
0.1010275698366416
 31
0.0
  0
LINE
  5
7DE1B343D9D9609
330
7DE1B343D9D9676
100
AcDbEntity
  8
TEXT
100
AcDbLine
 10
1.044381816154797
 20
0.3032239081683872
 30
0.0
 11
1.094217095977945
 21
0.3032239081683872
 31
0.0
  0
LINE
  5
7DE1B343D9D960A
330
7DE1B343D9D9676
100
AcDbEntity
  8
TEXT
100
AcDbLine
 10
1.044381816154797
 20
0.1010275698366416
 30
0.0
 11
1.044381816154797
 21
0.3032239081683872
 31
0.0
  0
LWPOLYLINE
  5
7DE1B343D9D960B
330
7DE1B343D9D9676
100
AcDbEntity
  8
TEXT
100
AcDbPolyline
 90
        2
 70
     0
 43
0.0
 10
1.094217095977943
 20
0.3032239081683872
 42
-0.4142135623731017
 10
1.101770885144056
 20
0.2956701190022772
 42
-0.9999999999999998
  0
LINE
  5
7DE1B343D9D960F
330
7DE1B343D9D9676
100
AcDbEntity
  8
TEXT
100
AcDbLine
 10
1.300027096755628
 20
0.3032239081683872
 30
0.0
 11
1.300027096755628
 21
0.2281715020941806
 31
0.0
  0
LINE
  5
7DE1B343D9D9610
330
7DE1B343D9D9676
100
AcDbEntity
  8
TEXT
100
AcDbLine
 10
1.168828931925898
 20
0.3032239081683872
 30
0.0
 11
1.222962528846848
 21
0.3032239081683872
 31
0.0
  0
LINE
  5
7DE1B343D9D9611
330
7DE1B343D9D9676
100
AcDbEntity
  8
TEXT
100
AcDbLine
 10
1.168828931925898
 20
0.1010275698366416
 30
0.0
 11
1.168828931925898
 21
0.3032239081683872
 31
0.0
  0
LWPOLYLINE
  5
7DE1B343D9D9612
330
7DE1B343D9D9676
100
AcDbEntity
  8
TEXT
100
AcDbPolyline
 90
        2
 70
     0
 43
0.0
 10
1.222962528846847
 20
0.3032239081683872
 42
-0.4142135623731017
 10
1.23051631801296
 20
0.2956701190022772
 42
-0.9999999999999998
  0
LWPOLYLINE
  5
7DE1B343D9D9616
330
7DE1B343D9D9676
100
AcDbEntity
  8
TEXT
100
AcDbPolyline
 90
        4
 70
     0
 43
0.0
 10
1.23051631801296
 20
0.2956701190022772
 10
1.23051631801296
 20
0.1010275698366416
 10
1.298994601300818
 20
0.1010275698366416
 10
1.298994601300818
 20
0.1445185147870798
 42
-1.714843617202739
  0
LINE
  5
7DE1B343D9D961C
330
7DE1B343D9D9676
100
AcDbEntity
  8
TEXT
100
AcDbLine
 10
0.6591304336177162
 20
0.3675006028251526
 30
0.0
 11
0.6591304336177162
 21
0.4018885204192908
 31
0.0
  0
LINE
  5
7DE1B343D9D961D
330
7DE1B343D9D9676
100
AcDbEntity
  8
TEXT
100
AcDbLine
 10
0.7309293997616236
 20
0.3675006028251526
 30
0.0
 11
0.6591304336177162
 21
0.3675006028251526
 31
0.0
  0
LINE
  5
7DE1B343D9D961E
330
7DE1B343D9D9676
100
AcDbEntity
  8
TEXT
100
AcDbLine
 10
0.8784301963928031
 20
0.3675006028251526
 30
0.0
 11
0.8483082835994268
 21
0.3675006028251526
 31
0.0
  0
LINE
  5
7DE1B343D9D961F
330
7DE1B343D9D9676
100
AcDbEntity
  8
TEXT
100
AcDbLine
 10
0.8784301963928031
 20
0.4355120805639632
 30
0.0
 11
0.8784301963928031
 21
0.3675006028251526
 31
0.0
  0
LINE
  5
7DE1B343D9D9620
330
7DE1B343D9D9676
100
AcDbEntity
  8
TEXT
100
AcDbLine
 10
0.9452389089591681
 20
0.4355120805639632
 30
0.0
 11
0.8784301963928031
 21
0.4355120805639632
 31
0.0
  0
LWPOLYLINE
  5
7DE1B343D9D9621
330
7DE1B343D9D9676
100
AcDbEntity
  8
TEXT
100
AcDbPolyline
 90
        3
 70
     0
 43
0.0
 10
1.26565066855717
 20
0.3675006028251562
 10
1.147350509741126
 20
0.3675006028251562
 10
1.147350509741126
 20
0.3403331060642603
 42
-1.960274751411753
  0
LINE
  5
7DE1B343D9D9626
330
7DE1B343D9D9676
100
AcDbEntity
  8
TEXT
100
AcDbLine
 10
1.111568819027964
 20
0.3675006028251526
 30
0.0
 11
0.9775507630968283
 21
0.3675006028251526
 31
0.0
  0
LWPOLYLINE
  5
7DE1B343D9D9627
330
7DE1B343D9D9676
100
AcDbEntity
  8
TEXT
100
AcDbPolyline
 90
        2
 70
     0
 43
0.0
 10
1.111568819027964
 20
0.3675006028251562
 42
-0.3328679258950098
 10
1.147350509741126
 20
0.3403331060642603
 42
6.772930709997214
  0
LINE
  5
7DE1B343D9D962B
330
7DE1B343D9D9676
100
AcDbEntity
  8
TEXT
100
AcDbLine
 10
1.301432359270337
 20
0.3675006028251526
 30
0.0
 11
1.301432359270337
 21
0.3391780570555087
 31
0.0
  0
LWPOLYLINE
  5
7DE1B343D9D962C
330
7DE1B343D9D9676
100
AcDbEntity
  8
TEXT
100
AcDbPolyline
 90
        2
 70
     0
 43
0.0
 10
1.26565066855717
 20
0.3675006028251562
 42
-0.3277054968067132
 10
1.301432359270335
 20
0.3391780570555123
 42
6.667889725900311
  0
LINE
  5
7DE1B343D9D9630
330
7DE1B343D9D9676
100
AcDbEntity
  8
TEXT
100
AcDbLine
 10
1.515224207362437
 20
0.2622886242717253
 30
0.0
 11
1.471473436180535
 21
0.3445389002678705
 31
0.0
  0
LINE
  5
7DE1B343D9D9631
330
7DE1B343D9D9676
100
AcDbEntity
  8
TEXT
100
AcDbLine
 10
1.515224207362437
 20
0.3675006028251526
 30
0.0
 11
1.515224207362437
 21
0.2622886242717253
 31
0.0
  0
LINE
  5
7DE1B343D9D9632
330
7DE1B343D9D9676
100
AcDbEntity
  8
TEXT
100
AcDbLine
 10
1.742907946300806
 20
0.2916352764136145
 30
0.0
 11
1.742907946300806
 21
0.4329648085927534
 31
0.0
  0
LINE
  5
7DE1B343D9D9633
330
7DE1B343D9D9676
100
AcDbEntity
  8
TEXT
100
AcDbLine
 10
1.79000610485679
 20
0.3675006028251526
 30
0.0
 11
1.742907946300806
 21
0.2916352764136145
 31
0.0
  0
LINE
  5
7DE1B343D9D9634
330
7DE1B343D9D9676
100
AcDbEntity
  8
TEXT
100
AcDbLine
 10
1.800440821620713
 20
0.257607359884179
 30
0.0
 11
1.864997937586418
 21
0.3675006028251526
 31
0.0
  0
LINE
  5
7DE1B343D9D9635
330
7DE1B343D9D9676
100
AcDbEntity
  8
TEXT
100
AcDbLine
 10
1.679072955078033
 20
0.1010275698366416
 30
0.0
 11
1.743451139396653
 21
0.1010275698366416
 31
0.0
  0
LWPOLYLINE
  5
7DE1B343D9D9636
330
7DE1B343D9D9676
100
AcDbEntity
  8
TEXT
100
AcDbPolyline
 90
        2
 70
     0
 43
0.0
 10
1.519163884667475
 20
0.1445185147870798
 42
-0.2901071551932486
 10
1.47608795179983
 20
0.1010275698366416
 42
-5.328517124445184
  0
ARC
  5
7DE1B343D9D963A
330
7DE1B343D9D9676
100
AcDbEntity
  8
TEXT
100
AcDbCircle
 10
1.407233370142916
 20
0.2748645331683899
 30
0.0
 40
0.028359375
100
AcDbArc
 50
25.78218179591245
 51
90.0
  0
LINE
  5
7DE1B343D9D963B
330
7DE1B343D9D9676
100
AcDbEntity
  8
TEXT
100
AcDbLine
 10
1.443034445447039
 20
0.2659489347062549
 30
0.0
 11
1.432769685033474
 21
0.2871994742789492
 31
0.0
  0
LINE
  5
7DE1B343D9D963C
330
7DE1B343D9D9676
100
AcDbEntity
  8
TEXT
100
AcDbLine
 10
1.360746455663655
 20
0.2659489347062549
 30
0.0
 11
1.443034445447039
 21
0.2659489347062549
 31
0.0
  0
LWPOLYLINE
  5
7DE1B343D9D963D
330
7DE1B343D9D9676
100
AcDbEntity
  8
TEXT
100
AcDbPolyline
 90
        4
 70
     1
 43
0.0
 10
1.455965486729938
 20
0.2039915478206669
 10
1.367305168070079
 20
0.2039915478206669
 42
0.9999999999999998
 10
1.367305168070079
 20
0.1615930073168061
 10
1.455965486729938
 20
0.1615930073168061
 42
1.0
  0
LWPOLYLINE
  5
7DE1B343D9D9643
330
7DE1B343D9D9676
100
AcDbEntity
  8
TEXT
100
AcDbPolyline
 90
        2
 70
     0
 43
0.0
 10
1.342070534168454
 20
0.1010275698366416
 10
1.47608795179983
 20
0.1010275698366416
 42
0.9999999999999998
  0
LINE
  5
7DE1B343D9D9647
330
7DE1B343D9D9676
100
AcDbEntity
  8
TEXT
100
AcDbLine
 10
1.60242497378547
 20
0.3032239081683872
 30
0.0
 11
1.679072955078027
 21
0.3032239081683872
 31
0.0
  0
LINE
  5
7DE1B343D9D9648
330
7DE1B343D9D9676
100
AcDbEntity
  8
TEXT
100
AcDbLine
 10
1.679072955078027
 20
0.3032239081683872
 30
0.0
 11
1.679072955078033
 21
0.1010275698366416
 31
0.0
  0
ARC
  5
7DE1B343D9D9649
330
7DE1B343D9D9676
100
AcDbEntity
  8
TEXT
100
AcDbCircle
 10
1.602424973785468
 20
0.2783180328857244
 30
0.0
 40
0.0249058752826653
100
AcDbArc
 50
89.99971217465335
 51
179.9999999999985
  0
LINE
  5
7DE1B343D9D964A
330
7DE1B343D9D9676
100
AcDbEntity
  8
TEXT
100
AcDbLine
 10
1.57751909850281
 20
0.1010275698366416
 30
0.0
 11
1.577519098502805
 21
0.27831807526811
 31
0.0
  0
LWPOLYLINE
  5
7DE1B343D9D964B
330
7DE1B343D9D9676
100
AcDbEntity
  8
TEXT
100
AcDbPolyline
 90
        2
 70
     0
 43
0.0
 10
1.519163884667475
 20
0.1010275698366416
 10
1.577519098502809
 20
0.1010275698366416
  0
LWPOLYLINE
  5
7DE1B343D9D964F
330
7DE1B343D9D9676
100
AcDbEntity
  8
TEXT
100
AcDbPolyline
 90
        2
 70
     0
 43
0.0
 10
1.519163884667475
 20
0.1445185147870798
 10
1.519163884667475
 20
0.1010275698366416
  0
LINE
  5
7DE1B343D9D9653
330
7DE1B343D9D9676
100
AcDbEntity
  8
TEXT
100
AcDbLine
 10
1.895933044984324
 20
0.1010275698366416
 30
0.0
 11
1.800440821620713
 21
0.257607359884179
 31
0.0
  0
LINE
  5
7DE1B343D9D9654
330
7DE1B343D9D9676
100
AcDbEntity
  8
TEXT
100
AcDbLine
 10
1.819354672608118
 20
0.1010275698366416
 30
0.0
 11
1.895933044984324
 21
0.1010275698366416
 31
0.0
  0
LINE
  5
7DE1B343D9D9655
330
7DE1B343D9D9676
100
AcDbEntity
  8
TEXT
100
AcDbLine
 10
1.743451139396653
 20
0.2326071383128219
 30
0.0
 11
1.819354672608118
 21
0.1010275698366416
 31
0.0
  0
LINE
  5
7DE1B343D9D9656
330
7DE1B343D9D9676
100
AcDbEntity
  8
TEXT
100
AcDbLine
 10
1.743451139396653
 20
0.1010275698366416
 30
0.0
 11
1.743451139396653
 21
0.2326071383128219
 31
0.0
  0
LINE
  5
7DE1B343D9D9657
330
7DE1B343D9D9676
100
AcDbEntity
  8
TEXT
100
AcDbLine
 10
1.742907946300806
 20
0.4329648085927534
 30
0.0
 11
1.674593067751533
 21
0.4329648085927534
 31
0.0
  0
ARC
  5
7DE1B343D9D9658
330
7DE1B343D9D9676
100
AcDbEntity
  8
TEXT
100
AcDbCircle
 10
1.434237328710326
 20
0.3259170357042502
 30
0.0
 40
0.0416329381542859
100
AcDbArc
 50
26.56974201007528
 51
87.20939649401342
  0
LINE
  5
7DE1B343D9D9659
330
7DE1B343D9D9676
100
AcDbEntity
  8
TEXT
100
AcDbLine
 10
1.579121113661938
 20
0.3675006028251526
 30
0.0
 11
1.515224207362437
 21
0.3675006028251526
 31
0.0
  0
LINE
  5
7DE1B343D9D965A
330
7DE1B343D9D9676
100
AcDbEntity
  8
TEXT
100
AcDbLine
 10
1.579121113661938
 20
0.339952952964278
 30
0.0
 11
1.579121113661938
 21
0.3675006028251526
 31
0.0
  0
ARC
  5
7DE1B343D9D965B
330
7DE1B343D9D9676
100
AcDbEntity
  8
TEXT
100
AcDbCircle
 10
1.610313930725046
 20
0.3362548755428878
 30
0.0
 40
0.0314112657011332
100
AcDbArc
 50
95.88484768694724
 51
173.2388340632136
  0
LINE
  5
7DE1B343D9D965C
330
7DE1B343D9D9676
100
AcDbEntity
  8
TEXT
100
AcDbLine
 10
1.674593067751527
 20
0.3675006028251526
 30
0.0
 11
1.607093350102011
 21
0.3675006028251526
 31
0.0
  0
LINE
  5
7DE1B343D9D965D
330
7DE1B343D9D9676
100
AcDbEntity
  8
TEXT
100
AcDbLine
 10
1.674593067751533
 20
0.4329648085927534
 30
0.0
 11
1.674593067751527
 21
0.3675006028251526
 31
0.0
  0
LINE
  5
7DE1B343D9D965E
330
7DE1B343D9D9676
100
AcDbEntity
  8
TEXT
100
AcDbLine
 10
1.864997937586418
 20
0.3675006028251526
 30
0.0
 11
1.790006104856792
 21
0.3675006028251526
 31
0.0
  0
INSERT
  5
7DE1B343D9D9691
330
7DE1B343D9D9676
100
AcDbEntity
  8
ASHADE
 62
     1
100
AcDbBlockReference
  2
AVE_RENDER
 10
0.0
 20
0.0
 30
0.0
1001
AVE_RENDER
1002
{
1070
     6
1000
Pref
1070
    30
1070
    20
1070
     1
1070
     0
1000

1070
    10
1070
     1
1070
    30
1040
1.0
1070
     1
1040
0.3
1040
0.7
1040
0.0
1040
10.0
1010
-1.0
1020
-1.0
1030
-1.0
1040
0.3
1070
    49
1070
     0
1070
     0
1010
1.0
1020
1.0
1030
1.0
1040
45.0
1070
     1
1070
     0
1000
WCS
1040
0.0
1002
}
  0
INSERT
  5
7DE1B343D9D9692
330
7DE1B343D9D9676
100
AcDbEntity
  8
ASHADE
 62
     3
100
AcDbBlockReference
  2
AVE_RENDER
 10
0.0
 20
0.0
 30
0.0
1001
AVE_RENDER
1002
{
1070
     0
1000
Full Opt
1070
     0
1070
     1
1070
     1
1070
     1
1070
     0
1070
     0
1070
     0
1070
     1
1070
     1
1040
0.0001
1040
0.0001
1002
}
  0
INSERT
  5
7DE1B343D9D9693
330
7DE1B343D9D9676
100
AcDbEntity
  8
ASHADE
 62
     4
100
AcDbBlockReference
  2
AVE_RENDER
 10
0.0
 20
0.0
 30
0.0
1001
AVE_RENDER
1002
{
1070
     0
1000
Quick Opt
1070
     0
1070
     1
1070
     1
1070
     1
1070
     0
1070
     0
1070
     1
1002
}
  0
INSERT
  5
7DE1B343D9D9694
330
7DE1B343D9D9676
100
AcDbEntity
  8
ASHADE
 62
     5
100
AcDbBlockReference
  2
AVE_RENDER
 10
0.0
 20
0.0
 30
0.0
1001
AVE_RENDER
1002
{
1070
     1
1000
Scanl Opt
1070
     2
1070
     0
1070
     2
1040
2.0
1040
4.0
1070
     0
1070
     1
1070
     0
1040
0.03
1002
}
  0
INSERT
  5
7DE1B343D9D9695
330
7DE1B343D9D9676
100
AcDbEntity
  8
ASHADE
 62
     6
100
AcDbBlockReference
  2
AVE_RENDER
 10
0.0
 20
0.0
 30
0.0
1001
AVE_RENDER
1002
{
1070
     2
1000
Raytr Opt
1070
     2
1070
     0
1070
     2
1040
2.0
1040
4.0
1070
     0
1070
     1
1070
     1
1040
0.03
1070
     3
1040
0.03
1002
}
  0
INSERT
  5
7DE1B343D9D9696
330
7DE1B343D9D9676
100
AcDbEntity
  8
ASHADE
 62
     7
100
AcDbBlockReference
  2
AVE_RENDER
 10
0.0
 20
0.0
 30
0.0
1001
AVE_RENDER
1002
{
1070
     0
1000
RFile Opt
1070
     5
1070
   640
1070
   480
1070
 10000
1070
     3
1070
    32
1070
    24
1070
     0
1070
     0
1070
     0
1070
     1
1070
     0
1070
     0
1070
     0
1002
}
  0
INSERT
  5
7DE1B343D9D9697
330
7DE1B343D9D9676
100
AcDbEntity
  8
ASHADE
 62
     8
100
AcDbBlockReference
  2
AVE_RENDER
 10
0.0
 20
0.0
 30
0.0
1001
AVE_RENDER
1002
{
1070
     0
1000
Fog Opt
1070
     0
1070
     0
1040
0.0
1040
1.0
1040
0.0
1040
1.0
1010
0.5
1020
0.5
1030
0.5
1002
}
  0
INSERT
  5
7DE1B343D9D9698
330
7DE1B343D9D9676
100
AcDbEntity
  8
ASHADE
 62
     9
100
AcDbBlockReference
  2
AVE_RENDER
 10
0.0
 20
0.0
 30
0.0
1001
AVE_RENDER
1002
{
1070
     0
1000
BG Opt
1070
     0
1070
     1
1010
0.0
1020
0.0
1030
0.0
1010
1.0
1020
0.0
1030
0.0
1010
0.0
1020
1.0
1030
0.0
1010
0.0
1020
0.0
1030
1.0
1040
0.5
1040
0.33
1040
0.0
1000

1070
     1
1000

1070
     1
1070
     1
1040
1.0
1040
1.0
1040
0.0
1040
0.0
1070
     0
1002
}
  0
INSERT
  5
7DE1B343D9D969F
330
7DE1B343D9D9676
100
AcDbEntity
  8
ASHADE
 62
     1
100
AcDbBlockReference
  2
AVE_GLOBAL
 10
0.0
 20
0.0
 30
0.0
1001
AVE_MATERIAL
1002
{
1000
*GLOBAL*
1000
1
1000
Global finish.
1002
{
1002
}
1002
{
1070
    63
1002
{
1002
{
1010
-1.0
1020
-1.0
1030
-1.0
1002
}
1040
0.1000000014901161
1000

1040
0.0
1002
{
1002
}
1040
0.0
1002
{
1002
}
1040
0.0
1002
}
1002
{
1002
{
1010
-1.0
1020
-1.0
1030
-1.0
1002
}
1040
0.6999999880790711
1000

1040
0.0
1002
{
1002
}
1040
0.0
1002
{
1002
}
1040
0.0
1002
}
1002
{
1002
{
1010
-1.0
1020
-1.0
1030
-1.0
1002
}
1040
0.2000000029802322
1000

1040
0.0
1002
{
1002
}
1040
0.0
1002
{
1002
}
1040
0.0
1002
}
1002
{
1070
     0
1002
{
1070
     1
1002
{
1040
1.0
1040
1.0
1000

1040
0.0
1002
{
1002
}
1040
0.0
1002
{
1002
}
1040
0.0
1002
}
1002
}
1040
1.0
1040
0.0
1040
0.0
1002
}
1002
{
1040
1.0
1040
1.0
1000

1040
0.0
1002
{
1002
}
1040
0.0
1002
{
1002
}
1040
0.0
1002
}
1002
{
1040
0.5
1040
1.0
1000

1040
0.0
1002
{
1002
}
1040
0.0
1002
{
1002
}
1040
0.0
1002
}
1002
{
1070
     0
1040
0.0
1002
{
1002
}
1040
1.0
1002
{
1002
}
1040
0.0
1002
}
1002
{
1040
0.0
1002
{
1002
{
1010
0.0
1020
0.0
1030
0.0
1002
}
1040
1.0
1000

1040
0.0
1002
{
1002
}
1040
0.0
1002
{
1002
}
1040
0.0
1002
}
1002
}
1002
{
1002
{
1070
     1
1002
{
1040
0.0
1040
1.0
1000

1040
0.0
1002
{
1002
}
1040
0.0
1002
{
1002
}
1040
0.0
1002
}
1002
}
1040
0.0
1002
{
1002
}
1010
1.0
1020
0.0
1030
0.0
1010
0.0
1020
1.0
1030
0.0
1010
0.0
1020
0.0
1030
1.0
1070
     0
1002
}
1002
{
1002
{
1040
1.0
1040
1.0
1002
{
1070
     1
1002
{
1040
1.0
1040
1.0
1000

1040
0.0
1002
{
1002
}
1040
0.0
1002
{
1002
}
1040
0.0
1002
}
1002
}
1002
}
1070
     0
1040
0.0
1002
{
1002
}
1002
}
1002
{
1002
}
1002
}
1002
{
1071
        3
1070
     3
1070
     0
1002
{
1070
     2
1070
     0
1070
     0
1040
0.0
1002
}
1070
     0
1070
     2
1002
{
1002
}
1002
}
1002
{
1040
8030.0
1040
190.3000030517578
1040
0.3050000071525574
1040
228.0
1040
545.0
1040
14.0
1040
17.39999961853027
1040
0.4560000002384186
1002
}
1002
}
  0
ENDSEC
  0
SECTION
  2
OBJECTS
  0
DICTIONARY
  5
7DE1B343D9D966A
330
0
100
AcDbDictionary
  3
ACAD_GROUP
350
7DE1B343D9D966B
  3
ACAD_LAYOUT
350
7DE1B343D9D96AB
  3
ACAD_MLINESTYLE
350
7DE1B343D9D966C
  3
ACAD_PLOTSETTINGS
350
7DE1B343D9D96AC
  3
ACAD_PLOTSTYLENAME
350
7DE1B343D9D96A9
  3
ACDBHEADERROUNDTRIPXREC
350
7DE1B343D9D96B6
  3
ACDBVARIABLEDICTIONARY
350
7DE1B343D9D96B3
  0
DICTIONARY
  5
7DE1B343D9D96D8
330
7DE1B343D9D9676
100
AcDbDictionary
280
     1
  3
ACAD_LAYOUTSELFREF
360
7DE1B343D9D96D9
  0
DICTIONARY
  5
7DE1B343D9D96D6
330
7DE1B343D9D9673
100
AcDbDictionary
280
     1
  3
ACAD_LAYOUTSELFREF
360
7DE1B343D9D96D7
  0
DICTIONARY
  5
7DE1B343D9D966B
102
{ACAD_REACTORS
330
7DE1B343D9D966A
102
}
330
7DE1B343D9D966A
100
AcDbDictionary
  0
DICTIONARY
  5
7DE1B343D9D96AB
102
{ACAD_REACTORS
330
7DE1B343D9D966A
102
}
330
7DE1B343D9D966A
100
AcDbDictionary
  0
DICTIONARY
  5
7DE1B343D9D966C
102
{ACAD_REACTORS
330
7DE1B343D9D966A
102
}
330
7DE1B343D9D966A
100
AcDbDictionary
  3
STANDARD
350
7DE1B343D9D9679
  0
DICTIONARY
  5
7DE1B343D9D96AC
102
{ACAD_REACTORS
330
7DE1B343D9D966A
102
}
330
7DE1B343D9D966A
100
AcDbDictionary
  0
ACDBDICTIONARYWDFLT
  5
7DE1B343D9D96A9
102
{ACAD_REACTORS
330
7DE1B343D9D966A
102
}
330
7DE1B343D9D966A
100
AcDbDictionary
281
     1
  3
Normal
350
7DE1B343D9D96AA
100
AcDbDictionaryWithDefault
340
7DE1B343D9D96AA
  0
DICTIONARY
  5
7DE1B343D9D96B6
102
{ACAD_REACTORS
330
7DE1B343D9D966A
102
}
330
7DE1B343D9D966A
100
AcDbDictionary
  3
CEPSNTYPE
350
7DE1B343D9D96C0
  3
FINGERPRINTGUID
350
7DE1B343D9D96C1
  3
HYPERLINKBASE
350
7DE1B343D9D96B9
  3
INSUNITS
350
7DE1B343D9D96BF
  3
LAYOUTDICT
350
7DE1B343D9D96BB
  3
LWETCUNION
350
7DE1B343D9D96BE
  3
PLOTSETDICT
350
7DE1B343D9D96BC
  3
PLOTSTYLNAMDICT
350
7DE1B343D9D96BD
  3
PSVPSCALE
350
7DE1B343D9D96C3
  3
PUCSBASE
350
7DE1B343D9D96C6
  3
PUCSORGBACK
350
7DE1B343D9D96CC
  3
PUCSORGBOTTOM
350
7DE1B343D9D96C8
  3
PUCSORGFRONT
350
7DE1B343D9D96CB
  3
PUCSORGLEFT
350
7DE1B343D9D96C9
  3
PUCSORGRIGHT
350
7DE1B343D9D96CA
  3
PUCSORGTOP
350
7DE1B343D9D96C7
  3
PUCSORTHOREF
350
7DE1B343D9D96C4
  3
PUCSORTHOVIEW
350
7DE1B343D9D96C5
  3
STYLESHEET
350
7DE1B343D9D96BA
  3
TSTACKALIGN
350
7DE1B343D9D96B7
  3
TSTACKSIZE
350
7DE1B343D9D96B8
  3
UCSBASE
350
7DE1B343D9D96CF
  3
UCSORGBACK
350
7DE1B343D9D96D5
  3
UCSORGBOTTOM
350
7DE1B343D9D96D1
  3
UCSORGFRONT
350
7DE1B343D9D96D4
  3
UCSORGLEFT
350
7DE1B343D9D96D2
  3
UCSORGRIGHT
350
7DE1B343D9D96D3
  3
UCSORGTOP
350
7DE1B343D9D96D0
  3
UCSORTHOREF
350
7DE1B343D9D96CD
  3
UCSORTHOVIEW
350
7DE1B343D9D96CE
  3
VERSIONGUID
350
7DE1B343D9D96C2
  0
DICTIONARY
  5
7DE1B343D9D96B3
102
{ACAD_REACTORS
330
7DE1B343D9D966A
102
}
330
7DE1B343D9D966A
100
AcDbDictionary
  3
DIMASSOC
350
7DE1B343D9D96B4
  0
XRECORD
  5
7DE1B343D9D96D9
102
{ACAD_REACTORS
330
7DE1B343D9D96D8
102
}
330
7DE1B343D9D96D8
100
AcDbXrecord
340
7DE1B343D9D9676
  0
XRECORD
  5
7DE1B343D9D96D7
102
{ACAD_REACTORS
330
7DE1B343D9D96D6
102
}
330
7DE1B343D9D96D6
100
AcDbXrecord
340
7DE1B343D9D9673
  0
MLINESTYLE
  5
7DE1B343D9D9679
102
{ACAD_REACTORS
330
7DE1B343D9D966C
102
}
330
7DE1B343D9D966C
100
AcDbMlineStyle
  2
STANDARD
 70
     0
  3

 62
     0
 51
90.0
 52
90.0
 71
     2
 49
0.5
 62
   256
  6
BYLAYER
 49
-0.5
 62
   256
  6
BYLAYER
  0
ACDBPLACEHOLDER
  5
7DE1B343D9D96AA
102
{ACAD_REACTORS
330
7DE1B343D9D96A9
102
}
330
7DE1B343D9D96A9
100
AcDbPlaceHolder
280
     0
  0
XRECORD
  5
7DE1B343D9D96C0
102
{ACAD_REACTORS
330
7DE1B343D9D96B6
102
}
330
7DE1B343D9D96B6
100
AcDbXrecord
 90
        0
  0
XRECORD
  5
7DE1B343D9D96C1
102
{ACAD_REACTORS
330
7DE1B343D9D96B6
102
}
330
7DE1B343D9D96B6
100
AcDbXrecord
  1
{F8616FA0-8DB4-11D6-88E6-0090279574E7}
  0
XRECORD
  5
7DE1B343D9D96B9
102
{ACAD_REACTORS
330
7DE1B343D9D96B6
102
}
330
7DE1B343D9D96B6
100
AcDbXrecord
  1

  0
XRECORD
  5
7DE1B343D9D96BF
102
{ACAD_REACTORS
330
7DE1B343D9D96B6
102
}
330
7DE1B343D9D96B6
100
AcDbXrecord
 90
        0
  0
XRECORD
  5
7DE1B343D9D96BB
102
{ACAD_REACTORS
330
7DE1B343D9D96B6
102
}
330
7DE1B343D9D96B6
100
AcDbXrecord
340
7DE1B343D9D96AB
  0
XRECORD
  5
7DE1B343D9D96BE
102
{ACAD_REACTORS
330
7DE1B343D9D96B6
102
}
330
7DE1B343D9D96B6
100
AcDbXrecord
 90
    14877
  0
XRECORD
  5
7DE1B343D9D96BC
102
{ACAD_REACTORS
330
7DE1B343D9D96B6
102
}
330
7DE1B343D9D96B6
100
AcDbXrecord
340
7DE1B343D9D96AC
  0
XRECORD
  5
7DE1B343D9D96BD
102
{ACAD_REACTORS
330
7DE1B343D9D96B6
102
}
330
7DE1B343D9D96B6
100
AcDbXrecord
340
7DE1B343D9D96A9
  0
XRECORD
  5
7DE1B343D9D96C3
102
{ACAD_REACTORS
330
7DE1B343D9D96B6
102
}
330
7DE1B343D9D96B6
100
AcDbXrecord
 40
0.0
  0
XRECORD
  5
7DE1B343D9D96C6
102
{ACAD_REACTORS
330
7DE1B343D9D96B6
102
}
330
7DE1B343D9D96B6
100
AcDbXrecord
340
0
  0
XRECORD
  5
7DE1B343D9D96CC
102
{ACAD_REACTORS
330
7DE1B343D9D96B6
102
}
330
7DE1B343D9D96B6
100
AcDbXrecord
 10
0.0
 20
0.0
 30
0.0
  0
XRECORD
  5
7DE1B343D9D96C8
102
{ACAD_REACTORS
330
7DE1B343D9D96B6
102
}
330
7DE1B343D9D96B6
100
AcDbXrecord
 10
0.0
 20
0.0
 30
0.0
  0
XRECORD
  5
7DE1B343D9D96CB
102
{ACAD_REACTORS
330
7DE1B343D9D96B6
102
}
330
7DE1B343D9D96B6
100
AcDbXrecord
 10
0.0
 20
0.0
 30
0.0
  0
XRECORD
  5
7DE1B343D9D96C9
102
{ACAD_REACTORS
330
7DE1B343D9D96B6
102
}
330
7DE1B343D9D96B6
100
AcDbXrecord
 10
0.0
 20
0.0
 30
0.0
  0
XRECORD
  5
7DE1B343D9D96CA
102
{ACAD_REACTORS
330
7DE1B343D9D96B6
102
}
330
7DE1B343D9D96B6
100
AcDbXrecord
 10
0.0
 20
0.0
 30
0.0
  0
XRECORD
  5
7DE1B343D9D96C7
102
{ACAD_REACTORS
330
7DE1B343D9D96B6
102
}
330
7DE1B343D9D96B6
100
AcDbXrecord
 10
0.0
 20
0.0
 30
0.0
  0
XRECORD
  5
7DE1B343D9D96C4
102
{ACAD_REACTORS
330
7DE1B343D9D96B6
102
}
330
7DE1B343D9D96B6
100
AcDbXrecord
340
0
  0
XRECORD
  5
7DE1B343D9D96C5
102
{ACAD_REACTORS
330
7DE1B343D9D96B6
102
}
330
7DE1B343D9D96B6
100
AcDbXrecord
 70
     0
  0
XRECORD
  5
7DE1B343D9D96BA
102
{ACAD_REACTORS
330
7DE1B343D9D96B6
102
}
330
7DE1B343D9D96B6
100
AcDbXrecord
  1

  0
XRECORD
  5
7DE1B343D9D96B7
102
{ACAD_REACTORS
330
7DE1B343D9D96B6
102
}
330
7DE1B343D9D96B6
100
AcDbXrecord
 90
        1
  0
XRECORD
  5
7DE1B343D9D96B8
102
{ACAD_REACTORS
330
7DE1B343D9D96B6
102
}
330
7DE1B343D9D96B6
100
AcDbXrecord
 90
       70
  0
XRECORD
  5
7DE1B343D9D96CF
102
{ACAD_REACTORS
330
7DE1B343D9D96B6
102
}
330
7DE1B343D9D96B6
100
AcDbXrecord
340
0
  0
XRECORD
  5
7DE1B343D9D96D5
102
{ACAD_REACTORS
330
7DE1B343D9D96B6
102
}
330
7DE1B343D9D96B6
100
AcDbXrecord
 10
0.0
 20
0.0
 30
0.0
  0
XRECORD
  5
7DE1B343D9D96D1
102
{ACAD_REACTORS
330
7DE1B343D9D96B6
102
}
330
7DE1B343D9D96B6
100
AcDbXrecord
 10
0.0
 20
0.0
 30
0.0
  0
XRECORD
  5
7DE1B343D9D96D4
102
{ACAD_REACTORS
330
7DE1B343D9D96B6
102
}
330
7DE1B343D9D96B6
100
AcDbXrecord
 10
0.0
 20
0.0
 30
0.0
  0
XRECORD
  5
7DE1B343D9D96D2
102
{ACAD_REACTORS
330
7DE1B343D9D96B6
102
}
330
7DE1B343D9D96B6
100
AcDbXrecord
 10
0.0
 20
0.0
 30
0.0
  0
XRECORD
  5
7DE1B343D9D96D3
102
{ACAD_REACTORS
330
7DE1B343D9D96B6
102
}
330
7DE1B343D9D96B6
100
AcDbXrecord
 10
0.0
 20
0.0
 30
0.0
  0
XRECORD
  5
7DE1B343D9D96D0
102
{ACAD_REACTORS
330
7DE1B343D9D96B6
102
}
330
7DE1B343D9D96B6
100
AcDbXrecord
 10
0.0
 20
0.0
 30
0.0
  0
XRECORD
  5
7DE1B343D9D96CD
102
{ACAD_REACTORS
330
7DE1B343D9D96B6
102
}
330
7DE1B343D9D96B6
100
AcDbXrecord
340
0
  0
XRECORD
  5
7DE1B343D9D96CE
102
{ACAD_REACTORS
330
7DE1B343D9D96B6
102
}
330
7DE1B343D9D96B6
100
AcDbXrecord
 70
     0
  0
XRECORD
  5
7DE1B343D9D96C2
102
{ACAD_REACTORS
330
7DE1B343D9D96B6
102
}
330
7DE1B343D9D96B6
100
AcDbXrecord
  1
{F8616FA2-8DB4-11D6-88E6-0090279574E7}
  0
DICTIONARYVAR
  5
7DE1B343D9D96B4
102
{ACAD_REACTORS
330
7DE1B343D9D96B3
102
}
330
7DE1B343D9D96B3
100
DictionaryVariables
280
     0
  1
1
  0
ENDSEC
  0
EOF
