  0
SECTION
  2
HEADER
  9
$ACADVER
  1
AC1014
  9
$ACADMAINTVER
 70
     9
  9
$DWGCODEPAGE
  3
ANSI_1252
  9
$INSBASE
 10
2.036606967677509
 20
1.357611101573446
 30
0.0
  9
$EXTMIN
 10
0.2936253884503672
 20
0.6071069810899268
 30
0.0
  9
$EXTMAX
 10
3.778844710197494
 20
2.357611101573445
 30
0.0
  9
$LIMMIN
 10
0.0
 20
0.0
  9
$LIMMAX
 10
18.0
 20
12.0
  9
$ORTHOMODE
 70
     1
  9
$REGENMODE
 70
     1
  9
$FILLMODE
 70
     1
  9
$QTEXTMODE
 70
     0
  9
$MIRRTEXT
 70
     0
  9
$DRAGMODE
 70
     2
  9
$LTSCALE
 40
1.0
  9
$OSMODE
 70
    39
  9
$ATTMODE
 70
     1
  9
$TEXTSIZE
 40
0.125
  9
$TRACEWID
 40
0.05
  9
$TEXTSTYLE
  7
ROMANS
  9
$CLAYER
  8
0
  9
$CELTYPE
  6
BYLAYER
  9
$CECOLOR
 62
   256
  9
$CELTSCALE
 40
1.0
  9
$DELOBJ
 70
     1
  9
$DISPSILH
 70
     1
  9
$DIMSCALE
 40
1.0
  9
$DIMASZ
 40
0.125
  9
$DIMEXO
 40
0.125
  9
$DIMDLI
 40
0.375
  9
$DIMRND
 40
0.0
  9
$DIMDLE
 40
0.0
  9
$DIMEXE
 40
0.125
  9
$DIMTP
 40
0.0
  9
$DIMTM
 40
0.0
  9
$DIMTXT
 40
0.125
  9
$DIMCEN
 40
-0.125
  9
$DIMTSZ
 40
0.0
  9
$DIMTOL
 70
     0
  9
$DIMLIM
 70
     0
  9
$DIMTIH
 70
     1
  9
$DIMTOH
 70
     1
  9
$DIMSE1
 70
     0
  9
$DIMSE2
 70
     0
  9
$DIMTAD
 70
     0
  9
$DIMZIN
 70
     4
  9
$DIMBLK
  1

  9
$DIMASO
 70
     1
  9
$DIMSHO
 70
     1
  9
$DIMPOST
  1

  9
$DIMAPOST
  1

  9
$DIMALT
 70
     0
  9
$DIMALTD
 70
     2
  9
$DIMALTF
 40
25.4
  9
$DIMLFAC
 40
1.0
  9
$DIMTOFL
 70
     0
  9
$DIMTVP
 40
0.0
  9
$DIMTIX
 70
     1
  9
$DIMSOXD
 70
     0
  9
$DIMSAH
 70
     0
  9
$DIMBLK1
  1

  9
$DIMBLK2
  1

  9
$DIMSTYLE
  2
STANDARD
  9
$DIMCLRD
 70
     0
  9
$DIMCLRE
 70
     0
  9
$DIMCLRT
 70
     0
  9
$DIMTFAC
 40
1.0
  9
$DIMGAP
 40
0.09
  9
$DIMJUST
 70
     0
  9
$DIMSD1
 70
     0
  9
$DIMSD2
 70
     0
  9
$DIMTOLJ
 70
     1
  9
$DIMTZIN
 70
     4
  9
$DIMALTZ
 70
     0
  9
$DIMALTTZ
 70
     0
  9
$DIMFIT
 70
     3
  9
$DIMUPT
 70
     0
  9
$DIMUNIT
 70
     2
  9
$DIMDEC
 70
     3
  9
$DIMTDEC
 70
     3
  9
$DIMALTU
 70
     2
  9
$DIMALTTD
 70
     2
  9
$DIMTXSTY
  7
ROMANS
  9
$DIMAUNIT
 70
     0
  9
$LUNITS
 70
     2
  9
$LUPREC
 70
     3
  9
$SKETCHINC
 40
0.1
  9
$FILLETRAD
 40
0.03125
  9
$AUNITS
 70
     0
  9
$AUPREC
 70
     0
  9
$MENU
  1
ACAD
  9
$ELEVATION
 40
0.0
  9
$PELEVATION
 40
0.0
  9
$THICKNESS
 40
0.0
  9
$LIMCHECK
 70
     0
  9
$BLIPMODE
 70
     0
  9
$CHAMFERA
 40
0.0
  9
$CHAMFERB
 40
0.0
  9
$CHAMFERC
 40
0.0
  9
$CHAMFERD
 40
0.0
  9
$SKPOLY
 70
     0
  9
$TDCREATE
 40
2448994.447841666
  9
$TDUPDATE
 40
2452458.300243738
  9
$TDINDWG
 40
0.0008224074
  9
$TDUSRTIMER
 40
0.0008224074
  9
$USRTIMER
 70
     1
  9
$ANGBASE
 50
0.0
  9
$ANGDIR
 70
     0
  9
$PDMODE
 70
     0
  9
$PDSIZE
 40
0.0
  9
$PLINEWID
 40
0.0
  9
$COORDS
 70
     2
  9
$SPLFRAME
 70
     0
  9
$SPLINETYPE
 70
     6
  9
$SPLINESEGS
 70
     8
  9
$ATTDIA
 70
     0
  9
$ATTREQ
 70
     1
  9
$HANDLING
 70
 22529
  9
$HANDSEED
  5
7DE1B343D9D931B
  9
$SURFTAB1
 70
     6
  9
$SURFTAB2
 70
     6
  9
$SURFTYPE
 70
     6
  9
$SURFU
 70
     6
  9
$SURFV
 70
     6
  9
$UCSNAME
  2

  9
$UCSORG
 10
0.0
 20
0.0
 30
0.0
  9
$UCSXDIR
 10
1.0
 20
0.0
 30
0.0
  9
$UCSYDIR
 10
0.0
 20
1.0
 30
0.0
  9
$PUCSNAME
  2

  9
$PUCSORG
 10
0.0
 20
0.0
 30
0.0
  9
$PUCSXDIR
 10
1.0
 20
0.0
 30
0.0
  9
$PUCSYDIR
 10
0.0
 20
1.0
 30
0.0
  9
$USERI1
 70
     0
  9
$USERI2
 70
     0
  9
$USERI3
 70
     0
  9
$USERI4
 70
     0
  9
$USERI5
 70
     0
  9
$USERR1
 40
0.0
  9
$USERR2
 40
0.0
  9
$USERR3
 40
0.0
  9
$USERR4
 40
0.0
  9
$USERR5
 40
0.0
  9
$WORLDVIEW
 70
     1
  9
$SHADEDGE
 70
     3
  9
$SHADEDIF
 70
    70
  9
$TILEMODE
 70
     1
  9
$MAXACTVP
 70
    16
  9
$PINSBASE
 10
0.0
 20
0.0
 30
0.0
  9
$PLIMCHECK
 70
     0
  9
$PEXTMIN
 10
1.000000000000000E+20
 20
1.000000000000000E+20
 30
1.000000000000000E+20
  9
$PEXTMAX
 10
-1.000000000000000E+20
 20
-1.000000000000000E+20
 30
-1.000000000000000E+20
  9
$PLIMMIN
 10
0.0
 20
0.0
  9
$PLIMMAX
 10
12.0
 20
9.0
  9
$UNITMODE
 70
     0
  9
$VISRETAIN
 70
     0
  9
$PLINEGEN
 70
     1
  9
$PSLTSCALE
 70
     0
  9
$TREEDEPTH
 70
  3020
  9
$PICKSTYLE
 70
     1
  9
$CMLSTYLE
  2
STANDARD
  9
$CMLJUST
 70
     0
  9
$CMLSCALE
 40
1.0
  9
$PROXYGRAPHICS
 70
     1
  9
$MEASUREMENT
 70
     0
  0
ENDSEC
  0
SECTION
  2
CLASSES
  0
CLASS
  1
LWPOLYLINE
  2
AcDbPolyline
  3
AutoCAD 2000
 90
        0
280
     0
281
     1
  0
CLASS
  1
ACDBDICTIONARYWDFLT
  2
AcDbDictionaryWithDefault
  3
AutoCAD 2000
 90
        0
280
     0
281
     0
  0
CLASS
  1
ACDBPLACEHOLDER
  2
AcDbPlaceHolder
  3
AutoCAD 2000
 90
        0
280
     0
281
     0
  0
CLASS
  1
LAYOUT
  2
AcDbLayout
  3
AutoCAD 2000
 90
        0
280
     0
281
     0
  0
CLASS
  1
DICTIONARYVAR
  2
AcDbDictionaryVar
  3
AutoCAD 2000
 90
        0
280
     0
281
     0
  0
CLASS
  1
LONG_TRANSACTION
  2
AcDbLongTransaction
  3
AutoCAD 2000
 90
        0
280
     0
281
     0
  0
CLASS
  1
LWPOLYLINE
  2
AcDbPolyline
  3
AutoCAD 2000
 90
        0
280
     0
281
     1
  0
CLASS
  1
HATCH
  2
AcDbHatch
  3
AutoCAD 2000
 90
        0
280
     0
281
     1
  0
CLASS
  1
XRECORD
  2
AcDbXrecord
  3
AutoCAD 2000
 90
        0
280
     0
281
     0
  0
ENDSEC
  0
SECTION
  2
TABLES
  0
TABLE
  2
VPORT
  5
7DE1B343D9D92A7
330
0
100
AcDbSymbolTable
 70
     2
  0
VPORT
  5
7DE1B343D9D92F6
330
7DE1B343D9D92A7
100
AcDbSymbolTableRecord
100
AcDbViewportTableRecord
  2
*ACTIVE
 70
     0
 10
0.0
 20
0.0
 11
1.0
 21
1.0
 12
5.013064228115244
 22
1.482330344946042
 13
0.0
 23
0.0
 14
0.015625
 24
0.015625
 15
0.0
 25
0.0
 16
0.0
 26
0.0
 36
1.0
 17
0.0
 27
0.0
 37
0.0
 40
2.282647215150728
 41
4.320930232558139
 42
50.0
 43
0.0
 44
0.0
 50
0.0
 51
0.0
 71
     0
 72
  2000
 73
     1
 74
     0
 75
     0
 76
     0
 77
     0
 78
     0
  0
ENDTAB
  0
TABLE
  2
LTYPE
  5
7DE1B343D9D92A4
330
0
100
AcDbSymbolTable
 70
     1
  0
LTYPE
  5
7DE1B343D9D92B1
330
7DE1B343D9D92A4
100
AcDbSymbolTableRecord
100
AcDbLinetypeTableRecord
  2
BYBLOCK
 70
     0
  3

 72
    65
 73
     0
 40
0.0
  0
LTYPE
  5
7DE1B343D9D92B2
330
7DE1B343D9D92A4
100
AcDbSymbolTableRecord
100
AcDbLinetypeTableRecord
  2
BYLAYER
 70
     0
  3

 72
    65
 73
     0
 40
0.0
  0
LTYPE
  5
7DE1B343D9D92B3
330
7DE1B343D9D92A4
100
AcDbSymbolTableRecord
100
AcDbLinetypeTableRecord
  2
CONTINUOUS
 70
     0
  3
Solid line
 72
    65
 73
     0
 40
0.0
  0
ENDTAB
  0
TABLE
  2
LAYER
  5
7DE1B343D9D92A1
330
0
100
AcDbSymbolTable
 70
     3
  0
LAYER
  5
7DE1B343D9D92AE
330
7DE1B343D9D92A1
100
AcDbSymbolTableRecord
100
AcDbLayerTableRecord
  2
0
 70
     0
 62
     7
  6
CONTINUOUS
  0
LAYER
  5
7DE1B343D9D92BE
330
7DE1B343D9D92A1
100
AcDbSymbolTableRecord
100
AcDbLayerTableRecord
  2
TEXT
 70
     0
 62
     3
  6
CONTINUOUS
  0
LAYER
  5
7DE1B343D9D92CE
330
7DE1B343D9D92A1
100
AcDbSymbolTableRecord
100
AcDbLayerTableRecord
  2
ASHADE
 70
     4
 62
     7
  6
CONTINUOUS
  0
ENDTAB
  0
TABLE
  2
STYLE
  5
7DE1B343D9D92A2
330
0
100
AcDbSymbolTable
 70
     4
  0
STYLE
  5
7DE1B343D9D92AF
330
7DE1B343D9D92A2
100
AcDbSymbolTableRecord
100
AcDbTextStyleTableRecord
  2
STANDARD
 70
     0
 40
0.0
 41
1.0
 50
0.0
 71
     0
 42
0.3125
  3
txt
  4

  0
STYLE
  5
7DE1B343D9D92BB
330
7DE1B343D9D92A2
100
AcDbSymbolTableRecord
100
AcDbTextStyleTableRecord
  2
ITALICC
 70
     0
 40
0.0
 41
1.0
 50
0.0
 71
     0
 42
0.125
  3
italicc
  4

  0
STYLE
  5
7DE1B343D9D92CB
330
7DE1B343D9D92A2
100
AcDbSymbolTableRecord
100
AcDbTextStyleTableRecord
  2
ASHADE
 70
     0
 40
0.2
 41
1.0
 50
0.0
 71
     0
 42
0.3125
  3
simplex
  4

  0
STYLE
  5
7DE1B343D9D92E6
330
7DE1B343D9D92A2
100
AcDbSymbolTableRecord
100
AcDbTextStyleTableRecord
  2
ROMANS
 70
     0
 40
0.0
 41
1.0
 50
0.0
 71
     0
 42
0.125
  3
romans.shx
  4

  0
ENDTAB
  0
TABLE
  2
VIEW
  5
7DE1B343D9D92A5
330
0
100
AcDbSymbolTable
 70
     0
  0
ENDTAB
  0
TABLE
  2
UCS
  5
7DE1B343D9D92A6
330
0
100
AcDbSymbolTable
 70
     0
  0
ENDTAB
  0
TABLE
  2
APPID
  5
7DE1B343D9D92A8
330
0
100
AcDbSymbolTable
 70
     6
  0
APPID
  5
7DE1B343D9D92B0
330
7DE1B343D9D92A8
100
AcDbSymbolTableRecord
100
AcDbRegAppTableRecord
  2
ACAD
 70
     0
  0
APPID
  5
7DE1B343D9D92CC
330
7DE1B343D9D92A8
100
AcDbSymbolTableRecord
100
AcDbRegAppTableRecord
  2
AVE_RENDER
 70
     0
  0
APPID
  5
7DE1B343D9D92CD
330
7DE1B343D9D92A8
100
AcDbSymbolTableRecord
100
AcDbRegAppTableRecord
  2
AVE_ENTITY_MATERIAL
 70
     0
  0
APPID
  5
7DE1B343D9D92DA
330
7DE1B343D9D92A8
100
AcDbSymbolTableRecord
100
AcDbRegAppTableRecord
  2
AVE_FINISH
 70
     0
  0
APPID
  5
7DE1B343D9D92DB
330
7DE1B343D9D92A8
100
AcDbSymbolTableRecord
100
AcDbRegAppTableRecord
  2
AVE_MATERIAL
 70
     0
  0
APPID
  5
7DE1B343D9D92DC
330
7DE1B343D9D92A8
100
AcDbSymbolTableRecord
100
AcDbRegAppTableRecord
  2
AVE_GLOBAL
 70
     0
  0
ENDTAB
  0
TABLE
  2
DIMSTYLE
  5
7DE1B343D9D92A9
330
0
100
AcDbSymbolTable
 70
     1
  0
DIMSTYLE
105
7DE1B343D9D92C3
330
7DE1B343D9D92A9
100
AcDbSymbolTableRecord
100
AcDbDimStyleTableRecord
  2
STANDARD
 70
     0
  3

  4

  5

  6

  7

 40
1.0
 41
0.125
 42
0.125
 43
0.375
 44
0.125
 45
0.0
 46
0.0
 47
0.0
 48
0.0
140
0.125
141
-0.125
142
0.0
143
25.4
144
1.0
145
0.0
146
1.0
147
0.09
 71
     0
 72
     0
 73
     1
 74
     1
 75
     0
 76
     0
 77
     0
 78
     4
170
     0
171
     2
172
     0
173
     0
174
     1
175
     0
176
     0
177
     0
178
     0
270
     2
271
     3
272
     3
273
     2
274
     2
340
7DE1B343D9D92E6
275
     0
280
     0
281
     0
282
     0
283
     1
284
     4
285
     0
286
     0
287
     3
288
     0
  0
ENDTAB
  0
TABLE
  2
BLOCK_RECORD
  5
7DE1B343D9D92A0
330
0
100
AcDbSymbolTable
 70
     2
  0
BLOCK_RECORD
  5
7DE1B343D9D92B7
102
{ACAD_XDICTIONARY
360
7DE1B343D9D9319
102
}
330
7DE1B343D9D92A0
100
AcDbSymbolTableRecord
100
AcDbBlockTableRecord
  2
*MODEL_SPACE
  0
BLOCK_RECORD
  5
7DE1B343D9D92B4
102
{ACAD_XDICTIONARY
360
7DE1B343D9D9317
102
}
330
7DE1B343D9D92A0
100
AcDbSymbolTableRecord
100
AcDbBlockTableRecord
  2
*PAPER_SPACE
  0
BLOCK_RECORD
  5
7DE1B343D9D92CF
330
7DE1B343D9D92A0
100
AcDbSymbolTableRecord
100
AcDbBlockTableRecord
  2
AVE_RENDER
  0
BLOCK_RECORD
  5
7DE1B343D9D92DD
330
7DE1B343D9D92A0
100
AcDbSymbolTableRecord
100
AcDbBlockTableRecord
  2
AVE_GLOBAL
  0
ENDTAB
  0
ENDSEC
  0
SECTION
  2
BLOCKS
  0
BLOCK
  5
7DE1B343D9D92C1
330
7DE1B343D9D92B7
100
AcDbEntity
  8
0
100
AcDbBlockBegin
  2
*MODEL_SPACE
 70
     0
 10
0.0
 20
0.0
 30
0.0
  3
*MODEL_SPACE
  1

  0
ENDBLK
  5
7DE1B343D9D92C2
330
7DE1B343D9D92B7
100
AcDbEntity
  8
0
100
AcDbBlockEnd
  0
BLOCK
  5
7DE1B343D9D92BF
330
7DE1B343D9D92B4
100
AcDbEntity
 67
     1
  8
0
100
AcDbBlockBegin
  2
*PAPER_SPACE
 70
     0
 10
0.0
 20
0.0
 30
0.0
  3
*PAPER_SPACE
  1

  0
ENDBLK
  5
7DE1B343D9D92C0
330
7DE1B343D9D92B4
100
AcDbEntity
 67
     1
  8
0
100
AcDbBlockEnd
  0
BLOCK
  5
7DE1B343D9D92D0
330
7DE1B343D9D92CF
100
AcDbEntity
  8
0
100
AcDbBlockBegin
  2
AVE_RENDER
 70
     0
 10
0.0
 20
0.0
 30
0.0
  3
AVE_RENDER
  1
AVE_RENDER
  0
ENDBLK
  5
7DE1B343D9D92D1
330
7DE1B343D9D92CF
100
AcDbEntity
  8
0
100
AcDbBlockEnd
  0
BLOCK
  5
7DE1B343D9D92DE
330
7DE1B343D9D92DD
100
AcDbEntity
  8
0
100
AcDbBlockBegin
  2
AVE_GLOBAL
 70
     0
 10
0.0
 20
0.0
 30
0.0
  3
AVE_GLOBAL
  1
AVE_GLOBAL
  0
ENDBLK
  5
7DE1B343D9D92DF
330
7DE1B343D9D92DD
100
AcDbEntity
  8
0
100
AcDbBlockEnd
  0
ENDSEC
  0
SECTION
  2
ENTITIES
  0
LWPOLYLINE
  5
7DE1B343D9D7D2C
330
7DE1B343D9D92B7
100
AcDbEntity
  8
0
100
AcDbPolyline
 90
       14
 70
     1
 43
0.0
 10
1.101192620984025
 20
1.420111101573445
 42
0.0086133346824432
 10
1.099594867788619
 20
1.387853037057316
 42
-1.0
 10
1.037127394462693
 20
1.389869166089575
 42
-0.9682458365518543
 10
3.036086540892326
 20
1.389869166089575
 42
-1.0
 10
2.973619067566401
 20
1.387853037057316
 42
0.0086133346824432
 10
2.972021314370994
 20
1.420111101573445
 10
2.590733555414036
 20
1.420111101573445
 42
-0.2679491924311233
 10
2.563670261545773
 20
1.435736101573445
 10
2.53660696767751
 20
1.482611101573445
 10
2.965736264384917
 20
1.482611101573445
 42
0.8744746321952062
 10
1.107477670970103
 20
1.482611101573445
 10
1.53660696767751
 20
1.482611101573445
 10
1.509543673809246
 20
1.435736101573445
 42
-0.2679491924311233
 10
1.482480379940983
 20
1.420111101573445
  0
TEXT
  5
7DE1B343D9D9162
330
7DE1B343D9D92B7
100
AcDbEntity
  8
TEXT
100
AcDbText
 10
1.295535539106082
 20
1.065125585172508
 30
0.0
 40
0.125
  1
PART #110201
  7
ITALICC
 72
     1
 11
2.03660696767751
 21
1.065125585172508
 31
0.0
100
AcDbText
  0
TEXT
  5
7DE1B343D9D9163
330
7DE1B343D9D92B7
100
AcDbEntity
  8
TEXT
100
AcDbText
 10
2.449912125927831
 20
0.6182029425001332
 30
0.0
 40
0.0522247191011236
  1
Phone  1-800-328-2495
 41
1.272321428571429
 72
     5
 11
3.778844710197494
 21
0.6182029425001332
 31
0.0
100
AcDbText
  0
TEXT
  5
7DE1B343D9D9164
330
7DE1B343D9D92B7
100
AcDbEntity
  8
TEXT
100
AcDbText
 10
2.449912125927831
 20
0.8979782233990096
 30
0.0
 40
0.0522247191011236
  1
Stylmark  Incorporated
 41
1.221428571428573
 72
     5
 11
3.778844710197494
 21
0.8979782233990096
 31
0.0
100
AcDbText
  0
TEXT
  5
7DE1B343D9D9165
330
7DE1B343D9D92B7
100
AcDbEntity
  8
TEXT
100
AcDbText
 10
2.449912125927831
 20
0.8047197964327175
 30
0.0
 40
0.0522247191011236
  1
6536 Main St. N.E. * P.O. Box 32008
 41
0.8388932496075366
 72
     5
 11
3.778844710197494
 21
0.8047197964327175
 31
0.0
100
AcDbText
  0
TEXT
  5
7DE1B343D9D9166
330
7DE1B343D9D92B7
100
AcDbEntity
  8
TEXT
100
AcDbText
 10
2.449912125927831
 20
0.7114613694664254
 30
0.0
 40
0.0522247191011236
  1
Minneapolis, MN 55432-0008
 41
1.11444212721585
 72
     5
 11
3.778844710197494
 21
0.7114613694664254
 31
0.0
100
AcDbText
  0
LWPOLYLINE
  5
7DE1B343D9D9167
330
7DE1B343D9D92B7
100
AcDbEntity
  8
TEXT
100
AcDbPolyline
 90
        3
 70
     0
 43
0.0006660908203125
 10
0.2939584338605234
 20
0.7318477051375681
 10
0.2939584338605234
 20
0.6186122656844404
 10
0.4071938733136458
 20
0.6186122656844404
  0
LWPOLYLINE
  5
7DE1B343D9D916C
330
7DE1B343D9D92B7
100
AcDbEntity
  8
TEXT
100
AcDbPolyline
 90
        3
 70
     0
 43
0.0006660908203125
 10
0.3206020666730209
 20
0.7318477051375681
 10
0.3206020666730209
 20
0.6452558984969415
 10
0.4071938733136458
 20
0.6452558984969415
  0
LWPOLYLINE
  5
7DE1B343D9D9171
330
7DE1B343D9D92B7
100
AcDbEntity
  8
TEXT
100
AcDbPolyline
 90
        2
 70
     0
 43
0.0001332181640625
 10
0.3672284240948977
 20
0.7418390674422533
 10
0.2939584338605234
 20
0.7318477051375681
  0
LWPOLYLINE
  5
7DE1B343D9D9175
330
7DE1B343D9D92B7
100
AcDbEntity
  8
TEXT
100
AcDbPolyline
 90
        2
 70
     0
 43
0.0001332181640625
 10
0.3206020666730209
 20
0.7318477051375681
 10
0.3805502405011483
 20
0.7418390674422533
  0
LWPOLYLINE
  5
7DE1B343D9D9179
330
7DE1B343D9D92B7
100
AcDbEntity
  8
TEXT
100
AcDbPolyline
 90
        2
 70
     0
 43
0.0001332181640625
 10
0.3206020666730209
 20
0.6452558984969415
 10
0.3805502405011483
 20
0.705204072325067
  0
LWPOLYLINE
  5
7DE1B343D9D917D
330
7DE1B343D9D92B7
100
AcDbEntity
  8
TEXT
100
AcDbPolyline
 90
        3
 70
     0
 43
0.0006660908203125
 10
0.4071938733136458
 20
0.8850485938094436
 10
0.2939584338605234
 20
0.8850485938094436
 10
0.2939584338605234
 20
0.7718131543563161
  0
LWPOLYLINE
  5
7DE1B343D9D9182
330
7DE1B343D9D92B7
100
AcDbEntity
  8
TEXT
100
AcDbPolyline
 90
        3
 70
     0
 43
0.0006660908203125
 10
0.4071938733136458
 20
0.8584049609969426
 10
0.3206020666730209
 20
0.8584049609969426
 10
0.3206020666730209
 20
0.7718131543563161
  0
LWPOLYLINE
  5
7DE1B343D9D9187
330
7DE1B343D9D92B7
100
AcDbEntity
  8
TEXT
100
AcDbPolyline
 90
        2
 70
     0
 43
0.0001332181640625
 10
0.3206020666730209
 20
0.8584049609969426
 10
0.3805502405011465
 20
0.7984567871688171
  0
LWPOLYLINE
  5
7DE1B343D9D918B
330
7DE1B343D9D92B7
100
AcDbEntity
  8
TEXT
100
AcDbPolyline
 90
        2
 70
     0
 43
0.0001332181640625
 10
0.3206020666730209
 20
0.7718131543563161
 10
0.3805502405011465
 20
0.7618217920516273
  0
LWPOLYLINE
  5
7DE1B343D9D918F
330
7DE1B343D9D92B7
100
AcDbEntity
  8
TEXT
100
AcDbPolyline
 90
        2
 70
     0
 43
0.0001332181640625
 10
0.2939584338605234
 20
0.7718131543563161
 10
0.3672284240948977
 20
0.7618217920516273
  0
LWPOLYLINE
  5
7DE1B343D9D9193
330
7DE1B343D9D92B7
100
AcDbEntity
  8
TEXT
100
AcDbPolyline
 90
        2
 70
     0
 43
0.0006660908203125
 10
0.3206020666730209
 20
0.7318477051375681
 10
0.2939584338605234
 20
0.7318477051375681
  0
LWPOLYLINE
  5
7DE1B343D9D9197
330
7DE1B343D9D92B7
100
AcDbEntity
  8
TEXT
100
AcDbPolyline
 90
        2
 70
     0
 43
0.0006660908203125
 10
0.3206020666730209
 20
0.7718131543563161
 10
0.2939584338605234
 20
0.7718131543563161
  0
LINE
  5
7DE1B343D9D919B
330
7DE1B343D9D92B7
100
AcDbEntity
  8
TEXT
100
AcDbLine
 10
1.80914886298702
 20
0.8207718991526746
 30
0.0
 11
1.701942589599731
 21
0.8207718991526746
 31
0.0
  0
LINE
  5
7DE1B343D9D919C
330
7DE1B343D9D92B7
100
AcDbEntity
  8
TEXT
100
AcDbLine
 10
1.838179761331499
 20
0.8850485938094401
 30
0.0
 11
1.70334785211444
 21
0.8850485938094401
 31
0.0
  0
ARC
  5
7DE1B343D9D919D
330
7DE1B343D9D92B7
100
AcDbEntity
  8
TEXT
100
AcDbCircle
 10
1.762661948507757
 20
0.7158113445464238
 30
0.0
 40
0.0676855811441166
100
AcDbArc
 50
90.0
 51
153.7768192527749
  0
LWPOLYLINE
  5
7DE1B343D9D919E
330
7DE1B343D9D92B7
100
AcDbEntity
  8
TEXT
100
AcDbPolyline
 90
        2
 70
     0
 43
0.0
 10
1.700910094144921
 20
0.6620665057713673
 42
0.2901071551932823
 10
1.743986027012557
 20
0.6185755608209292
 42
5.328517124445801
  0
ARC
  5
7DE1B343D9D91A2
330
7DE1B343D9D92B7
100
AcDbEntity
  8
TEXT
100
AcDbCircle
 10
1.057530570836271
 20
0.678367952158979
 30
0.0
 40
0.0601160179737537
100
AcDbArc
 50
180.0000000000003
 51
264.0521544866073
  0
LINE
  5
7DE1B343D9D91A3
330
7DE1B343D9D92B7
100
AcDbEntity
  8
TEXT
100
AcDbLine
 10
1.061045926461819
 20
0.9194365114035782
 30
0.0
 11
1.001003321617812
 21
0.9194365114035782
 31
0.0
  0
ARC
  5
7DE1B343D9D91A4
330
7DE1B343D9D92B7
100
AcDbEntity
  8
TEXT
100
AcDbCircle
 10
0.8252715687193008
 20
0.8029611343629383
 30
0.0
 40
0.0820874594465043
100
AcDbArc
 50
90.0
 51
270.0
  0
LWPOLYLINE
  5
7DE1B343D9D91A5
330
7DE1B343D9D92B7
100
AcDbEntity
  8
TEXT
100
AcDbPolyline
 90
        2
 70
     0
 43
0.0001332181640625
 10
0.4171852356183364
 20
0.811778603575064
 10
0.4071938733136458
 20
0.8850485938094436
  0
LWPOLYLINE
  5
7DE1B343D9D91A9
330
7DE1B343D9D92B7
100
AcDbEntity
  8
TEXT
100
AcDbPolyline
 90
        2
 70
     0
 43
0.0001332181640625
 10
0.4071938733136458
 20
0.8584049609969426
 10
0.4171852356183364
 20
0.7984567871688171
  0
LWPOLYLINE
  5
7DE1B343D9D91AD
330
7DE1B343D9D92B7
100
AcDbEntity
  8
TEXT
100
AcDbPolyline
 90
        3
 70
     0
 43
0.0006660908203125
 10
0.5603947619855232
 20
0.7718131543563161
 10
0.5603947619855232
 20
0.8850485938094436
 10
0.4471593225323974
 20
0.8850485938094436
  0
LWPOLYLINE
  5
7DE1B343D9D91B2
330
7DE1B343D9D92B7
100
AcDbEntity
  8
TEXT
100
AcDbPolyline
 90
        3
 70
     0
 43
0.0006660908203125
 10
0.5337511291730222
 20
0.7718131543563161
 10
0.5337511291730222
 20
0.8584049609969426
 10
0.4471593225323974
 20
0.8584049609969426
  0
LWPOLYLINE
  5
7DE1B343D9D91B7
330
7DE1B343D9D92B7
100
AcDbEntity
  8
TEXT
100
AcDbPolyline
 90
        2
 70
     0
 43
0.0001332181640625
 10
0.5337511291730222
 20
0.8584049609969426
 10
0.4738029553448984
 20
0.7984567871688171
  0
LWPOLYLINE
  5
7DE1B343D9D91BB
330
7DE1B343D9D92B7
100
AcDbEntity
  8
TEXT
100
AcDbPolyline
 90
        2
 70
     0
 43
0.0001332181640625
 10
0.4471593225323974
 20
0.8584049609969426
 10
0.4371679602277086
 20
0.7984567871688171
  0
LWPOLYLINE
  5
7DE1B343D9D91BF
330
7DE1B343D9D92B7
100
AcDbEntity
  8
TEXT
100
AcDbPolyline
 90
        2
 70
     0
 43
0.0001332181640625
 10
0.4471593225323974
 20
0.8850485938094436
 10
0.4371679602277086
 20
0.811778603575064
  0
LWPOLYLINE
  5
7DE1B343D9D91C3
330
7DE1B343D9D92B7
100
AcDbEntity
  8
TEXT
100
AcDbPolyline
 90
        2
 70
     0
 43
0.0001332181640625
 10
0.4871247717511471
 20
0.7618217920516273
 10
0.5603947619855232
 20
0.7718131543563161
  0
LWPOLYLINE
  5
7DE1B343D9D91C7
330
7DE1B343D9D92B7
100
AcDbEntity
  8
TEXT
100
AcDbPolyline
 90
        2
 70
     0
 43
0.0001332181640625
 10
0.5337511291730222
 20
0.7718131543563161
 10
0.4738029553448984
 20
0.7618217920516273
  0
LWPOLYLINE
  5
7DE1B343D9D91CB
330
7DE1B343D9D92B7
100
AcDbEntity
  8
TEXT
100
AcDbPolyline
 90
        2
 70
     0
 43
0.0001332181640625
 10
0.5603947619855232
 20
0.7318477051375681
 10
0.4871247717511471
 20
0.7418390674422533
  0
LWPOLYLINE
  5
7DE1B343D9D91CF
330
7DE1B343D9D92B7
100
AcDbEntity
  8
TEXT
100
AcDbPolyline
 90
        2
 70
     0
 43
0.0001332181640625
 10
0.5337511291730222
 20
0.7318477051375681
 10
0.4738029553448984
 20
0.7418390674422533
  0
LWPOLYLINE
  5
7DE1B343D9D91D3
330
7DE1B343D9D92B7
100
AcDbEntity
  8
TEXT
100
AcDbPolyline
 90
        2
 70
     0
 43
0.0001332181640625
 10
0.5337511291730222
 20
0.6452558984969415
 10
0.4738029553448984
 20
0.705204072325067
  0
LWPOLYLINE
  5
7DE1B343D9D91D7
330
7DE1B343D9D92B7
100
AcDbEntity
  8
TEXT
100
AcDbPolyline
 90
        3
 70
     0
 43
0.0006660908203125
 10
0.4471593225323974
 20
0.6452558984969415
 10
0.5337511291730222
 20
0.6452558984969415
 10
0.5337511291730222
 20
0.7318477051375681
  0
LWPOLYLINE
  5
7DE1B343D9D91DC
330
7DE1B343D9D92B7
100
AcDbEntity
  8
TEXT
100
AcDbPolyline
 90
        3
 70
     0
 43
0.0006660908203125
 10
0.4471593225323974
 20
0.6186122656844404
 10
0.5603947619855232
 20
0.6186122656844404
 10
0.5603947619855232
 20
0.7318477051375681
  0
LWPOLYLINE
  5
7DE1B343D9D91E1
330
7DE1B343D9D92B7
100
AcDbEntity
  8
TEXT
100
AcDbPolyline
 90
        5
 70
     0
 43
0.0001332181640625
 10
0.4171852356183364
 20
0.6918822559188165
 10
0.4171852356183364
 20
0.705204072325067
 10
0.3805502405011483
 20
0.705204072325067
 10
0.3805502405011483
 20
0.7418390674422533
 10
0.3672284240948977
 20
0.7418390674422533
  0
LWPOLYLINE
  5
7DE1B343D9D91E8
330
7DE1B343D9D92B7
100
AcDbEntity
  8
TEXT
100
AcDbPolyline
 90
        2
 70
     0
 43
0.0006660908203125
 10
0.4071938733136458
 20
0.6452558984969415
 10
0.4071938733136458
 20
0.6186122656844404
  0
LWPOLYLINE
  5
7DE1B343D9D91EC
330
7DE1B343D9D92B7
100
AcDbEntity
  8
TEXT
100
AcDbPolyline
 90
        2
 70
     0
 43
0.0001332181640625
 10
0.4071938733136458
 20
0.6452558984969415
 10
0.4171852356183364
 20
0.705204072325067
  0
LWPOLYLINE
  5
7DE1B343D9D91F0
330
7DE1B343D9D92B7
100
AcDbEntity
  8
TEXT
100
AcDbPolyline
 90
        2
 70
     0
 43
0.0001332181640625
 10
0.4071938733136458
 20
0.6186122656844404
 10
0.4171852356183364
 20
0.6918822559188165
  0
LWPOLYLINE
  5
7DE1B343D9D91F4
330
7DE1B343D9D92B7
100
AcDbEntity
  8
TEXT
100
AcDbPolyline
 90
        5
 70
     0
 43
0.0001332181640625
 10
0.3672284240948977
 20
0.7618217920516273
 10
0.3805502405011465
 20
0.7618217920516273
 10
0.3805502405011465
 20
0.7984567871688171
 10
0.4171852356183364
 20
0.7984567871688171
 10
0.4171852356183364
 20
0.811778603575064
  0
LWPOLYLINE
  5
7DE1B343D9D91FB
330
7DE1B343D9D92B7
100
AcDbEntity
  8
TEXT
100
AcDbPolyline
 90
        5
 70
     0
 43
0.0001332181640625
 10
0.4371679602277086
 20
0.811778603575064
 10
0.4371679602277086
 20
0.7984567871688171
 10
0.4738029553448984
 20
0.7984567871688171
 10
0.4738029553448984
 20
0.7618217920516273
 10
0.4871247717511471
 20
0.7618217920516273
  0
LWPOLYLINE
  5
7DE1B343D9D9202
330
7DE1B343D9D92B7
100
AcDbEntity
  8
TEXT
100
AcDbPolyline
 90
        2
 70
     0
 43
0.0001332181640625
 10
0.4471593225323974
 20
0.6452558984969415
 10
0.4371679602277086
 20
0.705204072325067
  0
LWPOLYLINE
  5
7DE1B343D9D9206
330
7DE1B343D9D92B7
100
AcDbEntity
  8
TEXT
100
AcDbPolyline
 90
        2
 70
     0
 43
0.0001332181640625
 10
0.4371679602277086
 20
0.6918822559188165
 10
0.4471593225323974
 20
0.6186122656844404
  0
LWPOLYLINE
  5
7DE1B343D9D920A
330
7DE1B343D9D92B7
100
AcDbEntity
  8
TEXT
100
AcDbPolyline
 90
        2
 70
     0
 43
0.0006660908203125
 10
0.4471593225323974
 20
0.6452558984969415
 10
0.4471593225323974
 20
0.6186122656844404
  0
LWPOLYLINE
  5
7DE1B343D9D920E
330
7DE1B343D9D92B7
100
AcDbEntity
  8
TEXT
100
AcDbPolyline
 90
        5
 70
     0
 43
0.0001332181640625
 10
0.4871247717511471
 20
0.7418390674422533
 10
0.4738029553448984
 20
0.7418390674422533
 10
0.4738029553448984
 20
0.705204072325067
 10
0.4371679602277086
 20
0.705204072325067
 10
0.4371679602277086
 20
0.6918822559188165
  0
LWPOLYLINE
  5
7DE1B343D9D9215
330
7DE1B343D9D92B7
100
AcDbEntity
  8
TEXT
100
AcDbPolyline
 90
        2
 70
     0
 43
0.0006660908203125
 10
0.5337511291730222
 20
0.7718131543563161
 10
0.5603947619855232
 20
0.7718131543563161
  0
LWPOLYLINE
  5
7DE1B343D9D9219
330
7DE1B343D9D92B7
100
AcDbEntity
  8
TEXT
100
AcDbPolyline
 90
        2
 70
     0
 43
0.0006660908203125
 10
0.5337511291730222
 20
0.7318477051375681
 10
0.5603947619855232
 20
0.7318477051375681
  0
LINE
  5
7DE1B343D9D921D
330
7DE1B343D9D92B7
100
AcDbEntity
  8
TEXT
100
AcDbLine
 10
0.830508898833548
 20
0.8207718991526746
 30
0.0
 11
0.9974145528625193
 21
0.8207718991526746
 31
0.0
  0
LINE
  5
7DE1B343D9D921E
330
7DE1B343D9D92B7
100
AcDbEntity
  8
TEXT
100
AcDbLine
 10
0.8961090350778491
 20
0.7849671775420469
 30
0.0
 11
0.830508898833548
 21
0.7849671775420469
 31
0.0
  0
LINE
  5
7DE1B343D9D921F
330
7DE1B343D9D92B7
100
AcDbEntity
  8
TEXT
100
AcDbLine
 10
0.7431841092727965
 20
0.6185755608209292
 30
0.0
 11
0.8961090350778491
 21
0.6185755608209292
 31
0.0
  0
LINE
  5
7DE1B343D9D9220
330
7DE1B343D9D92B7
100
AcDbEntity
  8
TEXT
100
AcDbLine
 10
0.9010494089841287
 20
0.6869325671543685
 30
0.0
 11
0.7431841092727947
 21
0.6869325671543685
 31
0.0
  0
LINE
  5
7DE1B343D9D9221
330
7DE1B343D9D92B7
100
AcDbEntity
  8
TEXT
100
AcDbLine
 10
0.8252715687192999
 20
0.7208736749164331
 30
0.0
 11
0.9010494089841287
 21
0.7208736749164331
 31
0.0
  0
ARC
  5
7DE1B343D9D9222
330
7DE1B343D9D92B7
100
AcDbEntity
  8
TEXT
100
AcDbCircle
 10
0.8305088988335489
 20
0.8028695383473625
 30
0.0
 40
0.017902360805315
100
AcDbArc
 50
90.0
 51
270.0
  0
LINE
  5
7DE1B343D9D9223
330
7DE1B343D9D92B7
100
AcDbEntity
  8
TEXT
100
AcDbLine
 10
0.7431841092727947
 20
0.6869325671543685
 30
0.0
 11
0.7431841092727965
 21
0.6185755608209292
 31
0.0
  0
LINE
  5
7DE1B343D9D9224
330
7DE1B343D9D92B7
100
AcDbEntity
  8
TEXT
100
AcDbLine
 10
0.9974145528625193
 20
0.8207718991526746
 30
0.0
 11
0.9974145528625193
 21
0.678367952158979
 31
0.0
  0
ARC
  5
7DE1B343D9D9225
330
7DE1B343D9D92B7
100
AcDbEntity
  8
TEXT
100
AcDbCircle
 10
0.89610903507785
 20
0.7017713691814862
 30
0.0
 40
0.0831958083605586
100
AcDbArc
 50
270.0
 51
90.0
  0
ARC
  5
7DE1B343D9D9226
330
7DE1B343D9D92B7
100
AcDbEntity
  8
TEXT
100
AcDbCircle
 10
0.9010494089841296
 20
0.7039031210354026
 30
0.0
 40
0.0169705538810321
100
AcDbArc
 50
270.0
 51
90.0
  0
LWPOLYLINE
  5
7DE1B343D9D9227
330
7DE1B343D9D92B7
100
AcDbEntity
  8
TEXT
100
AcDbPolyline
 90
        2
 70
     0
 43
0.0006660908203125
 10
0.4071938733136458
 20
0.8584049609969426
 10
0.4071938733136458
 20
0.8850485938094436
  0
LWPOLYLINE
  5
7DE1B343D9D922B
330
7DE1B343D9D92B7
100
AcDbEntity
  8
TEXT
100
AcDbPolyline
 90
        2
 70
     0
 43
0.0006660908203125
 10
0.4471593225323974
 20
0.8584049609969426
 10
0.4471593225323974
 20
0.8850485938094436
  0
LINE
  5
7DE1B343D9D922F
330
7DE1B343D9D92B7
100
AcDbEntity
  8
TEXT
100
AcDbLine
 10
1.001003321617812
 20
0.8850485938094401
 30
0.0
 11
0.8252715687192999
 21
0.8850485938094401
 31
0.0
  0
LINE
  5
7DE1B343D9D9230
330
7DE1B343D9D92B7
100
AcDbEntity
  8
TEXT
100
AcDbLine
 10
1.001003321617812
 20
0.9194365114035782
 30
0.0
 11
1.001003321617812
 21
0.8850485938094401
 31
0.0
  0
LINE
  5
7DE1B343D9D9231
330
7DE1B343D9D92B7
100
AcDbEntity
  8
TEXT
100
AcDbLine
 10
1.191475213637664
 20
0.7841765976963196
 30
0.0
 11
1.132844892605726
 21
0.8850485938094401
 31
0.0
  0
LINE
  5
7DE1B343D9D9232
330
7DE1B343D9D92B7
100
AcDbEntity
  8
TEXT
100
AcDbLine
 10
1.250223776443529
 20
0.8850485938094401
 30
0.0
 11
1.191475213637664
 21
0.7841765976963196
 31
0.0
  0
LINE
  5
7DE1B343D9D9233
330
7DE1B343D9D92B7
100
AcDbEntity
  8
TEXT
100
AcDbLine
 10
1.347154401803271
 20
0.7009633989239284
 30
0.0
 11
1.347154401803271
 21
0.9530600715482506
 31
0.0
  0
LINE
  5
7DE1B343D9D9234
330
7DE1B343D9D92B7
100
AcDbEntity
  8
TEXT
100
AcDbLine
 10
1.379466255940931
 20
0.8850485938094401
 30
0.0
 11
1.379466255940931
 21
0.6841843870770319
 31
0.0
  0
LINE
  5
7DE1B343D9D9235
330
7DE1B343D9D92B7
100
AcDbEntity
  8
TEXT
100
AcDbLine
 10
1.379466255940931
 20
0.6841843870770319
 30
0.0
 11
1.36247261905633
 21
0.6841843870770319
 31
0.0
  0
LINE
  5
7DE1B343D9D9236
330
7DE1B343D9D92B7
100
AcDbEntity
  8
TEXT
100
AcDbLine
 10
1.348293975299466
 20
0.6185755608209292
 30
0.0
 11
1.4462973089989
 21
0.6185755608209292
 31
0.0
  0
LINE
  5
7DE1B343D9D9237
330
7DE1B343D9D92B7
100
AcDbEntity
  8
TEXT
100
AcDbLine
 10
1.18187497664071
 20
0.6385340669259421
 30
0.0
 11
1.279174682734154
 21
0.8028842778612101
 31
0.0
  0
ARC
  5
7DE1B343D9D9238
330
7DE1B343D9D92B7
100
AcDbEntity
  8
TEXT
100
AcDbCircle
 10
1.147831416728496
 20
0.6581232830946249
 30
0.0
 40
0.0392772371940762
100
AcDbArc
 50
270.1604552698595
 51
330.0831797321295
  0
LINE
  5
7DE1B343D9D9239
330
7DE1B343D9D92B7
100
AcDbEntity
  8
TEXT
100
AcDbLine
 10
1.051301160342624
 20
0.6185755608209292
 30
0.0
 11
1.147941411417619
 21
0.6188461999192115
 31
0.0
  0
LWPOLYLINE
  5
7DE1B343D9D923A
330
7DE1B343D9D92B7
100
AcDbEntity
  8
TEXT
100
AcDbPolyline
 90
        6
 70
     1
 43
0.0
 10
1.093824963917774
 20
0.8207718991526746
 10
1.063508369697566
 20
0.8207718991526746
 10
1.063508369697566
 20
0.6976609010977804
 42
0.407328721240804
 10
1.075052020859042
 20
0.6858419864213943
 10
1.135673719903773
 20
0.6858419864213943
 10
1.153139060311091
 20
0.7186542154648734
  0
LINE
  5
7DE1B343D9D9242
330
7DE1B343D9D92B7
100
AcDbEntity
  8
TEXT
100
AcDbLine
 10
1.279174682734154
 20
0.8028842778612101
 30
0.0
 11
1.279174682734154
 21
0.6701269030358539
 31
0.0
  0
ARC
  5
7DE1B343D9D9243
330
7DE1B343D9D92B7
100
AcDbEntity
  8
TEXT
100
AcDbCircle
 10
1.362472619056328
 20
0.6995661933204574
 30
0.0
 40
0.0153818062434269
100
AcDbArc
 50
174.7883570302258
 51
270.0
  0
LWPOLYLINE
  5
7DE1B343D9D9244
330
7DE1B343D9D92B7
100
AcDbEntity
  8
TEXT
100
AcDbPolyline
 90
        2
 70
     0
 43
0.0
 10
1.279174682734153
 20
0.6701269030358575
 42
0.3318488747599744
 10
1.348293975299466
 20
0.6185755608209292
 42
-6.868794160588311
  0
LINE
  5
7DE1B343D9D9248
330
7DE1B343D9D92B7
100
AcDbEntity
  8
TEXT
100
AcDbLine
 10
1.503686377988161
 20
0.6185755608209292
 30
0.0
 11
1.570744424770001
 21
0.6185755608209292
 31
0.0
  0
LINE
  5
7DE1B343D9D9249
330
7DE1B343D9D92B7
100
AcDbEntity
  8
TEXT
100
AcDbLine
 10
1.503686377988161
 20
0.8132181099865647
 30
0.0
 11
1.503686377988161
 21
0.6185755608209292
 31
0.0
  0
LINE
  5
7DE1B343D9D924A
330
7DE1B343D9D92B7
100
AcDbEntity
  8
TEXT
100
AcDbLine
 10
1.4462973089989
 20
0.8207718991526746
 30
0.0
 11
1.496132588822048
 21
0.8207718991526746
 31
0.0
  0
LINE
  5
7DE1B343D9D924B
330
7DE1B343D9D92B7
100
AcDbEntity
  8
TEXT
100
AcDbLine
 10
1.4462973089989
 20
0.6185755608209292
 30
0.0
 11
1.4462973089989
 21
0.8207718991526746
 31
0.0
  0
LWPOLYLINE
  5
7DE1B343D9D924C
330
7DE1B343D9D92B7
100
AcDbEntity
  8
TEXT
100
AcDbPolyline
 90
        2
 70
     0
 43
0.0
 10
1.496132588822046
 20
0.8207718991526746
 42
-0.4142135623731017
 10
1.503686377988159
 20
0.8132181099865647
 42
-0.9999999999999998
  0
LINE
  5
7DE1B343D9D9250
330
7DE1B343D9D92B7
100
AcDbEntity
  8
TEXT
100
AcDbLine
 10
1.701942589599731
 20
0.8207718991526746
 30
0.0
 11
1.701942589599731
 21
0.7457194930784681
 31
0.0
  0
LINE
  5
7DE1B343D9D9251
330
7DE1B343D9D92B7
100
AcDbEntity
  8
TEXT
100
AcDbLine
 10
1.570744424770001
 20
0.8207718991526746
 30
0.0
 11
1.624878021690951
 21
0.8207718991526746
 31
0.0
  0
LINE
  5
7DE1B343D9D9252
330
7DE1B343D9D92B7
100
AcDbEntity
  8
TEXT
100
AcDbLine
 10
1.570744424770001
 20
0.6185755608209292
 30
0.0
 11
1.570744424770001
 21
0.8207718991526746
 31
0.0
  0
LWPOLYLINE
  5
7DE1B343D9D9253
330
7DE1B343D9D92B7
100
AcDbEntity
  8
TEXT
100
AcDbPolyline
 90
        2
 70
     0
 43
0.0
 10
1.62487802169095
 20
0.8207718991526746
 42
-0.4142135623731017
 10
1.632431810857063
 20
0.8132181099865647
 42
-0.9999999999999998
  0
LWPOLYLINE
  5
7DE1B343D9D9257
330
7DE1B343D9D92B7
100
AcDbEntity
  8
TEXT
100
AcDbPolyline
 90
        4
 70
     0
 43
0.0
 10
1.632431810857063
 20
0.8132181099865647
 10
1.632431810857063
 20
0.6185755608209292
 10
1.700910094144921
 20
0.6185755608209292
 10
1.700910094144921
 20
0.6620665057713673
 42
-1.714843617202739
  0
LINE
  5
7DE1B343D9D925D
330
7DE1B343D9D92B7
100
AcDbEntity
  8
TEXT
100
AcDbLine
 10
1.061045926461819
 20
0.8850485938094401
 30
0.0
 11
1.061045926461819
 21
0.9194365114035782
 31
0.0
  0
LINE
  5
7DE1B343D9D925E
330
7DE1B343D9D92B7
100
AcDbEntity
  8
TEXT
100
AcDbLine
 10
1.132844892605726
 20
0.8850485938094401
 30
0.0
 11
1.061045926461819
 21
0.8850485938094401
 31
0.0
  0
LINE
  5
7DE1B343D9D925F
330
7DE1B343D9D92B7
100
AcDbEntity
  8
TEXT
100
AcDbLine
 10
1.280345689236906
 20
0.8850485938094401
 30
0.0
 11
1.250223776443529
 21
0.8850485938094401
 31
0.0
  0
LINE
  5
7DE1B343D9D9260
330
7DE1B343D9D92B7
100
AcDbEntity
  8
TEXT
100
AcDbLine
 10
1.280345689236906
 20
0.9530600715482506
 30
0.0
 11
1.280345689236906
 21
0.8850485938094401
 31
0.0
  0
LINE
  5
7DE1B343D9D9261
330
7DE1B343D9D92B7
100
AcDbEntity
  8
TEXT
100
AcDbLine
 10
1.347154401803271
 20
0.9530600715482506
 30
0.0
 11
1.280345689236906
 21
0.9530600715482506
 31
0.0
  0
LWPOLYLINE
  5
7DE1B343D9D9262
330
7DE1B343D9D92B7
100
AcDbEntity
  8
TEXT
100
AcDbPolyline
 90
        3
 70
     0
 43
0.0
 10
1.667566161401273
 20
0.8850485938094436
 10
1.549266002585229
 20
0.8850485938094436
 10
1.549266002585229
 20
0.8578810970485477
 42
-1.960274751411753
  0
LINE
  5
7DE1B343D9D9267
330
7DE1B343D9D92B7
100
AcDbEntity
  8
TEXT
100
AcDbLine
 10
1.513484311872067
 20
0.8850485938094401
 30
0.0
 11
1.379466255940931
 21
0.8850485938094401
 31
0.0
  0
LWPOLYLINE
  5
7DE1B343D9D9268
330
7DE1B343D9D92B7
100
AcDbEntity
  8
TEXT
100
AcDbPolyline
 90
        2
 70
     0
 43
0.0
 10
1.513484311872067
 20
0.8850485938094436
 42
-0.3328679258950098
 10
1.549266002585229
 20
0.8578810970485477
 42
6.772930709997214
  0
LINE
  5
7DE1B343D9D926C
330
7DE1B343D9D92B7
100
AcDbEntity
  8
TEXT
100
AcDbLine
 10
1.70334785211444
 20
0.8850485938094401
 30
0.0
 11
1.70334785211444
 21
0.8567260480397962
 31
0.0
  0
LWPOLYLINE
  5
7DE1B343D9D926D
330
7DE1B343D9D92B7
100
AcDbEntity
  8
TEXT
100
AcDbPolyline
 90
        2
 70
     0
 43
0.0
 10
1.667566161401273
 20
0.8850485938094436
 42
-0.3277054968067132
 10
1.703347852114438
 20
0.8567260480397997
 42
6.667889725900311
  0
LINE
  5
7DE1B343D9D9271
330
7DE1B343D9D92B7
100
AcDbEntity
  8
TEXT
100
AcDbLine
 10
1.91713970020654
 20
0.7798366152560128
 30
0.0
 11
1.873388929024638
 21
0.8620868912521579
 31
0.0
  0
LINE
  5
7DE1B343D9D9272
330
7DE1B343D9D92B7
100
AcDbEntity
  8
TEXT
100
AcDbLine
 10
1.91713970020654
 20
0.8850485938094401
 30
0.0
 11
1.91713970020654
 21
0.7798366152560128
 31
0.0
  0
LINE
  5
7DE1B343D9D9273
330
7DE1B343D9D92B7
100
AcDbEntity
  8
TEXT
100
AcDbLine
 10
2.144823439144909
 20
0.809183267397902
 30
0.0
 11
2.144823439144909
 21
0.9505127995770408
 31
0.0
  0
LINE
  5
7DE1B343D9D9274
330
7DE1B343D9D92B7
100
AcDbEntity
  8
TEXT
100
AcDbLine
 10
2.191921597700893
 20
0.8850485938094401
 30
0.0
 11
2.144823439144909
 21
0.809183267397902
 31
0.0
  0
LINE
  5
7DE1B343D9D9275
330
7DE1B343D9D92B7
100
AcDbEntity
  8
TEXT
100
AcDbLine
 10
2.202356314464816
 20
0.7751553508684666
 30
0.0
 11
2.266913430430522
 21
0.8850485938094401
 31
0.0
  0
LINE
  5
7DE1B343D9D9276
330
7DE1B343D9D92B7
100
AcDbEntity
  8
TEXT
100
AcDbLine
 10
2.080988447922136
 20
0.6185755608209292
 30
0.0
 11
2.145366632240756
 21
0.6185755608209292
 31
0.0
  0
LWPOLYLINE
  5
7DE1B343D9D9277
330
7DE1B343D9D92B7
100
AcDbEntity
  8
TEXT
100
AcDbPolyline
 90
        2
 70
     0
 43
0.0
 10
1.921079377511578
 20
0.6620665057713673
 42
-0.2901071551932486
 10
1.878003444643933
 20
0.6185755608209292
 42
-5.328517124445184
  0
ARC
  5
7DE1B343D9D927B
330
7DE1B343D9D92B7
100
AcDbEntity
  8
TEXT
100
AcDbCircle
 10
1.809148862987019
 20
0.7924125241526774
 30
0.0
 40
0.028359375
100
AcDbArc
 50
25.78218179591245
 51
90.0
  0
LINE
  5
7DE1B343D9D927C
330
7DE1B343D9D92B7
100
AcDbEntity
  8
TEXT
100
AcDbLine
 10
1.844949938291142
 20
0.7834969256905425
 30
0.0
 11
1.834685177877577
 21
0.8047474652632367
 31
0.0
  0
LINE
  5
7DE1B343D9D927D
330
7DE1B343D9D92B7
100
AcDbEntity
  8
TEXT
100
AcDbLine
 10
1.762661948507759
 20
0.7834969256905425
 30
0.0
 11
1.844949938291142
 21
0.7834969256905425
 31
0.0
  0
LWPOLYLINE
  5
7DE1B343D9D927E
330
7DE1B343D9D92B7
100
AcDbEntity
  8
TEXT
100
AcDbPolyline
 90
        4
 70
     1
 43
0.0
 10
1.857880979574041
 20
0.7215395388049544
 10
1.769220660914182
 20
0.7215395388049544
 42
0.9999999999999998
 10
1.769220660914182
 20
0.6791409983010937
 10
1.857880979574041
 20
0.6791409983010937
 42
1.0
  0
LWPOLYLINE
  5
7DE1B343D9D9284
330
7DE1B343D9D92B7
100
AcDbEntity
  8
TEXT
100
AcDbPolyline
 90
        2
 70
     0
 43
0.0
 10
1.743986027012557
 20
0.6185755608209292
 10
1.878003444643933
 20
0.6185755608209292
 42
0.9999999999999998
  0
LINE
  5
7DE1B343D9D9288
330
7DE1B343D9D92B7
100
AcDbEntity
  8
TEXT
100
AcDbLine
 10
2.004340466629573
 20
0.8207718991526746
 30
0.0
 11
2.080988447922131
 21
0.8207718991526746
 31
0.0
  0
LINE
  5
7DE1B343D9D9289
330
7DE1B343D9D92B7
100
AcDbEntity
  8
TEXT
100
AcDbLine
 10
2.080988447922131
 20
0.8207718991526746
 30
0.0
 11
2.080988447922136
 21
0.6185755608209292
 31
0.0
  0
ARC
  5
7DE1B343D9D928A
330
7DE1B343D9D92B7
100
AcDbEntity
  8
TEXT
100
AcDbCircle
 10
2.004340466629571
 20
0.795866023870012
 30
0.0
 40
0.0249058752826653
100
AcDbArc
 50
89.99971217465335
 51
179.9999999999985
  0
LINE
  5
7DE1B343D9D928B
330
7DE1B343D9D92B7
100
AcDbEntity
  8
TEXT
100
AcDbLine
 10
1.979434591346914
 20
0.6185755608209292
 30
0.0
 11
1.979434591346908
 21
0.7958660662523976
 31
0.0
  0
LWPOLYLINE
  5
7DE1B343D9D928C
330
7DE1B343D9D92B7
100
AcDbEntity
  8
TEXT
100
AcDbPolyline
 90
        2
 70
     0
 43
0.0
 10
1.921079377511578
 20
0.6185755608209292
 10
1.979434591346912
 20
0.6185755608209292
  0
LWPOLYLINE
  5
7DE1B343D9D9290
330
7DE1B343D9D92B7
100
AcDbEntity
  8
TEXT
100
AcDbPolyline
 90
        2
 70
     0
 43
0.0
 10
1.921079377511578
 20
0.6620665057713673
 10
1.921079377511578
 20
0.6185755608209292
  0
LINE
  5
7DE1B343D9D9294
330
7DE1B343D9D92B7
100
AcDbEntity
  8
TEXT
100
AcDbLine
 10
2.297848537828427
 20
0.6185755608209292
 30
0.0
 11
2.202356314464816
 21
0.7751553508684666
 31
0.0
  0
LINE
  5
7DE1B343D9D9295
330
7DE1B343D9D92B7
100
AcDbEntity
  8
TEXT
100
AcDbLine
 10
2.221270165452221
 20
0.6185755608209292
 30
0.0
 11
2.297848537828427
 21
0.6185755608209292
 31
0.0
  0
LINE
  5
7DE1B343D9D9296
330
7DE1B343D9D92B7
100
AcDbEntity
  8
TEXT
100
AcDbLine
 10
2.145366632240756
 20
0.7501551292971094
 30
0.0
 11
2.221270165452221
 21
0.6185755608209292
 31
0.0
  0
LINE
  5
7DE1B343D9D9297
330
7DE1B343D9D92B7
100
AcDbEntity
  8
TEXT
100
AcDbLine
 10
2.145366632240756
 20
0.6185755608209292
 30
0.0
 11
2.145366632240756
 21
0.7501551292971094
 31
0.0
  0
LINE
  5
7DE1B343D9D9298
330
7DE1B343D9D92B7
100
AcDbEntity
  8
TEXT
100
AcDbLine
 10
2.144823439144909
 20
0.9505127995770408
 30
0.0
 11
2.076508560595636
 21
0.9505127995770408
 31
0.0
  0
ARC
  5
7DE1B343D9D9299
330
7DE1B343D9D92B7
100
AcDbEntity
  8
TEXT
100
AcDbCircle
 10
1.83615282155443
 20
0.8434650266885377
 30
0.0
 40
0.0416329381542859
100
AcDbArc
 50
26.56974201007528
 51
87.20939649401342
  0
LINE
  5
7DE1B343D9D929A
330
7DE1B343D9D92B7
100
AcDbEntity
  8
TEXT
100
AcDbLine
 10
1.981036606506041
 20
0.8850485938094401
 30
0.0
 11
1.91713970020654
 21
0.8850485938094401
 31
0.0
  0
LINE
  5
7DE1B343D9D929B
330
7DE1B343D9D92B7
100
AcDbEntity
  8
TEXT
100
AcDbLine
 10
1.981036606506041
 20
0.8575009439485654
 30
0.0
 11
1.981036606506041
 21
0.8850485938094401
 31
0.0
  0
ARC
  5
7DE1B343D9D929C
330
7DE1B343D9D92B7
100
AcDbEntity
  8
TEXT
100
AcDbCircle
 10
2.012229423569149
 20
0.8538028665271752
 30
0.0
 40
0.0314112657011332
100
AcDbArc
 50
95.88484768694724
 51
173.2388340632136
  0
LINE
  5
7DE1B343D9D929D
330
7DE1B343D9D92B7
100
AcDbEntity
  8
TEXT
100
AcDbLine
 10
2.07650856059563
 20
0.8850485938094401
 30
0.0
 11
2.009008842946114
 21
0.8850485938094401
 31
0.0
  0
LINE
  5
7DE1B343D9D929E
330
7DE1B343D9D92B7
100
AcDbEntity
  8
TEXT
100
AcDbLine
 10
2.076508560595636
 20
0.9505127995770408
 30
0.0
 11
2.07650856059563
 21
0.8850485938094401
 31
0.0
  0
LINE
  5
7DE1B343D9D929F
330
7DE1B343D9D92B7
100
AcDbEntity
  8
TEXT
100
AcDbLine
 10
2.266913430430522
 20
0.8850485938094401
 30
0.0
 11
2.191921597700895
 21
0.8850485938094401
 31
0.0
  0
INSERT
  5
7DE1B343D9D92D2
330
7DE1B343D9D92B7
100
AcDbEntity
  8
ASHADE
 62
     1
100
AcDbBlockReference
  2
AVE_RENDER
 10
0.0
 20
0.0
 30
0.0
1001
AVE_RENDER
1002
{
1070
     6
1000
Pref
1070
    30
1070
    20
1070
     1
1070
     0
1000

1070
    10
1070
     1
1070
    30
1040
1.0
1070
     1
1040
0.3
1040
0.7
1040
0.0
1040
10.0
1010
-1.0
1020
-1.0
1030
-1.0
1040
0.3
1070
    49
1070
     0
1070
     0
1010
1.0
1020
1.0
1030
1.0
1040
45.0
1070
     1
1070
     0
1000
WCS
1040
0.0
1002
}
  0
INSERT
  5
7DE1B343D9D92D3
330
7DE1B343D9D92B7
100
AcDbEntity
  8
ASHADE
 62
     3
100
AcDbBlockReference
  2
AVE_RENDER
 10
0.0
 20
0.0
 30
0.0
1001
AVE_RENDER
1002
{
1070
     0
1000
Full Opt
1070
     0
1070
     1
1070
     1
1070
     1
1070
     0
1070
     0
1070
     0
1070
     1
1070
     1
1040
0.0001
1040
0.0001
1002
}
  0
INSERT
  5
7DE1B343D9D92D4
330
7DE1B343D9D92B7
100
AcDbEntity
  8
ASHADE
 62
     4
100
AcDbBlockReference
  2
AVE_RENDER
 10
0.0
 20
0.0
 30
0.0
1001
AVE_RENDER
1002
{
1070
     0
1000
Quick Opt
1070
     0
1070
     1
1070
     1
1070
     1
1070
     0
1070
     0
1070
     1
1002
}
  0
INSERT
  5
7DE1B343D9D92D5
330
7DE1B343D9D92B7
100
AcDbEntity
  8
ASHADE
 62
     5
100
AcDbBlockReference
  2
AVE_RENDER
 10
0.0
 20
0.0
 30
0.0
1001
AVE_RENDER
1002
{
1070
     1
1000
Scanl Opt
1070
     2
1070
     0
1070
     2
1040
2.0
1040
4.0
1070
     0
1070
     1
1070
     0
1040
0.03
1002
}
  0
INSERT
  5
7DE1B343D9D92D6
330
7DE1B343D9D92B7
100
AcDbEntity
  8
ASHADE
 62
     6
100
AcDbBlockReference
  2
AVE_RENDER
 10
0.0
 20
0.0
 30
0.0
1001
AVE_RENDER
1002
{
1070
     2
1000
Raytr Opt
1070
     2
1070
     0
1070
     2
1040
2.0
1040
4.0
1070
     0
1070
     1
1070
     1
1040
0.03
1070
     3
1040
0.03
1002
}
  0
INSERT
  5
7DE1B343D9D92D7
330
7DE1B343D9D92B7
100
AcDbEntity
  8
ASHADE
 62
     7
100
AcDbBlockReference
  2
AVE_RENDER
 10
0.0
 20
0.0
 30
0.0
1001
AVE_RENDER
1002
{
1070
     0
1000
RFile Opt
1070
     5
1070
   640
1070
   480
1070
 10000
1070
     3
1070
    32
1070
    24
1070
     0
1070
     0
1070
     0
1070
     1
1070
     0
1070
     0
1070
     0
1002
}
  0
INSERT
  5
7DE1B343D9D92D8
330
7DE1B343D9D92B7
100
AcDbEntity
  8
ASHADE
 62
     8
100
AcDbBlockReference
  2
AVE_RENDER
 10
0.0
 20
0.0
 30
0.0
1001
AVE_RENDER
1002
{
1070
     0
1000
Fog Opt
1070
     0
1070
     0
1040
0.0
1040
1.0
1040
0.0
1040
1.0
1010
0.5
1020
0.5
1030
0.5
1002
}
  0
INSERT
  5
7DE1B343D9D92D9
330
7DE1B343D9D92B7
100
AcDbEntity
  8
ASHADE
 62
     9
100
AcDbBlockReference
  2
AVE_RENDER
 10
0.0
 20
0.0
 30
0.0
1001
AVE_RENDER
1002
{
1070
     0
1000
BG Opt
1070
     0
1070
     1
1010
0.0
1020
0.0
1030
0.0
1010
1.0
1020
0.0
1030
0.0
1010
0.0
1020
1.0
1030
0.0
1010
0.0
1020
0.0
1030
1.0
1040
0.5
1040
0.33
1040
0.0
1000

1070
     1
1000

1070
     1
1070
     1
1040
1.0
1040
1.0
1040
0.0
1040
0.0
1070
     0
1002
}
  0
INSERT
  5
7DE1B343D9D92E0
330
7DE1B343D9D92B7
100
AcDbEntity
  8
ASHADE
 62
     1
100
AcDbBlockReference
  2
AVE_GLOBAL
 10
0.0
 20
0.0
 30
0.0
1001
AVE_MATERIAL
1002
{
1000
*GLOBAL*
1000
1
1000
Global finish.
1002
{
1002
}
1002
{
1070
    63
1002
{
1002
{
1010
-1.0
1020
-1.0
1030
-1.0
1002
}
1040
0.1000000014901161
1000

1040
0.0
1002
{
1002
}
1040
0.0
1002
{
1002
}
1040
0.0
1002
}
1002
{
1002
{
1010
-1.0
1020
-1.0
1030
-1.0
1002
}
1040
0.6999999880790711
1000

1040
0.0
1002
{
1002
}
1040
0.0
1002
{
1002
}
1040
0.0
1002
}
1002
{
1002
{
1010
-1.0
1020
-1.0
1030
-1.0
1002
}
1040
0.2000000029802322
1000

1040
0.0
1002
{
1002
}
1040
0.0
1002
{
1002
}
1040
0.0
1002
}
1002
{
1070
     0
1002
{
1070
     1
1002
{
1040
1.0
1040
1.0
1000

1040
0.0
1002
{
1002
}
1040
0.0
1002
{
1002
}
1040
0.0
1002
}
1002
}
1040
1.0
1040
0.0
1040
0.0
1002
}
1002
{
1040
1.0
1040
1.0
1000

1040
0.0
1002
{
1002
}
1040
0.0
1002
{
1002
}
1040
0.0
1002
}
1002
{
1040
0.5
1040
1.0
1000

1040
0.0
1002
{
1002
}
1040
0.0
1002
{
1002
}
1040
0.0
1002
}
1002
{
1070
     0
1040
0.0
1002
{
1002
}
1040
1.0
1002
{
1002
}
1040
0.0
1002
}
1002
{
1040
0.0
1002
{
1002
{
1010
0.0
1020
0.0
1030
0.0
1002
}
1040
1.0
1000

1040
0.0
1002
{
1002
}
1040
0.0
1002
{
1002
}
1040
0.0
1002
}
1002
}
1002
{
1002
{
1070
     1
1002
{
1040
0.0
1040
1.0
1000

1040
0.0
1002
{
1002
}
1040
0.0
1002
{
1002
}
1040
0.0
1002
}
1002
}
1040
0.0
1002
{
1002
}
1010
1.0
1020
0.0
1030
0.0
1010
0.0
1020
1.0
1030
0.0
1010
0.0
1020
0.0
1030
1.0
1070
     0
1002
}
1002
{
1002
{
1040
1.0
1040
1.0
1002
{
1070
     1
1002
{
1040
1.0
1040
1.0
1000

1040
0.0
1002
{
1002
}
1040
0.0
1002
{
1002
}
1040
0.0
1002
}
1002
}
1002
}
1070
     0
1040
0.0
1002
{
1002
}
1002
}
1002
{
1002
}
1002
}
1002
{
1071
        3
1070
     3
1070
     0
1002
{
1070
     2
1070
     0
1070
     0
1040
0.0
1002
}
1070
     0
1070
     2
1002
{
1002
}
1002
}
1002
{
1040
8030.0
1040
190.3000030517578
1040
0.3050000071525574
1040
228.0
1040
545.0
1040
14.0
1040
17.39999961853027
1040
0.4560000002384186
1002
}
1002
}
  0
ENDSEC
  0
SECTION
  2
OBJECTS
  0
DICTIONARY
  5
7DE1B343D9D92AB
330
0
100
AcDbDictionary
  3
ACAD_GROUP
350
7DE1B343D9D92AC
  3
ACAD_LAYOUT
350
7DE1B343D9D92EC
  3
ACAD_MLINESTYLE
350
7DE1B343D9D92AD
  3
ACAD_PLOTSETTINGS
350
7DE1B343D9D92ED
  3
ACAD_PLOTSTYLENAME
350
7DE1B343D9D92EA
  3
ACDBHEADERROUNDTRIPXREC
350
7DE1B343D9D92F7
  3
ACDBVARIABLEDICTIONARY
350
7DE1B343D9D92F4
  0
DICTIONARY
  5
7DE1B343D9D9319
330
7DE1B343D9D92B7
100
AcDbDictionary
280
     1
  3
ACAD_LAYOUTSELFREF
360
7DE1B343D9D931A
  0
DICTIONARY
  5
7DE1B343D9D9317
330
7DE1B343D9D92B4
100
AcDbDictionary
280
     1
  3
ACAD_LAYOUTSELFREF
360
7DE1B343D9D9318
  0
DICTIONARY
  5
7DE1B343D9D92AC
102
{ACAD_REACTORS
330
7DE1B343D9D92AB
102
}
330
7DE1B343D9D92AB
100
AcDbDictionary
  0
DICTIONARY
  5
7DE1B343D9D92EC
102
{ACAD_REACTORS
330
7DE1B343D9D92AB
102
}
330
7DE1B343D9D92AB
100
AcDbDictionary
  0
DICTIONARY
  5
7DE1B343D9D92AD
102
{ACAD_REACTORS
330
7DE1B343D9D92AB
102
}
330
7DE1B343D9D92AB
100
AcDbDictionary
  3
STANDARD
350
7DE1B343D9D92BA
  0
DICTIONARY
  5
7DE1B343D9D92ED
102
{ACAD_REACTORS
330
7DE1B343D9D92AB
102
}
330
7DE1B343D9D92AB
100
AcDbDictionary
  0
ACDBDICTIONARYWDFLT
  5
7DE1B343D9D92EA
102
{ACAD_REACTORS
330
7DE1B343D9D92AB
102
}
330
7DE1B343D9D92AB
100
AcDbDictionary
281
     1
  3
Normal
350
7DE1B343D9D92EB
100
AcDbDictionaryWithDefault
340
7DE1B343D9D92EB
  0
DICTIONARY
  5
7DE1B343D9D92F7
102
{ACAD_REACTORS
330
7DE1B343D9D92AB
102
}
330
7DE1B343D9D92AB
100
AcDbDictionary
  3
CEPSNTYPE
350
7DE1B343D9D9301
  3
FINGERPRINTGUID
350
7DE1B343D9D9302
  3
HYPERLINKBASE
350
7DE1B343D9D92FA
  3
INSUNITS
350
7DE1B343D9D9300
  3
LAYOUTDICT
350
7DE1B343D9D92FC
  3
LWETCUNION
350
7DE1B343D9D92FF
  3
PLOTSETDICT
350
7DE1B343D9D92FD
  3
PLOTSTYLNAMDICT
350
7DE1B343D9D92FE
  3
PSVPSCALE
350
7DE1B343D9D9304
  3
PUCSBASE
350
7DE1B343D9D9307
  3
PUCSORGBACK
350
7DE1B343D9D930D
  3
PUCSORGBOTTOM
350
7DE1B343D9D9309
  3
PUCSORGFRONT
350
7DE1B343D9D930C
  3
PUCSORGLEFT
350
7DE1B343D9D930A
  3
PUCSORGRIGHT
350
7DE1B343D9D930B
  3
PUCSORGTOP
350
7DE1B343D9D9308
  3
PUCSORTHOREF
350
7DE1B343D9D9305
  3
PUCSORTHOVIEW
350
7DE1B343D9D9306
  3
STYLESHEET
350
7DE1B343D9D92FB
  3
TSTACKALIGN
350
7DE1B343D9D92F8
  3
TSTACKSIZE
350
7DE1B343D9D92F9
  3
UCSBASE
350
7DE1B343D9D9310
  3
UCSORGBACK
350
7DE1B343D9D9316
  3
UCSORGBOTTOM
350
7DE1B343D9D9312
  3
UCSORGFRONT
350
7DE1B343D9D9315
  3
UCSORGLEFT
350
7DE1B343D9D9313
  3
UCSORGRIGHT
350
7DE1B343D9D9314
  3
UCSORGTOP
350
7DE1B343D9D9311
  3
UCSORTHOREF
350
7DE1B343D9D930E
  3
UCSORTHOVIEW
350
7DE1B343D9D930F
  3
VERSIONGUID
350
7DE1B343D9D9303
  0
DICTIONARY
  5
7DE1B343D9D92F4
102
{ACAD_REACTORS
330
7DE1B343D9D92AB
102
}
330
7DE1B343D9D92AB
100
AcDbDictionary
  3
DIMASSOC
350
7DE1B343D9D92F5
  0
XRECORD
  5
7DE1B343D9D931A
102
{ACAD_REACTORS
330
7DE1B343D9D9319
102
}
330
7DE1B343D9D9319
100
AcDbXrecord
340
7DE1B343D9D92B7
  0
XRECORD
  5
7DE1B343D9D9318
102
{ACAD_REACTORS
330
7DE1B343D9D9317
102
}
330
7DE1B343D9D9317
100
AcDbXrecord
340
7DE1B343D9D92B4
  0
MLINESTYLE
  5
7DE1B343D9D92BA
102
{ACAD_REACTORS
330
7DE1B343D9D92AD
102
}
330
7DE1B343D9D92AD
100
AcDbMlineStyle
  2
STANDARD
 70
     0
  3

 62
     0
 51
90.0
 52
90.0
 71
     2
 49
0.5
 62
   256
  6
BYLAYER
 49
-0.5
 62
   256
  6
BYLAYER
  0
ACDBPLACEHOLDER
  5
7DE1B343D9D92EB
102
{ACAD_REACTORS
330
7DE1B343D9D92EA
102
}
330
7DE1B343D9D92EA
100
AcDbPlaceHolder
280
     0
  0
XRECORD
  5
7DE1B343D9D9301
102
{ACAD_REACTORS
330
7DE1B343D9D92F7
102
}
330
7DE1B343D9D92F7
100
AcDbXrecord
 90
        0
  0
XRECORD
  5
7DE1B343D9D9302
102
{ACAD_REACTORS
330
7DE1B343D9D92F7
102
}
330
7DE1B343D9D92F7
100
AcDbXrecord
  1
{F436D6C0-8DB4-11D6-88E6-0090279574E7}
  0
XRECORD
  5
7DE1B343D9D92FA
102
{ACAD_REACTORS
330
7DE1B343D9D92F7
102
}
330
7DE1B343D9D92F7
100
AcDbXrecord
  1

  0
XRECORD
  5
7DE1B343D9D9300
102
{ACAD_REACTORS
330
7DE1B343D9D92F7
102
}
330
7DE1B343D9D92F7
100
AcDbXrecord
 90
        0
  0
XRECORD
  5
7DE1B343D9D92FC
102
{ACAD_REACTORS
330
7DE1B343D9D92F7
102
}
330
7DE1B343D9D92F7
100
AcDbXrecord
340
7DE1B343D9D92EC
  0
XRECORD
  5
7DE1B343D9D92FF
102
{ACAD_REACTORS
330
7DE1B343D9D92F7
102
}
330
7DE1B343D9D92F7
100
AcDbXrecord
 90
    14877
  0
XRECORD
  5
7DE1B343D9D92FD
102
{ACAD_REACTORS
330
7DE1B343D9D92F7
102
}
330
7DE1B343D9D92F7
100
AcDbXrecord
340
7DE1B343D9D92ED
  0
XRECORD
  5
7DE1B343D9D92FE
102
{ACAD_REACTORS
330
7DE1B343D9D92F7
102
}
330
7DE1B343D9D92F7
100
AcDbXrecord
340
7DE1B343D9D92EA
  0
XRECORD
  5
7DE1B343D9D9304
102
{ACAD_REACTORS
330
7DE1B343D9D92F7
102
}
330
7DE1B343D9D92F7
100
AcDbXrecord
 40
0.0
  0
XRECORD
  5
7DE1B343D9D9307
102
{ACAD_REACTORS
330
7DE1B343D9D92F7
102
}
330
7DE1B343D9D92F7
100
AcDbXrecord
340
0
  0
XRECORD
  5
7DE1B343D9D930D
102
{ACAD_REACTORS
330
7DE1B343D9D92F7
102
}
330
7DE1B343D9D92F7
100
AcDbXrecord
 10
0.0
 20
0.0
 30
0.0
  0
XRECORD
  5
7DE1B343D9D9309
102
{ACAD_REACTORS
330
7DE1B343D9D92F7
102
}
330
7DE1B343D9D92F7
100
AcDbXrecord
 10
0.0
 20
0.0
 30
0.0
  0
XRECORD
  5
7DE1B343D9D930C
102
{ACAD_REACTORS
330
7DE1B343D9D92F7
102
}
330
7DE1B343D9D92F7
100
AcDbXrecord
 10
0.0
 20
0.0
 30
0.0
  0
XRECORD
  5
7DE1B343D9D930A
102
{ACAD_REACTORS
330
7DE1B343D9D92F7
102
}
330
7DE1B343D9D92F7
100
AcDbXrecord
 10
0.0
 20
0.0
 30
0.0
  0
XRECORD
  5
7DE1B343D9D930B
102
{ACAD_REACTORS
330
7DE1B343D9D92F7
102
}
330
7DE1B343D9D92F7
100
AcDbXrecord
 10
0.0
 20
0.0
 30
0.0
  0
XRECORD
  5
7DE1B343D9D9308
102
{ACAD_REACTORS
330
7DE1B343D9D92F7
102
}
330
7DE1B343D9D92F7
100
AcDbXrecord
 10
0.0
 20
0.0
 30
0.0
  0
XRECORD
  5
7DE1B343D9D9305
102
{ACAD_REACTORS
330
7DE1B343D9D92F7
102
}
330
7DE1B343D9D92F7
100
AcDbXrecord
340
0
  0
XRECORD
  5
7DE1B343D9D9306
102
{ACAD_REACTORS
330
7DE1B343D9D92F7
102
}
330
7DE1B343D9D92F7
100
AcDbXrecord
 70
     0
  0
XRECORD
  5
7DE1B343D9D92FB
102
{ACAD_REACTORS
330
7DE1B343D9D92F7
102
}
330
7DE1B343D9D92F7
100
AcDbXrecord
  1

  0
XRECORD
  5
7DE1B343D9D92F8
102
{ACAD_REACTORS
330
7DE1B343D9D92F7
102
}
330
7DE1B343D9D92F7
100
AcDbXrecord
 90
        1
  0
XRECORD
  5
7DE1B343D9D92F9
102
{ACAD_REACTORS
330
7DE1B343D9D92F7
102
}
330
7DE1B343D9D92F7
100
AcDbXrecord
 90
       70
  0
XRECORD
  5
7DE1B343D9D9310
102
{ACAD_REACTORS
330
7DE1B343D9D92F7
102
}
330
7DE1B343D9D92F7
100
AcDbXrecord
340
0
  0
XRECORD
  5
7DE1B343D9D9316
102
{ACAD_REACTORS
330
7DE1B343D9D92F7
102
}
330
7DE1B343D9D92F7
100
AcDbXrecord
 10
0.0
 20
0.0
 30
0.0
  0
XRECORD
  5
7DE1B343D9D9312
102
{ACAD_REACTORS
330
7DE1B343D9D92F7
102
}
330
7DE1B343D9D92F7
100
AcDbXrecord
 10
0.0
 20
0.0
 30
0.0
  0
XRECORD
  5
7DE1B343D9D9315
102
{ACAD_REACTORS
330
7DE1B343D9D92F7
102
}
330
7DE1B343D9D92F7
100
AcDbXrecord
 10
0.0
 20
0.0
 30
0.0
  0
XRECORD
  5
7DE1B343D9D9313
102
{ACAD_REACTORS
330
7DE1B343D9D92F7
102
}
330
7DE1B343D9D92F7
100
AcDbXrecord
 10
0.0
 20
0.0
 30
0.0
  0
XRECORD
  5
7DE1B343D9D9314
102
{ACAD_REACTORS
330
7DE1B343D9D92F7
102
}
330
7DE1B343D9D92F7
100
AcDbXrecord
 10
0.0
 20
0.0
 30
0.0
  0
XRECORD
  5
7DE1B343D9D9311
102
{ACAD_REACTORS
330
7DE1B343D9D92F7
102
}
330
7DE1B343D9D92F7
100
AcDbXrecord
 10
0.0
 20
0.0
 30
0.0
  0
XRECORD
  5
7DE1B343D9D930E
102
{ACAD_REACTORS
330
7DE1B343D9D92F7
102
}
330
7DE1B343D9D92F7
100
AcDbXrecord
340
0
  0
XRECORD
  5
7DE1B343D9D930F
102
{ACAD_REACTORS
330
7DE1B343D9D92F7
102
}
330
7DE1B343D9D92F7
100
AcDbXrecord
 70
     0
  0
XRECORD
  5
7DE1B343D9D9303
102
{ACAD_REACTORS
330
7DE1B343D9D92F7
102
}
330
7DE1B343D9D92F7
100
AcDbXrecord
  1
{F436D6C2-8DB4-11D6-88E6-0090279574E7}
  0
DICTIONARYVAR
  5
7DE1B343D9D92F5
102
{ACAD_REACTORS
330
7DE1B343D9D92F4
102
}
330
7DE1B343D9D92F4
100
DictionaryVariables
280
     0
  1
1
  0
ENDSEC
  0
EOF
