  0
SECTION
  2
HEADER
  9
$ACADVER
  1
AC1014
  9
$ACADMAINTVER
 70
     9
  9
$DWGCODEPAGE
  3
ANSI_1252
  9
$INSBASE
 10
1.836678582719248
 20
1.112514019085555
 30
0.0
  9
$EXTMIN
 10
0.0936970034921056
 20
0.3315426548347422
 30
0.0
  9
$EXTMAX
 10
3.578916325239233
 20
2.012946010145429
 30
0.0
  9
$LIMMIN
 10
0.0
 20
0.0
  9
$LIMMAX
 10
18.0
 20
12.0
  9
$ORTHOMODE
 70
     1
  9
$REGENMODE
 70
     1
  9
$FILLMODE
 70
     1
  9
$QTEXTMODE
 70
     0
  9
$MIRRTEXT
 70
     0
  9
$DRAGMODE
 70
     2
  9
$LTSCALE
 40
1.0
  9
$OSMODE
 70
    39
  9
$ATTMODE
 70
     1
  9
$TEXTSIZE
 40
0.125
  9
$TRACEWID
 40
0.05
  9
$TEXTSTYLE
  7
ROMANS
  9
$CLAYER
  8
0
  9
$CELTYPE
  6
BYLAYER
  9
$CECOLOR
 62
   256
  9
$CELTSCALE
 40
1.0
  9
$DELOBJ
 70
     1
  9
$DISPSILH
 70
     1
  9
$DIMSCALE
 40
1.0
  9
$DIMASZ
 40
0.125
  9
$DIMEXO
 40
0.125
  9
$DIMDLI
 40
0.375
  9
$DIMRND
 40
0.0
  9
$DIMDLE
 40
0.0
  9
$DIMEXE
 40
0.125
  9
$DIMTP
 40
0.0
  9
$DIMTM
 40
0.0
  9
$DIMTXT
 40
0.125
  9
$DIMCEN
 40
-0.125
  9
$DIMTSZ
 40
0.0
  9
$DIMTOL
 70
     0
  9
$DIMLIM
 70
     0
  9
$DIMTIH
 70
     1
  9
$DIMTOH
 70
     1
  9
$DIMSE1
 70
     0
  9
$DIMSE2
 70
     0
  9
$DIMTAD
 70
     0
  9
$DIMZIN
 70
     4
  9
$DIMBLK
  1

  9
$DIMASO
 70
     1
  9
$DIMSHO
 70
     1
  9
$DIMPOST
  1

  9
$DIMAPOST
  1

  9
$DIMALT
 70
     0
  9
$DIMALTD
 70
     2
  9
$DIMALTF
 40
25.4
  9
$DIMLFAC
 40
1.0
  9
$DIMTOFL
 70
     0
  9
$DIMTVP
 40
0.0
  9
$DIMTIX
 70
     1
  9
$DIMSOXD
 70
     0
  9
$DIMSAH
 70
     0
  9
$DIMBLK1
  1

  9
$DIMBLK2
  1

  9
$DIMSTYLE
  2
STANDARD
  9
$DIMCLRD
 70
     0
  9
$DIMCLRE
 70
     0
  9
$DIMCLRT
 70
     0
  9
$DIMTFAC
 40
1.0
  9
$DIMGAP
 40
0.09
  9
$DIMJUST
 70
     0
  9
$DIMSD1
 70
     0
  9
$DIMSD2
 70
     0
  9
$DIMTOLJ
 70
     1
  9
$DIMTZIN
 70
     4
  9
$DIMALTZ
 70
     0
  9
$DIMALTTZ
 70
     0
  9
$DIMFIT
 70
     3
  9
$DIMUPT
 70
     0
  9
$DIMUNIT
 70
     2
  9
$DIMDEC
 70
     3
  9
$DIMTDEC
 70
     3
  9
$DIMALTU
 70
     2
  9
$DIMALTTD
 70
     2
  9
$DIMTXSTY
  7
ROMANS
  9
$DIMAUNIT
 70
     0
  9
$LUNITS
 70
     2
  9
$LUPREC
 70
     3
  9
$SKETCHINC
 40
0.1
  9
$FILLETRAD
 40
0.03125
  9
$AUNITS
 70
     0
  9
$AUPREC
 70
     0
  9
$MENU
  1
ACAD
  9
$ELEVATION
 40
0.0
  9
$PELEVATION
 40
0.0
  9
$THICKNESS
 40
0.0
  9
$LIMCHECK
 70
     0
  9
$BLIPMODE
 70
     0
  9
$CHAMFERA
 40
0.0
  9
$CHAMFERB
 40
0.0
  9
$CHAMFERC
 40
0.0
  9
$CHAMFERD
 40
0.0
  9
$SKPOLY
 70
     0
  9
$TDCREATE
 40
2448994.446688542
  9
$TDUPDATE
 40
2452458.300158773
  9
$TDINDWG
 40
0.0022438542
  9
$TDUSRTIMER
 40
0.0022438542
  9
$USRTIMER
 70
     1
  9
$ANGBASE
 50
0.0
  9
$ANGDIR
 70
     0
  9
$PDMODE
 70
     0
  9
$PDSIZE
 40
0.0
  9
$PLINEWID
 40
0.0
  9
$COORDS
 70
     2
  9
$SPLFRAME
 70
     0
  9
$SPLINETYPE
 70
     6
  9
$SPLINESEGS
 70
     8
  9
$ATTDIA
 70
     0
  9
$ATTREQ
 70
     1
  9
$HANDLING
 70
 22529
  9
$HANDSEED
  5
7DE1B343D9D8F5C
  9
$SURFTAB1
 70
     6
  9
$SURFTAB2
 70
     6
  9
$SURFTYPE
 70
     6
  9
$SURFU
 70
     6
  9
$SURFV
 70
     6
  9
$UCSNAME
  2

  9
$UCSORG
 10
0.0
 20
0.0
 30
0.0
  9
$UCSXDIR
 10
1.0
 20
0.0
 30
0.0
  9
$UCSYDIR
 10
0.0
 20
1.0
 30
0.0
  9
$PUCSNAME
  2

  9
$PUCSORG
 10
0.0
 20
0.0
 30
0.0
  9
$PUCSXDIR
 10
1.0
 20
0.0
 30
0.0
  9
$PUCSYDIR
 10
0.0
 20
1.0
 30
0.0
  9
$USERI1
 70
     0
  9
$USERI2
 70
     0
  9
$USERI3
 70
     0
  9
$USERI4
 70
     0
  9
$USERI5
 70
     0
  9
$USERR1
 40
0.0
  9
$USERR2
 40
0.0
  9
$USERR3
 40
0.0
  9
$USERR4
 40
0.0
  9
$USERR5
 40
0.0
  9
$WORLDVIEW
 70
     1
  9
$SHADEDGE
 70
     3
  9
$SHADEDIF
 70
    70
  9
$TILEMODE
 70
     1
  9
$MAXACTVP
 70
    16
  9
$PINSBASE
 10
1.112054322176754
 20
50.00000000000001
 30
1.210365855629524
  9
$PLIMCHECK
 70
     0
  9
$PEXTMIN
 10
1.000000000000000E+20
 20
1.000000000000000E+20
 30
1.000000000000000E+20
  9
$PEXTMAX
 10
-1.000000000000000E+20
 20
-1.000000000000000E+20
 30
-1.000000000000000E+20
  9
$PLIMMIN
 10
0.0
 20
0.0
  9
$PLIMMAX
 10
12.0
 20
9.0
  9
$UNITMODE
 70
     0
  9
$VISRETAIN
 70
     0
  9
$PLINEGEN
 70
     1
  9
$PSLTSCALE
 70
     0
  9
$TREEDEPTH
 70
  3020
  9
$PICKSTYLE
 70
     1
  9
$CMLSTYLE
  2
STANDARD
  9
$CMLJUST
 70
     0
  9
$CMLSCALE
 40
1.0
  9
$PROXYGRAPHICS
 70
     1
  9
$MEASUREMENT
 70
     0
  0
ENDSEC
  0
SECTION
  2
CLASSES
  0
CLASS
  1
LWPOLYLINE
  2
AcDbPolyline
  3
AutoCAD 2000
 90
        0
280
     0
281
     1
  0
CLASS
  1
ACDBDICTIONARYWDFLT
  2
AcDbDictionaryWithDefault
  3
AutoCAD 2000
 90
        0
280
     0
281
     0
  0
CLASS
  1
ACDBPLACEHOLDER
  2
AcDbPlaceHolder
  3
AutoCAD 2000
 90
        0
280
     0
281
     0
  0
CLASS
  1
LAYOUT
  2
AcDbLayout
  3
AutoCAD 2000
 90
        0
280
     0
281
     0
  0
CLASS
  1
DICTIONARYVAR
  2
AcDbDictionaryVar
  3
AutoCAD 2000
 90
        0
280
     0
281
     0
  0
CLASS
  1
LONG_TRANSACTION
  2
AcDbLongTransaction
  3
AutoCAD 2000
 90
        0
280
     0
281
     0
  0
CLASS
  1
LWPOLYLINE
  2
AcDbPolyline
  3
AutoCAD 2000
 90
        0
280
     0
281
     1
  0
CLASS
  1
HATCH
  2
AcDbHatch
  3
AutoCAD 2000
 90
        0
280
     0
281
     1
  0
CLASS
  1
XRECORD
  2
AcDbXrecord
  3
AutoCAD 2000
 90
        0
280
     0
281
     0
  0
ENDSEC
  0
SECTION
  2
TABLES
  0
TABLE
  2
VPORT
  5
7DE1B343D9D8EE8
330
0
100
AcDbSymbolTable
 70
     2
  0
VPORT
  5
7DE1B343D9D8F37
330
7DE1B343D9D8EE8
100
AcDbSymbolTableRecord
100
AcDbViewportTableRecord
  2
*ACTIVE
 70
     0
 10
0.0
 20
0.0
 11
1.0
 21
1.0
 12
4.81256373960058
 22
1.172424338725889
 13
0.0
 23
0.0
 14
0.015625
 24
0.015625
 15
0.0
 25
0.0
 16
0.0
 26
0.0
 36
1.0
 17
0.0
 27
0.0
 37
0.0
 40
2.282647215150728
 41
4.320930232558139
 42
50.0
 43
0.0
 44
0.0
 50
0.0
 51
0.0
 71
     0
 72
  2000
 73
     1
 74
     0
 75
     0
 76
     0
 77
     0
 78
     0
  0
ENDTAB
  0
TABLE
  2
LTYPE
  5
7DE1B343D9D8EE5
330
0
100
AcDbSymbolTable
 70
     1
  0
LTYPE
  5
7DE1B343D9D8EF2
330
7DE1B343D9D8EE5
100
AcDbSymbolTableRecord
100
AcDbLinetypeTableRecord
  2
BYBLOCK
 70
     0
  3

 72
    65
 73
     0
 40
0.0
  0
LTYPE
  5
7DE1B343D9D8EF3
330
7DE1B343D9D8EE5
100
AcDbSymbolTableRecord
100
AcDbLinetypeTableRecord
  2
BYLAYER
 70
     0
  3

 72
    65
 73
     0
 40
0.0
  0
LTYPE
  5
7DE1B343D9D8EF4
330
7DE1B343D9D8EE5
100
AcDbSymbolTableRecord
100
AcDbLinetypeTableRecord
  2
CONTINUOUS
 70
     0
  3
Solid line
 72
    65
 73
     0
 40
0.0
  0
ENDTAB
  0
TABLE
  2
LAYER
  5
7DE1B343D9D8EE2
330
0
100
AcDbSymbolTable
 70
     3
  0
LAYER
  5
7DE1B343D9D8EEF
330
7DE1B343D9D8EE2
100
AcDbSymbolTableRecord
100
AcDbLayerTableRecord
  2
0
 70
     0
 62
     7
  6
CONTINUOUS
  0
LAYER
  5
7DE1B343D9D8EFF
330
7DE1B343D9D8EE2
100
AcDbSymbolTableRecord
100
AcDbLayerTableRecord
  2
TEXT
 70
     0
 62
     3
  6
CONTINUOUS
  0
LAYER
  5
7DE1B343D9D8F0F
330
7DE1B343D9D8EE2
100
AcDbSymbolTableRecord
100
AcDbLayerTableRecord
  2
ASHADE
 70
     4
 62
     7
  6
CONTINUOUS
  0
ENDTAB
  0
TABLE
  2
STYLE
  5
7DE1B343D9D8EE3
330
0
100
AcDbSymbolTable
 70
     4
  0
STYLE
  5
7DE1B343D9D8EF0
330
7DE1B343D9D8EE3
100
AcDbSymbolTableRecord
100
AcDbTextStyleTableRecord
  2
STANDARD
 70
     0
 40
0.0
 41
1.0
 50
0.0
 71
     0
 42
0.3125
  3
txt
  4

  0
STYLE
  5
7DE1B343D9D8EFC
330
7DE1B343D9D8EE3
100
AcDbSymbolTableRecord
100
AcDbTextStyleTableRecord
  2
ITALICC
 70
     0
 40
0.0
 41
1.0
 50
0.0
 71
     0
 42
0.125
  3
italicc
  4

  0
STYLE
  5
7DE1B343D9D8F0C
330
7DE1B343D9D8EE3
100
AcDbSymbolTableRecord
100
AcDbTextStyleTableRecord
  2
ASHADE
 70
     0
 40
0.2
 41
1.0
 50
0.0
 71
     0
 42
0.3125
  3
simplex
  4

  0
STYLE
  5
7DE1B343D9D8F27
330
7DE1B343D9D8EE3
100
AcDbSymbolTableRecord
100
AcDbTextStyleTableRecord
  2
ROMANS
 70
     0
 40
0.0
 41
1.0
 50
0.0
 71
     0
 42
0.125
  3
romans.shx
  4

  0
ENDTAB
  0
TABLE
  2
VIEW
  5
7DE1B343D9D8EE6
330
0
100
AcDbSymbolTable
 70
     0
  0
ENDTAB
  0
TABLE
  2
UCS
  5
7DE1B343D9D8EE7
330
0
100
AcDbSymbolTable
 70
     0
  0
ENDTAB
  0
TABLE
  2
APPID
  5
7DE1B343D9D8EE9
330
0
100
AcDbSymbolTable
 70
     6
  0
APPID
  5
7DE1B343D9D8EF1
330
7DE1B343D9D8EE9
100
AcDbSymbolTableRecord
100
AcDbRegAppTableRecord
  2
ACAD
 70
     0
  0
APPID
  5
7DE1B343D9D8F0D
330
7DE1B343D9D8EE9
100
AcDbSymbolTableRecord
100
AcDbRegAppTableRecord
  2
AVE_RENDER
 70
     0
  0
APPID
  5
7DE1B343D9D8F0E
330
7DE1B343D9D8EE9
100
AcDbSymbolTableRecord
100
AcDbRegAppTableRecord
  2
AVE_ENTITY_MATERIAL
 70
     0
  0
APPID
  5
7DE1B343D9D8F1B
330
7DE1B343D9D8EE9
100
AcDbSymbolTableRecord
100
AcDbRegAppTableRecord
  2
AVE_FINISH
 70
     0
  0
APPID
  5
7DE1B343D9D8F1C
330
7DE1B343D9D8EE9
100
AcDbSymbolTableRecord
100
AcDbRegAppTableRecord
  2
AVE_MATERIAL
 70
     0
  0
APPID
  5
7DE1B343D9D8F1D
330
7DE1B343D9D8EE9
100
AcDbSymbolTableRecord
100
AcDbRegAppTableRecord
  2
AVE_GLOBAL
 70
     0
  0
ENDTAB
  0
TABLE
  2
DIMSTYLE
  5
7DE1B343D9D8EEA
330
0
100
AcDbSymbolTable
 70
     1
  0
DIMSTYLE
105
7DE1B343D9D8F04
330
7DE1B343D9D8EEA
100
AcDbSymbolTableRecord
100
AcDbDimStyleTableRecord
  2
STANDARD
 70
     0
  3

  4

  5

  6

  7

 40
1.0
 41
0.125
 42
0.125
 43
0.375
 44
0.125
 45
0.0
 46
0.0
 47
0.0
 48
0.0
140
0.125
141
-0.125
142
0.0
143
25.4
144
1.0
145
0.0
146
1.0
147
0.09
 71
     0
 72
     0
 73
     1
 74
     1
 75
     0
 76
     0
 77
     0
 78
     4
170
     0
171
     2
172
     0
173
     0
174
     1
175
     0
176
     0
177
     0
178
     0
270
     2
271
     3
272
     3
273
     2
274
     2
340
7DE1B343D9D8F27
275
     0
280
     0
281
     0
282
     0
283
     1
284
     4
285
     0
286
     0
287
     3
288
     0
  0
ENDTAB
  0
TABLE
  2
BLOCK_RECORD
  5
7DE1B343D9D8EE1
330
0
100
AcDbSymbolTable
 70
     2
  0
BLOCK_RECORD
  5
7DE1B343D9D8EF8
102
{ACAD_XDICTIONARY
360
7DE1B343D9D8F5A
102
}
330
7DE1B343D9D8EE1
100
AcDbSymbolTableRecord
100
AcDbBlockTableRecord
  2
*MODEL_SPACE
  0
BLOCK_RECORD
  5
7DE1B343D9D8EF5
102
{ACAD_XDICTIONARY
360
7DE1B343D9D8F58
102
}
330
7DE1B343D9D8EE1
100
AcDbSymbolTableRecord
100
AcDbBlockTableRecord
  2
*PAPER_SPACE
  0
BLOCK_RECORD
  5
7DE1B343D9D8F10
330
7DE1B343D9D8EE1
100
AcDbSymbolTableRecord
100
AcDbBlockTableRecord
  2
AVE_RENDER
  0
BLOCK_RECORD
  5
7DE1B343D9D8F1E
330
7DE1B343D9D8EE1
100
AcDbSymbolTableRecord
100
AcDbBlockTableRecord
  2
AVE_GLOBAL
  0
ENDTAB
  0
ENDSEC
  0
SECTION
  2
BLOCKS
  0
BLOCK
  5
7DE1B343D9D8F02
330
7DE1B343D9D8EF8
100
AcDbEntity
  8
0
100
AcDbBlockBegin
  2
*MODEL_SPACE
 70
     0
 10
0.0
 20
0.0
 30
0.0
  3
*MODEL_SPACE
  1

  0
ENDBLK
  5
7DE1B343D9D8F03
330
7DE1B343D9D8EF8
100
AcDbEntity
  8
0
100
AcDbBlockEnd
  0
BLOCK
  5
7DE1B343D9D8F00
330
7DE1B343D9D8EF5
100
AcDbEntity
 67
     1
  8
0
100
AcDbBlockBegin
  2
*PAPER_SPACE
 70
     0
 10
0.0
 20
0.0
 30
0.0
  3
*PAPER_SPACE
  1

  0
ENDBLK
  5
7DE1B343D9D8F01
330
7DE1B343D9D8EF5
100
AcDbEntity
 67
     1
  8
0
100
AcDbBlockEnd
  0
BLOCK
  5
7DE1B343D9D8F11
330
7DE1B343D9D8F10
100
AcDbEntity
  8
0
100
AcDbBlockBegin
  2
AVE_RENDER
 70
     0
 10
0.0
 20
0.0
 30
0.0
  3
AVE_RENDER
  1
AVE_RENDER
  0
ENDBLK
  5
7DE1B343D9D8F12
330
7DE1B343D9D8F10
100
AcDbEntity
  8
0
100
AcDbBlockEnd
  0
BLOCK
  5
7DE1B343D9D8F1F
330
7DE1B343D9D8F1E
100
AcDbEntity
  8
0
100
AcDbBlockBegin
  2
AVE_GLOBAL
 70
     0
 10
0.0
 20
0.0
 30
0.0
  3
AVE_GLOBAL
  1
AVE_GLOBAL
  0
ENDBLK
  5
7DE1B343D9D8F20
330
7DE1B343D9D8F1E
100
AcDbEntity
  8
0
100
AcDbBlockEnd
  0
ENDSEC
  0
SECTION
  2
ENTITIES
  0
LWPOLYLINE
  5
7DE1B343D9D794F
330
7DE1B343D9D8EF8
100
AcDbEntity
  8
0
100
AcDbPolyline
 90
       18
 70
     1
 43
0.0
 10
1.149828701067963
 20
1.142405323433381
 42
-0.4015316752282563
 10
1.118608251901995
 20
1.112514019085555
 42
-0.427010202730007
 10
1.087387802736027
 20
1.145122714737729
 42
-0.4015316752282553
 10
1.836678582719248
 20
1.862514019085555
 42
-0.4015316752282553
 10
2.58596936270247
 20
1.145122714737729
 42
-0.4270102027300068
 10
2.554748913536502
 20
1.112514019085555
 42
-0.4015316752282562
 10
2.523528464370534
 20
1.142405323433381
 42
0.011886261540786
 10
2.521331779600706
 20
1.175014019085555
 10
2.390805170455776
 20
1.175014019085555
 42
-0.267949192431124
 10
2.363741876587512
 20
1.190639019085555
 10
2.336678582719248
 20
1.237514019085555
 10
2.512719446868747
 20
1.237514019085555
 42
0.3616214947864801
 10
1.836678582719248
 20
1.800014019085555
 42
0.36162149478648
 10
1.16063771856975
 20
1.237514019085555
 10
1.336678582719248
 20
1.237514019085555
 10
1.309615288850985
 20
1.190639019085555
 42
-0.267949192431124
 10
1.282551994982721
 20
1.175014019085555
 10
1.152025385837791
 20
1.175014019085555
 42
0.0118862615407861
  0
TEXT
  5
7DE1B343D9D8DA3
330
7DE1B343D9D8EF8
100
AcDbEntity
  8
TEXT
100
AcDbText
 10
1.083702392243058
 20
0.7895612589173238
 30
0.0
 40
0.125
  1
PART #110200
  7
ITALICC
 72
     1
 11
1.836678582719248
 21
0.7895612589173238
 31
0.0
100
AcDbText
  0
TEXT
  5
7DE1B343D9D8DA4
330
7DE1B343D9D8EF8
100
AcDbEntity
  8
TEXT
100
AcDbText
 10
2.249983740969569
 20
0.3426386162449486
 30
0.0
 40
0.0522247191011236
  1
Phone  1-800-328-2495
 41
1.272321428571429
 72
     5
 11
3.578916325239233
 21
0.3426386162449486
 31
0.0
100
AcDbText
  0
TEXT
  5
7DE1B343D9D8DA5
330
7DE1B343D9D8EF8
100
AcDbEntity
  8
TEXT
100
AcDbText
 10
2.249983740969569
 20
0.6224138971438251
 30
0.0
 40
0.0522247191011236
  1
Stylmark  Incorporated
 41
1.221428571428573
 72
     5
 11
3.578916325239233
 21
0.6224138971438251
 31
0.0
100
AcDbText
  0
TEXT
  5
7DE1B343D9D8DA6
330
7DE1B343D9D8EF8
100
AcDbEntity
  8
TEXT
100
AcDbText
 10
2.249983740969569
 20
0.5291554701775329
 30
0.0
 40
0.0522247191011236
  1
6536 Main St. N.E. * P.O. Box 32008
 41
0.8388932496075366
 72
     5
 11
3.578916325239233
 21
0.5291554701775329
 31
0.0
100
AcDbText
  0
TEXT
  5
7DE1B343D9D8DA7
330
7DE1B343D9D8EF8
100
AcDbEntity
  8
TEXT
100
AcDbText
 10
2.249983740969569
 20
0.4358970432112408
 30
0.0
 40
0.0522247191011236
  1
Minneapolis, MN 55432-0008
 41
1.11444212721585
 72
     5
 11
3.578916325239233
 21
0.4358970432112408
 31
0.0
100
AcDbText
  0
LWPOLYLINE
  5
7DE1B343D9D8DA8
330
7DE1B343D9D8EF8
100
AcDbEntity
  8
TEXT
100
AcDbPolyline
 90
        3
 70
     0
 43
0.0006660908203125
 10
0.0940300489022619
 20
0.4562833788823835
 10
0.0940300489022619
 20
0.3430479394292558
 10
0.2072654883553842
 20
0.3430479394292558
  0
LWPOLYLINE
  5
7DE1B343D9D8DAD
330
7DE1B343D9D8EF8
100
AcDbEntity
  8
TEXT
100
AcDbPolyline
 90
        3
 70
     0
 43
0.0006660908203125
 10
0.1206736817147593
 20
0.4562833788823835
 10
0.1206736817147593
 20
0.3696915722417569
 10
0.2072654883553842
 20
0.3696915722417569
  0
LWPOLYLINE
  5
7DE1B343D9D8DB2
330
7DE1B343D9D8EF8
100
AcDbEntity
  8
TEXT
100
AcDbPolyline
 90
        2
 70
     0
 43
0.0001332181640625
 10
0.1673000391366362
 20
0.4662747411870687
 10
0.0940300489022619
 20
0.4562833788823835
  0
LWPOLYLINE
  5
7DE1B343D9D8DB6
330
7DE1B343D9D8EF8
100
AcDbEntity
  8
TEXT
100
AcDbPolyline
 90
        2
 70
     0
 43
0.0001332181640625
 10
0.1206736817147593
 20
0.4562833788823835
 10
0.1806218555428867
 20
0.4662747411870687
  0
LWPOLYLINE
  5
7DE1B343D9D8DBA
330
7DE1B343D9D8EF8
100
AcDbEntity
  8
TEXT
100
AcDbPolyline
 90
        2
 70
     0
 43
0.0001332181640625
 10
0.1206736817147593
 20
0.3696915722417569
 10
0.1806218555428867
 20
0.4296397460698824
  0
LWPOLYLINE
  5
7DE1B343D9D8DBE
330
7DE1B343D9D8EF8
100
AcDbEntity
  8
TEXT
100
AcDbPolyline
 90
        3
 70
     0
 43
0.0006660908203125
 10
0.2072654883553842
 20
0.6094842675542591
 10
0.0940300489022619
 20
0.6094842675542591
 10
0.0940300489022619
 20
0.4962488281011315
  0
LWPOLYLINE
  5
7DE1B343D9D8DC3
330
7DE1B343D9D8EF8
100
AcDbEntity
  8
TEXT
100
AcDbPolyline
 90
        3
 70
     0
 43
0.0006660908203125
 10
0.2072654883553842
 20
0.5828406347417581
 10
0.1206736817147593
 20
0.5828406347417581
 10
0.1206736817147593
 20
0.4962488281011315
  0
LWPOLYLINE
  5
7DE1B343D9D8DC8
330
7DE1B343D9D8EF8
100
AcDbEntity
  8
TEXT
100
AcDbPolyline
 90
        2
 70
     0
 43
0.0001332181640625
 10
0.1206736817147593
 20
0.5828406347417581
 10
0.1806218555428849
 20
0.5228924609136325
  0
LWPOLYLINE
  5
7DE1B343D9D8DCC
330
7DE1B343D9D8EF8
100
AcDbEntity
  8
TEXT
100
AcDbPolyline
 90
        2
 70
     0
 43
0.0001332181640625
 10
0.1206736817147593
 20
0.4962488281011315
 10
0.1806218555428849
 20
0.4862574657964427
  0
LWPOLYLINE
  5
7DE1B343D9D8DD0
330
7DE1B343D9D8EF8
100
AcDbEntity
  8
TEXT
100
AcDbPolyline
 90
        2
 70
     0
 43
0.0001332181640625
 10
0.0940300489022619
 20
0.4962488281011315
 10
0.1673000391366362
 20
0.4862574657964427
  0
LWPOLYLINE
  5
7DE1B343D9D8DD4
330
7DE1B343D9D8EF8
100
AcDbEntity
  8
TEXT
100
AcDbPolyline
 90
        2
 70
     0
 43
0.0006660908203125
 10
0.1206736817147593
 20
0.4562833788823835
 10
0.0940300489022619
 20
0.4562833788823835
  0
LWPOLYLINE
  5
7DE1B343D9D8DD8
330
7DE1B343D9D8EF8
100
AcDbEntity
  8
TEXT
100
AcDbPolyline
 90
        2
 70
     0
 43
0.0006660908203125
 10
0.1206736817147593
 20
0.4962488281011315
 10
0.0940300489022619
 20
0.4962488281011315
  0
LINE
  5
7DE1B343D9D8DDC
330
7DE1B343D9D8EF8
100
AcDbEntity
  8
TEXT
100
AcDbLine
 10
1.609220478028759
 20
0.5452075728974901
 30
0.0
 11
1.502014204641469
 21
0.5452075728974901
 31
0.0
  0
LINE
  5
7DE1B343D9D8DDD
330
7DE1B343D9D8EF8
100
AcDbEntity
  8
TEXT
100
AcDbLine
 10
1.638251376373237
 20
0.6094842675542555
 30
0.0
 11
1.503419467156178
 21
0.6094842675542555
 31
0.0
  0
ARC
  5
7DE1B343D9D8DDE
330
7DE1B343D9D8EF8
100
AcDbEntity
  8
TEXT
100
AcDbCircle
 10
1.562733563549495
 20
0.4402470182912392
 30
0.0
 40
0.0676855811441166
100
AcDbArc
 50
90.0
 51
153.7768192527749
  0
LWPOLYLINE
  5
7DE1B343D9D8DDF
330
7DE1B343D9D8EF8
100
AcDbEntity
  8
TEXT
100
AcDbPolyline
 90
        2
 70
     0
 43
0.0
 10
1.500981709186659
 20
0.3865021795161827
 42
0.2901071551932823
 10
1.544057642054295
 20
0.3430112345657446
 42
5.328517124445801
  0
ARC
  5
7DE1B343D9D8DE3
330
7DE1B343D9D8EF8
100
AcDbEntity
  8
TEXT
100
AcDbCircle
 10
0.8576021858780098
 20
0.4028036259037944
 30
0.0
 40
0.0601160179737537
100
AcDbArc
 50
180.0000000000003
 51
264.0521544866073
  0
LINE
  5
7DE1B343D9D8DE4
330
7DE1B343D9D8EF8
100
AcDbEntity
  8
TEXT
100
AcDbLine
 10
0.8611175415035576
 20
0.6438721851483937
 30
0.0
 11
0.8010749366595506
 21
0.6438721851483937
 31
0.0
  0
ARC
  5
7DE1B343D9D8DE5
330
7DE1B343D9D8EF8
100
AcDbEntity
  8
TEXT
100
AcDbCircle
 10
0.6253431837610393
 20
0.5273968081077538
 30
0.0
 40
0.0820874594465043
100
AcDbArc
 50
90.0
 51
270.0
  0
LWPOLYLINE
  5
7DE1B343D9D8DE6
330
7DE1B343D9D8EF8
100
AcDbEntity
  8
TEXT
100
AcDbPolyline
 90
        2
 70
     0
 43
0.0001332181640625
 10
0.2172568506600747
 20
0.5362142773198795
 10
0.2072654883553842
 20
0.6094842675542591
  0
LWPOLYLINE
  5
7DE1B343D9D8DEA
330
7DE1B343D9D8EF8
100
AcDbEntity
  8
TEXT
100
AcDbPolyline
 90
        2
 70
     0
 43
0.0001332181640625
 10
0.2072654883553842
 20
0.5828406347417581
 10
0.2172568506600747
 20
0.5228924609136325
  0
LWPOLYLINE
  5
7DE1B343D9D8DEE
330
7DE1B343D9D8EF8
100
AcDbEntity
  8
TEXT
100
AcDbPolyline
 90
        3
 70
     0
 43
0.0006660908203125
 10
0.3604663770272616
 20
0.4962488281011315
 10
0.3604663770272616
 20
0.6094842675542591
 10
0.2472309375741357
 20
0.6094842675542591
  0
LWPOLYLINE
  5
7DE1B343D9D8DF3
330
7DE1B343D9D8EF8
100
AcDbEntity
  8
TEXT
100
AcDbPolyline
 90
        3
 70
     0
 43
0.0006660908203125
 10
0.3338227442147605
 20
0.4962488281011315
 10
0.3338227442147605
 20
0.5828406347417581
 10
0.2472309375741357
 20
0.5828406347417581
  0
LWPOLYLINE
  5
7DE1B343D9D8DF8
330
7DE1B343D9D8EF8
100
AcDbEntity
  8
TEXT
100
AcDbPolyline
 90
        2
 70
     0
 43
0.0001332181640625
 10
0.3338227442147605
 20
0.5828406347417581
 10
0.2738745703866368
 20
0.5228924609136325
  0
LWPOLYLINE
  5
7DE1B343D9D8DFC
330
7DE1B343D9D8EF8
100
AcDbEntity
  8
TEXT
100
AcDbPolyline
 90
        2
 70
     0
 43
0.0001332181640625
 10
0.2472309375741357
 20
0.5828406347417581
 10
0.2372395752694469
 20
0.5228924609136325
  0
LWPOLYLINE
  5
7DE1B343D9D8E00
330
7DE1B343D9D8EF8
100
AcDbEntity
  8
TEXT
100
AcDbPolyline
 90
        2
 70
     0
 43
0.0001332181640625
 10
0.2472309375741357
 20
0.6094842675542591
 10
0.2372395752694469
 20
0.5362142773198795
  0
LWPOLYLINE
  5
7DE1B343D9D8E04
330
7DE1B343D9D8EF8
100
AcDbEntity
  8
TEXT
100
AcDbPolyline
 90
        2
 70
     0
 43
0.0001332181640625
 10
0.2871963867928855
 20
0.4862574657964427
 10
0.3604663770272616
 20
0.4962488281011315
  0
LWPOLYLINE
  5
7DE1B343D9D8E08
330
7DE1B343D9D8EF8
100
AcDbEntity
  8
TEXT
100
AcDbPolyline
 90
        2
 70
     0
 43
0.0001332181640625
 10
0.3338227442147605
 20
0.4962488281011315
 10
0.2738745703866368
 20
0.4862574657964427
  0
LWPOLYLINE
  5
7DE1B343D9D8E0C
330
7DE1B343D9D8EF8
100
AcDbEntity
  8
TEXT
100
AcDbPolyline
 90
        2
 70
     0
 43
0.0001332181640625
 10
0.3604663770272616
 20
0.4562833788823835
 10
0.2871963867928855
 20
0.4662747411870687
  0
LWPOLYLINE
  5
7DE1B343D9D8E10
330
7DE1B343D9D8EF8
100
AcDbEntity
  8
TEXT
100
AcDbPolyline
 90
        2
 70
     0
 43
0.0001332181640625
 10
0.3338227442147605
 20
0.4562833788823835
 10
0.2738745703866368
 20
0.4662747411870687
  0
LWPOLYLINE
  5
7DE1B343D9D8E14
330
7DE1B343D9D8EF8
100
AcDbEntity
  8
TEXT
100
AcDbPolyline
 90
        2
 70
     0
 43
0.0001332181640625
 10
0.3338227442147605
 20
0.3696915722417569
 10
0.2738745703866368
 20
0.4296397460698824
  0
LWPOLYLINE
  5
7DE1B343D9D8E18
330
7DE1B343D9D8EF8
100
AcDbEntity
  8
TEXT
100
AcDbPolyline
 90
        3
 70
     0
 43
0.0006660908203125
 10
0.2472309375741357
 20
0.3696915722417569
 10
0.3338227442147605
 20
0.3696915722417569
 10
0.3338227442147605
 20
0.4562833788823835
  0
LWPOLYLINE
  5
7DE1B343D9D8E1D
330
7DE1B343D9D8EF8
100
AcDbEntity
  8
TEXT
100
AcDbPolyline
 90
        3
 70
     0
 43
0.0006660908203125
 10
0.2472309375741357
 20
0.3430479394292558
 10
0.3604663770272616
 20
0.3430479394292558
 10
0.3604663770272616
 20
0.4562833788823835
  0
LWPOLYLINE
  5
7DE1B343D9D8E22
330
7DE1B343D9D8EF8
100
AcDbEntity
  8
TEXT
100
AcDbPolyline
 90
        5
 70
     0
 43
0.0001332181640625
 10
0.2172568506600747
 20
0.4163179296636319
 10
0.2172568506600747
 20
0.4296397460698824
 10
0.1806218555428867
 20
0.4296397460698824
 10
0.1806218555428867
 20
0.4662747411870687
 10
0.1673000391366362
 20
0.4662747411870687
  0
LWPOLYLINE
  5
7DE1B343D9D8E29
330
7DE1B343D9D8EF8
100
AcDbEntity
  8
TEXT
100
AcDbPolyline
 90
        2
 70
     0
 43
0.0006660908203125
 10
0.2072654883553842
 20
0.3696915722417569
 10
0.2072654883553842
 20
0.3430479394292558
  0
LWPOLYLINE
  5
7DE1B343D9D8E2D
330
7DE1B343D9D8EF8
100
AcDbEntity
  8
TEXT
100
AcDbPolyline
 90
        2
 70
     0
 43
0.0001332181640625
 10
0.2072654883553842
 20
0.3696915722417569
 10
0.2172568506600747
 20
0.4296397460698824
  0
LWPOLYLINE
  5
7DE1B343D9D8E31
330
7DE1B343D9D8EF8
100
AcDbEntity
  8
TEXT
100
AcDbPolyline
 90
        2
 70
     0
 43
0.0001332181640625
 10
0.2072654883553842
 20
0.3430479394292558
 10
0.2172568506600747
 20
0.4163179296636319
  0
LWPOLYLINE
  5
7DE1B343D9D8E35
330
7DE1B343D9D8EF8
100
AcDbEntity
  8
TEXT
100
AcDbPolyline
 90
        5
 70
     0
 43
0.0001332181640625
 10
0.1673000391366362
 20
0.4862574657964427
 10
0.1806218555428849
 20
0.4862574657964427
 10
0.1806218555428849
 20
0.5228924609136325
 10
0.2172568506600747
 20
0.5228924609136325
 10
0.2172568506600747
 20
0.5362142773198795
  0
LWPOLYLINE
  5
7DE1B343D9D8E3C
330
7DE1B343D9D8EF8
100
AcDbEntity
  8
TEXT
100
AcDbPolyline
 90
        5
 70
     0
 43
0.0001332181640625
 10
0.2372395752694469
 20
0.5362142773198795
 10
0.2372395752694469
 20
0.5228924609136325
 10
0.2738745703866368
 20
0.5228924609136325
 10
0.2738745703866368
 20
0.4862574657964427
 10
0.2871963867928855
 20
0.4862574657964427
  0
LWPOLYLINE
  5
7DE1B343D9D8E43
330
7DE1B343D9D8EF8
100
AcDbEntity
  8
TEXT
100
AcDbPolyline
 90
        2
 70
     0
 43
0.0001332181640625
 10
0.2472309375741357
 20
0.3696915722417569
 10
0.2372395752694469
 20
0.4296397460698824
  0
LWPOLYLINE
  5
7DE1B343D9D8E47
330
7DE1B343D9D8EF8
100
AcDbEntity
  8
TEXT
100
AcDbPolyline
 90
        2
 70
     0
 43
0.0001332181640625
 10
0.2372395752694469
 20
0.4163179296636319
 10
0.2472309375741357
 20
0.3430479394292558
  0
LWPOLYLINE
  5
7DE1B343D9D8E4B
330
7DE1B343D9D8EF8
100
AcDbEntity
  8
TEXT
100
AcDbPolyline
 90
        2
 70
     0
 43
0.0006660908203125
 10
0.2472309375741357
 20
0.3696915722417569
 10
0.2472309375741357
 20
0.3430479394292558
  0
LWPOLYLINE
  5
7DE1B343D9D8E4F
330
7DE1B343D9D8EF8
100
AcDbEntity
  8
TEXT
100
AcDbPolyline
 90
        5
 70
     0
 43
0.0001332181640625
 10
0.2871963867928855
 20
0.4662747411870687
 10
0.2738745703866368
 20
0.4662747411870687
 10
0.2738745703866368
 20
0.4296397460698824
 10
0.2372395752694469
 20
0.4296397460698824
 10
0.2372395752694469
 20
0.4163179296636319
  0
LWPOLYLINE
  5
7DE1B343D9D8E56
330
7DE1B343D9D8EF8
100
AcDbEntity
  8
TEXT
100
AcDbPolyline
 90
        2
 70
     0
 43
0.0006660908203125
 10
0.3338227442147605
 20
0.4962488281011315
 10
0.3604663770272616
 20
0.4962488281011315
  0
LWPOLYLINE
  5
7DE1B343D9D8E5A
330
7DE1B343D9D8EF8
100
AcDbEntity
  8
TEXT
100
AcDbPolyline
 90
        2
 70
     0
 43
0.0006660908203125
 10
0.3338227442147605
 20
0.4562833788823835
 10
0.3604663770272616
 20
0.4562833788823835
  0
LINE
  5
7DE1B343D9D8E5E
330
7DE1B343D9D8EF8
100
AcDbEntity
  8
TEXT
100
AcDbLine
 10
0.6305805138752865
 20
0.5452075728974901
 30
0.0
 11
0.7974861679042578
 21
0.5452075728974901
 31
0.0
  0
LINE
  5
7DE1B343D9D8E5F
330
7DE1B343D9D8EF8
100
AcDbEntity
  8
TEXT
100
AcDbLine
 10
0.6961806501195876
 20
0.5094028512868622
 30
0.0
 11
0.6305805138752865
 21
0.5094028512868622
 31
0.0
  0
LINE
  5
7DE1B343D9D8E60
330
7DE1B343D9D8EF8
100
AcDbEntity
  8
TEXT
100
AcDbLine
 10
0.5432557243145349
 20
0.3430112345657446
 30
0.0
 11
0.6961806501195876
 21
0.3430112345657446
 31
0.0
  0
LINE
  5
7DE1B343D9D8E61
330
7DE1B343D9D8EF8
100
AcDbEntity
  8
TEXT
100
AcDbLine
 10
0.7011210240258672
 20
0.4113682408991839
 30
0.0
 11
0.5432557243145331
 21
0.4113682408991839
 31
0.0
  0
LINE
  5
7DE1B343D9D8E62
330
7DE1B343D9D8EF8
100
AcDbEntity
  8
TEXT
100
AcDbLine
 10
0.6253431837610384
 20
0.4453093486612485
 30
0.0
 11
0.7011210240258672
 21
0.4453093486612485
 31
0.0
  0
ARC
  5
7DE1B343D9D8E63
330
7DE1B343D9D8EF8
100
AcDbEntity
  8
TEXT
100
AcDbCircle
 10
0.6305805138752874
 20
0.5273052120921779
 30
0.0
 40
0.017902360805315
100
AcDbArc
 50
90.0
 51
270.0
  0
LINE
  5
7DE1B343D9D8E64
330
7DE1B343D9D8EF8
100
AcDbEntity
  8
TEXT
100
AcDbLine
 10
0.5432557243145331
 20
0.4113682408991839
 30
0.0
 11
0.5432557243145349
 21
0.3430112345657446
 31
0.0
  0
LINE
  5
7DE1B343D9D8E65
330
7DE1B343D9D8EF8
100
AcDbEntity
  8
TEXT
100
AcDbLine
 10
0.7974861679042578
 20
0.5452075728974901
 30
0.0
 11
0.7974861679042578
 21
0.4028036259037944
 31
0.0
  0
ARC
  5
7DE1B343D9D8E66
330
7DE1B343D9D8EF8
100
AcDbEntity
  8
TEXT
100
AcDbCircle
 10
0.6961806501195884
 20
0.4262070429263016
 30
0.0
 40
0.0831958083605586
100
AcDbArc
 50
270.0
 51
90.0
  0
ARC
  5
7DE1B343D9D8E67
330
7DE1B343D9D8EF8
100
AcDbEntity
  8
TEXT
100
AcDbCircle
 10
0.7011210240258681
 20
0.428338794780218
 30
0.0
 40
0.0169705538810321
100
AcDbArc
 50
270.0
 51
90.0
  0
LWPOLYLINE
  5
7DE1B343D9D8E68
330
7DE1B343D9D8EF8
100
AcDbEntity
  8
TEXT
100
AcDbPolyline
 90
        2
 70
     0
 43
0.0006660908203125
 10
0.2072654883553842
 20
0.5828406347417581
 10
0.2072654883553842
 20
0.6094842675542591
  0
LWPOLYLINE
  5
7DE1B343D9D8E6C
330
7DE1B343D9D8EF8
100
AcDbEntity
  8
TEXT
100
AcDbPolyline
 90
        2
 70
     0
 43
0.0006660908203125
 10
0.2472309375741357
 20
0.5828406347417581
 10
0.2472309375741357
 20
0.6094842675542591
  0
LINE
  5
7DE1B343D9D8E70
330
7DE1B343D9D8EF8
100
AcDbEntity
  8
TEXT
100
AcDbLine
 10
0.8010749366595506
 20
0.6094842675542555
 30
0.0
 11
0.6253431837610384
 21
0.6094842675542555
 31
0.0
  0
LINE
  5
7DE1B343D9D8E71
330
7DE1B343D9D8EF8
100
AcDbEntity
  8
TEXT
100
AcDbLine
 10
0.8010749366595506
 20
0.6438721851483937
 30
0.0
 11
0.8010749366595506
 21
0.6094842675542555
 31
0.0
  0
LINE
  5
7DE1B343D9D8E72
330
7DE1B343D9D8EF8
100
AcDbEntity
  8
TEXT
100
AcDbLine
 10
0.9915468286794029
 20
0.508612271441135
 30
0.0
 11
0.932916507647465
 21
0.6094842675542555
 31
0.0
  0
LINE
  5
7DE1B343D9D8E73
330
7DE1B343D9D8EF8
100
AcDbEntity
  8
TEXT
100
AcDbLine
 10
1.050295391485268
 20
0.6094842675542555
 30
0.0
 11
0.9915468286794029
 21
0.508612271441135
 31
0.0
  0
LINE
  5
7DE1B343D9D8E74
330
7DE1B343D9D8EF8
100
AcDbEntity
  8
TEXT
100
AcDbLine
 10
1.147226016845009
 20
0.4253990726687438
 30
0.0
 11
1.147226016845009
 21
0.6774957452930661
 31
0.0
  0
LINE
  5
7DE1B343D9D8E75
330
7DE1B343D9D8EF8
100
AcDbEntity
  8
TEXT
100
AcDbLine
 10
1.179537870982669
 20
0.6094842675542555
 30
0.0
 11
1.179537870982669
 21
0.4086200608218473
 31
0.0
  0
LINE
  5
7DE1B343D9D8E76
330
7DE1B343D9D8EF8
100
AcDbEntity
  8
TEXT
100
AcDbLine
 10
1.179537870982669
 20
0.4086200608218473
 30
0.0
 11
1.162544234098068
 21
0.4086200608218473
 31
0.0
  0
LINE
  5
7DE1B343D9D8E77
330
7DE1B343D9D8EF8
100
AcDbEntity
  8
TEXT
100
AcDbLine
 10
1.148365590341204
 20
0.3430112345657446
 30
0.0
 11
1.246368924040639
 21
0.3430112345657446
 31
0.0
  0
LINE
  5
7DE1B343D9D8E78
330
7DE1B343D9D8EF8
100
AcDbEntity
  8
TEXT
100
AcDbLine
 10
0.9819465916824485
 20
0.3629697406707575
 30
0.0
 11
1.079246297775893
 21
0.5273199516060256
 31
0.0
  0
ARC
  5
7DE1B343D9D8E79
330
7DE1B343D9D8EF8
100
AcDbEntity
  8
TEXT
100
AcDbCircle
 10
0.9479030317702346
 20
0.3825589568394403
 30
0.0
 40
0.0392772371940762
100
AcDbArc
 50
270.1604552698595
 51
330.0831797321295
  0
LINE
  5
7DE1B343D9D8E7A
330
7DE1B343D9D8EF8
100
AcDbEntity
  8
TEXT
100
AcDbLine
 10
0.8513727753843634
 20
0.3430112345657446
 30
0.0
 11
0.9480130264593578
 21
0.3432818736640268
 31
0.0
  0
LWPOLYLINE
  5
7DE1B343D9D8E7B
330
7DE1B343D9D8EF8
100
AcDbEntity
  8
TEXT
100
AcDbPolyline
 90
        6
 70
     1
 43
0.0
 10
0.893896578959513
 20
0.5452075728974901
 10
0.8635799847393048
 20
0.5452075728974901
 10
0.8635799847393048
 20
0.4220965748425958
 42
0.407328721240804
 10
0.8751236359007812
 20
0.4102776601662097
 10
0.935745334945512
 20
0.4102776601662097
 10
0.9532106753528299
 20
0.4430898892096888
  0
LINE
  5
7DE1B343D9D8E83
330
7DE1B343D9D8EF8
100
AcDbEntity
  8
TEXT
100
AcDbLine
 10
1.079246297775893
 20
0.5273199516060256
 30
0.0
 11
1.079246297775893
 21
0.3945625767806693
 31
0.0
  0
ARC
  5
7DE1B343D9D8E84
330
7DE1B343D9D8EF8
100
AcDbEntity
  8
TEXT
100
AcDbCircle
 10
1.162544234098066
 20
0.4240018670652728
 30
0.0
 40
0.0153818062434269
100
AcDbArc
 50
174.7883570302258
 51
270.0
  0
LWPOLYLINE
  5
7DE1B343D9D8E85
330
7DE1B343D9D8EF8
100
AcDbEntity
  8
TEXT
100
AcDbPolyline
 90
        2
 70
     0
 43
0.0
 10
1.079246297775891
 20
0.3945625767806729
 42
0.3318488747599744
 10
1.148365590341204
 20
0.3430112345657446
 42
-6.868794160588311
  0
LINE
  5
7DE1B343D9D8E89
330
7DE1B343D9D8EF8
100
AcDbEntity
  8
TEXT
100
AcDbLine
 10
1.3037579930299
 20
0.3430112345657446
 30
0.0
 11
1.37081603981174
 21
0.3430112345657446
 31
0.0
  0
LINE
  5
7DE1B343D9D8E8A
330
7DE1B343D9D8EF8
100
AcDbEntity
  8
TEXT
100
AcDbLine
 10
1.3037579930299
 20
0.5376537837313802
 30
0.0
 11
1.3037579930299
 21
0.3430112345657446
 31
0.0
  0
LINE
  5
7DE1B343D9D8E8B
330
7DE1B343D9D8EF8
100
AcDbEntity
  8
TEXT
100
AcDbLine
 10
1.246368924040639
 20
0.5452075728974901
 30
0.0
 11
1.296204203863786
 21
0.5452075728974901
 31
0.0
  0
LINE
  5
7DE1B343D9D8E8C
330
7DE1B343D9D8EF8
100
AcDbEntity
  8
TEXT
100
AcDbLine
 10
1.246368924040639
 20
0.3430112345657446
 30
0.0
 11
1.246368924040639
 21
0.5452075728974901
 31
0.0
  0
LWPOLYLINE
  5
7DE1B343D9D8E8D
330
7DE1B343D9D8EF8
100
AcDbEntity
  8
TEXT
100
AcDbPolyline
 90
        2
 70
     0
 43
0.0
 10
1.296204203863784
 20
0.5452075728974901
 42
-0.4142135623731017
 10
1.303757993029898
 20
0.5376537837313802
 42
-0.9999999999999998
  0
LINE
  5
7DE1B343D9D8E91
330
7DE1B343D9D8EF8
100
AcDbEntity
  8
TEXT
100
AcDbLine
 10
1.502014204641469
 20
0.5452075728974901
 30
0.0
 11
1.502014204641469
 21
0.4701551668232835
 31
0.0
  0
LINE
  5
7DE1B343D9D8E92
330
7DE1B343D9D8EF8
100
AcDbEntity
  8
TEXT
100
AcDbLine
 10
1.37081603981174
 20
0.5452075728974901
 30
0.0
 11
1.42494963673269
 21
0.5452075728974901
 31
0.0
  0
LINE
  5
7DE1B343D9D8E93
330
7DE1B343D9D8EF8
100
AcDbEntity
  8
TEXT
100
AcDbLine
 10
1.37081603981174
 20
0.3430112345657446
 30
0.0
 11
1.37081603981174
 21
0.5452075728974901
 31
0.0
  0
LWPOLYLINE
  5
7DE1B343D9D8E94
330
7DE1B343D9D8EF8
100
AcDbEntity
  8
TEXT
100
AcDbPolyline
 90
        2
 70
     0
 43
0.0
 10
1.424949636732688
 20
0.5452075728974901
 42
-0.4142135623731017
 10
1.432503425898802
 20
0.5376537837313802
 42
-0.9999999999999998
  0
LWPOLYLINE
  5
7DE1B343D9D8E98
330
7DE1B343D9D8EF8
100
AcDbEntity
  8
TEXT
100
AcDbPolyline
 90
        4
 70
     0
 43
0.0
 10
1.432503425898802
 20
0.5376537837313802
 10
1.432503425898802
 20
0.3430112345657446
 10
1.500981709186659
 20
0.3430112345657446
 10
1.500981709186659
 20
0.3865021795161827
 42
-1.714843617202739
  0
LINE
  5
7DE1B343D9D8E9E
330
7DE1B343D9D8EF8
100
AcDbEntity
  8
TEXT
100
AcDbLine
 10
0.8611175415035576
 20
0.6094842675542555
 30
0.0
 11
0.8611175415035576
 21
0.6438721851483937
 31
0.0
  0
LINE
  5
7DE1B343D9D8E9F
330
7DE1B343D9D8EF8
100
AcDbEntity
  8
TEXT
100
AcDbLine
 10
0.932916507647465
 20
0.6094842675542555
 30
0.0
 11
0.8611175415035576
 21
0.6094842675542555
 31
0.0
  0
LINE
  5
7DE1B343D9D8EA0
330
7DE1B343D9D8EF8
100
AcDbEntity
  8
TEXT
100
AcDbLine
 10
1.080417304278644
 20
0.6094842675542555
 30
0.0
 11
1.050295391485268
 21
0.6094842675542555
 31
0.0
  0
LINE
  5
7DE1B343D9D8EA1
330
7DE1B343D9D8EF8
100
AcDbEntity
  8
TEXT
100
AcDbLine
 10
1.080417304278644
 20
0.6774957452930661
 30
0.0
 11
1.080417304278644
 21
0.6094842675542555
 31
0.0
  0
LINE
  5
7DE1B343D9D8EA2
330
7DE1B343D9D8EF8
100
AcDbEntity
  8
TEXT
100
AcDbLine
 10
1.147226016845009
 20
0.6774957452930661
 30
0.0
 11
1.080417304278644
 21
0.6774957452930661
 31
0.0
  0
LWPOLYLINE
  5
7DE1B343D9D8EA3
330
7DE1B343D9D8EF8
100
AcDbEntity
  8
TEXT
100
AcDbPolyline
 90
        3
 70
     0
 43
0.0
 10
1.467637776443011
 20
0.6094842675542591
 10
1.349337617626967
 20
0.6094842675542591
 10
1.349337617626967
 20
0.5823167707933632
 42
-1.960274751411753
  0
LINE
  5
7DE1B343D9D8EA8
330
7DE1B343D9D8EF8
100
AcDbEntity
  8
TEXT
100
AcDbLine
 10
1.313555926913806
 20
0.6094842675542555
 30
0.0
 11
1.179537870982669
 21
0.6094842675542555
 31
0.0
  0
LWPOLYLINE
  5
7DE1B343D9D8EA9
330
7DE1B343D9D8EF8
100
AcDbEntity
  8
TEXT
100
AcDbPolyline
 90
        2
 70
     0
 43
0.0
 10
1.313555926913806
 20
0.6094842675542591
 42
-0.3328679258950098
 10
1.349337617626967
 20
0.5823167707933632
 42
6.772930709997214
  0
LINE
  5
7DE1B343D9D8EAD
330
7DE1B343D9D8EF8
100
AcDbEntity
  8
TEXT
100
AcDbLine
 10
1.503419467156178
 20
0.6094842675542555
 30
0.0
 11
1.503419467156178
 21
0.5811617217846117
 31
0.0
  0
LWPOLYLINE
  5
7DE1B343D9D8EAE
330
7DE1B343D9D8EF8
100
AcDbEntity
  8
TEXT
100
AcDbPolyline
 90
        2
 70
     0
 43
0.0
 10
1.467637776443011
 20
0.6094842675542591
 42
-0.3277054968067132
 10
1.503419467156176
 20
0.5811617217846152
 42
6.667889725900311
  0
LINE
  5
7DE1B343D9D8EB2
330
7DE1B343D9D8EF8
100
AcDbEntity
  8
TEXT
100
AcDbLine
 10
1.717211315248278
 20
0.5042722890008282
 30
0.0
 11
1.673460544066377
 21
0.5865225649969734
 31
0.0
  0
LINE
  5
7DE1B343D9D8EB3
330
7DE1B343D9D8EF8
100
AcDbEntity
  8
TEXT
100
AcDbLine
 10
1.717211315248278
 20
0.6094842675542555
 30
0.0
 11
1.717211315248278
 21
0.5042722890008282
 31
0.0
  0
LINE
  5
7DE1B343D9D8EB4
330
7DE1B343D9D8EF8
100
AcDbEntity
  8
TEXT
100
AcDbLine
 10
1.944895054186647
 20
0.5336189411427175
 30
0.0
 11
1.944895054186647
 21
0.6749484733218563
 31
0.0
  0
LINE
  5
7DE1B343D9D8EB5
330
7DE1B343D9D8EF8
100
AcDbEntity
  8
TEXT
100
AcDbLine
 10
1.991993212742632
 20
0.6094842675542555
 30
0.0
 11
1.944895054186647
 21
0.5336189411427175
 31
0.0
  0
LINE
  5
7DE1B343D9D8EB6
330
7DE1B343D9D8EF8
100
AcDbEntity
  8
TEXT
100
AcDbLine
 10
2.002427929506555
 20
0.499591024613282
 30
0.0
 11
2.06698504547226
 21
0.6094842675542555
 31
0.0
  0
LINE
  5
7DE1B343D9D8EB7
330
7DE1B343D9D8EF8
100
AcDbEntity
  8
TEXT
100
AcDbLine
 10
1.881060062963874
 20
0.3430112345657446
 30
0.0
 11
1.945438247282495
 21
0.3430112345657446
 31
0.0
  0
LWPOLYLINE
  5
7DE1B343D9D8EB8
330
7DE1B343D9D8EF8
100
AcDbEntity
  8
TEXT
100
AcDbPolyline
 90
        2
 70
     0
 43
0.0
 10
1.721150992553316
 20
0.3865021795161827
 42
-0.2901071551932486
 10
1.678075059685672
 20
0.3430112345657446
 42
-5.328517124445184
  0
ARC
  5
7DE1B343D9D8EBC
330
7DE1B343D9D8EF8
100
AcDbEntity
  8
TEXT
100
AcDbCircle
 10
1.609220478028757
 20
0.5168481978974928
 30
0.0
 40
0.028359375
100
AcDbArc
 50
25.78218179591245
 51
90.0
  0
LINE
  5
7DE1B343D9D8EBD
330
7DE1B343D9D8EF8
100
AcDbEntity
  8
TEXT
100
AcDbLine
 10
1.64502155333288
 20
0.5079325994353578
 30
0.0
 11
1.634756792919316
 21
0.5291831390080521
 31
0.0
  0
LINE
  5
7DE1B343D9D8EBE
330
7DE1B343D9D8EF8
100
AcDbEntity
  8
TEXT
100
AcDbLine
 10
1.562733563549497
 20
0.5079325994353578
 30
0.0
 11
1.64502155333288
 21
0.5079325994353578
 31
0.0
  0
LWPOLYLINE
  5
7DE1B343D9D8EBF
330
7DE1B343D9D8EF8
100
AcDbEntity
  8
TEXT
100
AcDbPolyline
 90
        4
 70
     1
 43
0.0
 10
1.657952594615779
 20
0.4459752125497698
 10
1.569292275955921
 20
0.4459752125497698
 42
0.9999999999999998
 10
1.569292275955921
 20
0.4035766720459091
 10
1.657952594615779
 20
0.4035766720459091
 42
1.0
  0
LWPOLYLINE
  5
7DE1B343D9D8EC5
330
7DE1B343D9D8EF8
100
AcDbEntity
  8
TEXT
100
AcDbPolyline
 90
        2
 70
     0
 43
0.0
 10
1.544057642054295
 20
0.3430112345657446
 10
1.678075059685672
 20
0.3430112345657446
 42
0.9999999999999998
  0
LINE
  5
7DE1B343D9D8EC9
330
7DE1B343D9D8EF8
100
AcDbEntity
  8
TEXT
100
AcDbLine
 10
1.804412081671311
 20
0.5452075728974901
 30
0.0
 11
1.881060062963869
 21
0.5452075728974901
 31
0.0
  0
LINE
  5
7DE1B343D9D8ECA
330
7DE1B343D9D8EF8
100
AcDbEntity
  8
TEXT
100
AcDbLine
 10
1.881060062963869
 20
0.5452075728974901
 30
0.0
 11
1.881060062963874
 21
0.3430112345657446
 31
0.0
  0
ARC
  5
7DE1B343D9D8ECB
330
7DE1B343D9D8EF8
100
AcDbEntity
  8
TEXT
100
AcDbCircle
 10
1.804412081671309
 20
0.5203016976148274
 30
0.0
 40
0.0249058752826653
100
AcDbArc
 50
89.99971217465335
 51
179.9999999999985
  0
LINE
  5
7DE1B343D9D8ECC
330
7DE1B343D9D8EF8
100
AcDbEntity
  8
TEXT
100
AcDbLine
 10
1.779506206388652
 20
0.3430112345657446
 30
0.0
 11
1.779506206388647
 21
0.520301739997213
 31
0.0
  0
LWPOLYLINE
  5
7DE1B343D9D8ECD
330
7DE1B343D9D8EF8
100
AcDbEntity
  8
TEXT
100
AcDbPolyline
 90
        2
 70
     0
 43
0.0
 10
1.721150992553316
 20
0.3430112345657446
 10
1.77950620638865
 20
0.3430112345657446
  0
LWPOLYLINE
  5
7DE1B343D9D8ED1
330
7DE1B343D9D8EF8
100
AcDbEntity
  8
TEXT
100
AcDbPolyline
 90
        2
 70
     0
 43
0.0
 10
1.721150992553316
 20
0.3865021795161827
 10
1.721150992553316
 20
0.3430112345657446
  0
LINE
  5
7DE1B343D9D8ED5
330
7DE1B343D9D8EF8
100
AcDbEntity
  8
TEXT
100
AcDbLine
 10
2.097920152870165
 20
0.3430112345657446
 30
0.0
 11
2.002427929506555
 21
0.499591024613282
 31
0.0
  0
LINE
  5
7DE1B343D9D8ED6
330
7DE1B343D9D8EF8
100
AcDbEntity
  8
TEXT
100
AcDbLine
 10
2.021341780493959
 20
0.3430112345657446
 30
0.0
 11
2.097920152870165
 21
0.3430112345657446
 31
0.0
  0
LINE
  5
7DE1B343D9D8ED7
330
7DE1B343D9D8EF8
100
AcDbEntity
  8
TEXT
100
AcDbLine
 10
1.945438247282495
 20
0.4745908030419248
 30
0.0
 11
2.021341780493959
 21
0.3430112345657446
 31
0.0
  0
LINE
  5
7DE1B343D9D8ED8
330
7DE1B343D9D8EF8
100
AcDbEntity
  8
TEXT
100
AcDbLine
 10
1.945438247282495
 20
0.3430112345657446
 30
0.0
 11
1.945438247282495
 21
0.4745908030419248
 31
0.0
  0
LINE
  5
7DE1B343D9D8ED9
330
7DE1B343D9D8EF8
100
AcDbEntity
  8
TEXT
100
AcDbLine
 10
1.944895054186647
 20
0.6749484733218563
 30
0.0
 11
1.876580175637374
 21
0.6749484733218563
 31
0.0
  0
ARC
  5
7DE1B343D9D8EDA
330
7DE1B343D9D8EF8
100
AcDbEntity
  8
TEXT
100
AcDbCircle
 10
1.636224436596168
 20
0.5679007004333532
 30
0.0
 40
0.0416329381542859
100
AcDbArc
 50
26.56974201007528
 51
87.20939649401342
  0
LINE
  5
7DE1B343D9D8EDB
330
7DE1B343D9D8EF8
100
AcDbEntity
  8
TEXT
100
AcDbLine
 10
1.781108221547779
 20
0.6094842675542555
 30
0.0
 11
1.717211315248278
 21
0.6094842675542555
 31
0.0
  0
LINE
  5
7DE1B343D9D8EDC
330
7DE1B343D9D8EF8
100
AcDbEntity
  8
TEXT
100
AcDbLine
 10
1.781108221547779
 20
0.5819366176933809
 30
0.0
 11
1.781108221547779
 21
0.6094842675542555
 31
0.0
  0
ARC
  5
7DE1B343D9D8EDD
330
7DE1B343D9D8EF8
100
AcDbEntity
  8
TEXT
100
AcDbCircle
 10
1.812301038610887
 20
0.5782385402719907
 30
0.0
 40
0.0314112657011332
100
AcDbArc
 50
95.88484768694724
 51
173.2388340632136
  0
LINE
  5
7DE1B343D9D8EDE
330
7DE1B343D9D8EF8
100
AcDbEntity
  8
TEXT
100
AcDbLine
 10
1.876580175637369
 20
0.6094842675542555
 30
0.0
 11
1.809080457987852
 21
0.6094842675542555
 31
0.0
  0
LINE
  5
7DE1B343D9D8EDF
330
7DE1B343D9D8EF8
100
AcDbEntity
  8
TEXT
100
AcDbLine
 10
1.876580175637374
 20
0.6749484733218563
 30
0.0
 11
1.876580175637369
 21
0.6094842675542555
 31
0.0
  0
LINE
  5
7DE1B343D9D8EE0
330
7DE1B343D9D8EF8
100
AcDbEntity
  8
TEXT
100
AcDbLine
 10
2.06698504547226
 20
0.6094842675542555
 30
0.0
 11
1.991993212742634
 21
0.6094842675542555
 31
0.0
  0
INSERT
  5
7DE1B343D9D8F13
330
7DE1B343D9D8EF8
100
AcDbEntity
  8
ASHADE
 62
     1
100
AcDbBlockReference
  2
AVE_RENDER
 10
0.0
 20
0.0
 30
0.0
1001
AVE_RENDER
1002
{
1070
     6
1000
Pref
1070
    30
1070
    20
1070
     1
1070
     0
1000

1070
    10
1070
     1
1070
    30
1040
1.0
1070
     1
1040
0.3
1040
0.7
1040
0.0
1040
10.0
1010
-1.0
1020
-1.0
1030
-1.0
1040
0.3
1070
    49
1070
     0
1070
     0
1010
1.0
1020
1.0
1030
1.0
1040
45.0
1070
     1
1070
     0
1000
WCS
1040
0.0
1002
}
  0
INSERT
  5
7DE1B343D9D8F14
330
7DE1B343D9D8EF8
100
AcDbEntity
  8
ASHADE
 62
     3
100
AcDbBlockReference
  2
AVE_RENDER
 10
0.0
 20
0.0
 30
0.0
1001
AVE_RENDER
1002
{
1070
     0
1000
Full Opt
1070
     0
1070
     1
1070
     1
1070
     1
1070
     0
1070
     0
1070
     0
1070
     1
1070
     1
1040
0.0001
1040
0.0001
1002
}
  0
INSERT
  5
7DE1B343D9D8F15
330
7DE1B343D9D8EF8
100
AcDbEntity
  8
ASHADE
 62
     4
100
AcDbBlockReference
  2
AVE_RENDER
 10
0.0
 20
0.0
 30
0.0
1001
AVE_RENDER
1002
{
1070
     0
1000
Quick Opt
1070
     0
1070
     1
1070
     1
1070
     1
1070
     0
1070
     0
1070
     1
1002
}
  0
INSERT
  5
7DE1B343D9D8F16
330
7DE1B343D9D8EF8
100
AcDbEntity
  8
ASHADE
 62
     5
100
AcDbBlockReference
  2
AVE_RENDER
 10
0.0
 20
0.0
 30
0.0
1001
AVE_RENDER
1002
{
1070
     1
1000
Scanl Opt
1070
     2
1070
     0
1070
     2
1040
2.0
1040
4.0
1070
     0
1070
     1
1070
     0
1040
0.03
1002
}
  0
INSERT
  5
7DE1B343D9D8F17
330
7DE1B343D9D8EF8
100
AcDbEntity
  8
ASHADE
 62
     6
100
AcDbBlockReference
  2
AVE_RENDER
 10
0.0
 20
0.0
 30
0.0
1001
AVE_RENDER
1002
{
1070
     2
1000
Raytr Opt
1070
     2
1070
     0
1070
     2
1040
2.0
1040
4.0
1070
     0
1070
     1
1070
     1
1040
0.03
1070
     3
1040
0.03
1002
}
  0
INSERT
  5
7DE1B343D9D8F18
330
7DE1B343D9D8EF8
100
AcDbEntity
  8
ASHADE
 62
     7
100
AcDbBlockReference
  2
AVE_RENDER
 10
0.0
 20
0.0
 30
0.0
1001
AVE_RENDER
1002
{
1070
     0
1000
RFile Opt
1070
     5
1070
   640
1070
   480
1070
 10000
1070
     3
1070
    32
1070
    24
1070
     0
1070
     0
1070
     0
1070
     1
1070
     0
1070
     0
1070
     0
1002
}
  0
INSERT
  5
7DE1B343D9D8F19
330
7DE1B343D9D8EF8
100
AcDbEntity
  8
ASHADE
 62
     8
100
AcDbBlockReference
  2
AVE_RENDER
 10
0.0
 20
0.0
 30
0.0
1001
AVE_RENDER
1002
{
1070
     0
1000
Fog Opt
1070
     0
1070
     0
1040
0.0
1040
1.0
1040
0.0
1040
1.0
1010
0.5
1020
0.5
1030
0.5
1002
}
  0
INSERT
  5
7DE1B343D9D8F1A
330
7DE1B343D9D8EF8
100
AcDbEntity
  8
ASHADE
 62
     9
100
AcDbBlockReference
  2
AVE_RENDER
 10
0.0
 20
0.0
 30
0.0
1001
AVE_RENDER
1002
{
1070
     0
1000
BG Opt
1070
     0
1070
     1
1010
0.0
1020
0.0
1030
0.0
1010
1.0
1020
0.0
1030
0.0
1010
0.0
1020
1.0
1030
0.0
1010
0.0
1020
0.0
1030
1.0
1040
0.5
1040
0.33
1040
0.0
1000

1070
     1
1000

1070
     1
1070
     1
1040
1.0
1040
1.0
1040
0.0
1040
0.0
1070
     0
1002
}
  0
INSERT
  5
7DE1B343D9D8F21
330
7DE1B343D9D8EF8
100
AcDbEntity
  8
ASHADE
 62
     1
100
AcDbBlockReference
  2
AVE_GLOBAL
 10
0.0
 20
0.0
 30
0.0
1001
AVE_MATERIAL
1002
{
1000
*GLOBAL*
1000
1
1000
Global finish.
1002
{
1002
}
1002
{
1070
    63
1002
{
1002
{
1010
-1.0
1020
-1.0
1030
-1.0
1002
}
1040
0.1000000014901161
1000

1040
0.0
1002
{
1002
}
1040
0.0
1002
{
1002
}
1040
0.0
1002
}
1002
{
1002
{
1010
-1.0
1020
-1.0
1030
-1.0
1002
}
1040
0.6999999880790711
1000

1040
0.0
1002
{
1002
}
1040
0.0
1002
{
1002
}
1040
0.0
1002
}
1002
{
1002
{
1010
-1.0
1020
-1.0
1030
-1.0
1002
}
1040
0.2000000029802322
1000

1040
0.0
1002
{
1002
}
1040
0.0
1002
{
1002
}
1040
0.0
1002
}
1002
{
1070
     0
1002
{
1070
     1
1002
{
1040
1.0
1040
1.0
1000

1040
0.0
1002
{
1002
}
1040
0.0
1002
{
1002
}
1040
0.0
1002
}
1002
}
1040
1.0
1040
0.0
1040
0.0
1002
}
1002
{
1040
1.0
1040
1.0
1000

1040
0.0
1002
{
1002
}
1040
0.0
1002
{
1002
}
1040
0.0
1002
}
1002
{
1040
0.5
1040
1.0
1000

1040
0.0
1002
{
1002
}
1040
0.0
1002
{
1002
}
1040
0.0
1002
}
1002
{
1070
     0
1040
0.0
1002
{
1002
}
1040
1.0
1002
{
1002
}
1040
0.0
1002
}
1002
{
1040
0.0
1002
{
1002
{
1010
0.0
1020
0.0
1030
0.0
1002
}
1040
1.0
1000

1040
0.0
1002
{
1002
}
1040
0.0
1002
{
1002
}
1040
0.0
1002
}
1002
}
1002
{
1002
{
1070
     1
1002
{
1040
0.0
1040
1.0
1000

1040
0.0
1002
{
1002
}
1040
0.0
1002
{
1002
}
1040
0.0
1002
}
1002
}
1040
0.0
1002
{
1002
}
1010
1.0
1020
0.0
1030
0.0
1010
0.0
1020
1.0
1030
0.0
1010
0.0
1020
0.0
1030
1.0
1070
     0
1002
}
1002
{
1002
{
1040
1.0
1040
1.0
1002
{
1070
     1
1002
{
1040
1.0
1040
1.0
1000

1040
0.0
1002
{
1002
}
1040
0.0
1002
{
1002
}
1040
0.0
1002
}
1002
}
1002
}
1070
     0
1040
0.0
1002
{
1002
}
1002
}
1002
{
1002
}
1002
}
1002
{
1071
        3
1070
     3
1070
     0
1002
{
1070
     2
1070
     0
1070
     0
1040
0.0
1002
}
1070
     0
1070
     2
1002
{
1002
}
1002
}
1002
{
1040
8030.0
1040
190.3000030517578
1040
0.3050000071525574
1040
228.0
1040
545.0
1040
14.0
1040
17.39999961853027
1040
0.4560000002384186
1002
}
1002
}
  0
ENDSEC
  0
SECTION
  2
OBJECTS
  0
DICTIONARY
  5
7DE1B343D9D8EEC
330
0
100
AcDbDictionary
  3
ACAD_GROUP
350
7DE1B343D9D8EED
  3
ACAD_LAYOUT
350
7DE1B343D9D8F2D
  3
ACAD_MLINESTYLE
350
7DE1B343D9D8EEE
  3
ACAD_PLOTSETTINGS
350
7DE1B343D9D8F2E
  3
ACAD_PLOTSTYLENAME
350
7DE1B343D9D8F2B
  3
ACDBHEADERROUNDTRIPXREC
350
7DE1B343D9D8F38
  3
ACDBVARIABLEDICTIONARY
350
7DE1B343D9D8F35
  0
DICTIONARY
  5
7DE1B343D9D8F5A
330
7DE1B343D9D8EF8
100
AcDbDictionary
280
     1
  3
ACAD_LAYOUTSELFREF
360
7DE1B343D9D8F5B
  0
DICTIONARY
  5
7DE1B343D9D8F58
330
7DE1B343D9D8EF5
100
AcDbDictionary
280
     1
  3
ACAD_LAYOUTSELFREF
360
7DE1B343D9D8F59
  0
DICTIONARY
  5
7DE1B343D9D8EED
102
{ACAD_REACTORS
330
7DE1B343D9D8EEC
102
}
330
7DE1B343D9D8EEC
100
AcDbDictionary
  0
DICTIONARY
  5
7DE1B343D9D8F2D
102
{ACAD_REACTORS
330
7DE1B343D9D8EEC
102
}
330
7DE1B343D9D8EEC
100
AcDbDictionary
  0
DICTIONARY
  5
7DE1B343D9D8EEE
102
{ACAD_REACTORS
330
7DE1B343D9D8EEC
102
}
330
7DE1B343D9D8EEC
100
AcDbDictionary
  3
STANDARD
350
7DE1B343D9D8EFB
  0
DICTIONARY
  5
7DE1B343D9D8F2E
102
{ACAD_REACTORS
330
7DE1B343D9D8EEC
102
}
330
7DE1B343D9D8EEC
100
AcDbDictionary
  0
ACDBDICTIONARYWDFLT
  5
7DE1B343D9D8F2B
102
{ACAD_REACTORS
330
7DE1B343D9D8EEC
102
}
330
7DE1B343D9D8EEC
100
AcDbDictionary
281
     1
  3
Normal
350
7DE1B343D9D8F2C
100
AcDbDictionaryWithDefault
340
7DE1B343D9D8F2C
  0
DICTIONARY
  5
7DE1B343D9D8F38
102
{ACAD_REACTORS
330
7DE1B343D9D8EEC
102
}
330
7DE1B343D9D8EEC
100
AcDbDictionary
  3
CEPSNTYPE
350
7DE1B343D9D8F42
  3
FINGERPRINTGUID
350
7DE1B343D9D8F43
  3
HYPERLINKBASE
350
7DE1B343D9D8F3B
  3
INSUNITS
350
7DE1B343D9D8F41
  3
LAYOUTDICT
350
7DE1B343D9D8F3D
  3
LWETCUNION
350
7DE1B343D9D8F40
  3
PLOTSETDICT
350
7DE1B343D9D8F3E
  3
PLOTSTYLNAMDICT
350
7DE1B343D9D8F3F
  3
PSVPSCALE
350
7DE1B343D9D8F45
  3
PUCSBASE
350
7DE1B343D9D8F48
  3
PUCSORGBACK
350
7DE1B343D9D8F4E
  3
PUCSORGBOTTOM
350
7DE1B343D9D8F4A
  3
PUCSORGFRONT
350
7DE1B343D9D8F4D
  3
PUCSORGLEFT
350
7DE1B343D9D8F4B
  3
PUCSORGRIGHT
350
7DE1B343D9D8F4C
  3
PUCSORGTOP
350
7DE1B343D9D8F49
  3
PUCSORTHOREF
350
7DE1B343D9D8F46
  3
PUCSORTHOVIEW
350
7DE1B343D9D8F47
  3
STYLESHEET
350
7DE1B343D9D8F3C
  3
TSTACKALIGN
350
7DE1B343D9D8F39
  3
TSTACKSIZE
350
7DE1B343D9D8F3A
  3
UCSBASE
350
7DE1B343D9D8F51
  3
UCSORGBACK
350
7DE1B343D9D8F57
  3
UCSORGBOTTOM
350
7DE1B343D9D8F53
  3
UCSORGFRONT
350
7DE1B343D9D8F56
  3
UCSORGLEFT
350
7DE1B343D9D8F54
  3
UCSORGRIGHT
350
7DE1B343D9D8F55
  3
UCSORGTOP
350
7DE1B343D9D8F52
  3
UCSORTHOREF
350
7DE1B343D9D8F4F
  3
UCSORTHOVIEW
350
7DE1B343D9D8F50
  3
VERSIONGUID
350
7DE1B343D9D8F44
  0
DICTIONARY
  5
7DE1B343D9D8F35
102
{ACAD_REACTORS
330
7DE1B343D9D8EEC
102
}
330
7DE1B343D9D8EEC
100
AcDbDictionary
  3
DIMASSOC
350
7DE1B343D9D8F36
  0
XRECORD
  5
7DE1B343D9D8F5B
102
{ACAD_REACTORS
330
7DE1B343D9D8F5A
102
}
330
7DE1B343D9D8F5A
100
AcDbXrecord
340
7DE1B343D9D8EF8
  0
XRECORD
  5
7DE1B343D9D8F59
102
{ACAD_REACTORS
330
7DE1B343D9D8F58
102
}
330
7DE1B343D9D8F58
100
AcDbXrecord
340
7DE1B343D9D8EF5
  0
MLINESTYLE
  5
7DE1B343D9D8EFB
102
{ACAD_REACTORS
330
7DE1B343D9D8EEE
102
}
330
7DE1B343D9D8EEE
100
AcDbMlineStyle
  2
STANDARD
 70
     0
  3

 62
     0
 51
90.0
 52
90.0
 71
     2
 49
0.5
 62
   256
  6
BYLAYER
 49
-0.5
 62
   256
  6
BYLAYER
  0
ACDBPLACEHOLDER
  5
7DE1B343D9D8F2C
102
{ACAD_REACTORS
330
7DE1B343D9D8F2B
102
}
330
7DE1B343D9D8F2B
100
AcDbPlaceHolder
280
     0
  0
XRECORD
  5
7DE1B343D9D8F42
102
{ACAD_REACTORS
330
7DE1B343D9D8F38
102
}
330
7DE1B343D9D8F38
100
AcDbXrecord
 90
        0
  0
XRECORD
  5
7DE1B343D9D8F43
102
{ACAD_REACTORS
330
7DE1B343D9D8F38
102
}
330
7DE1B343D9D8F38
100
AcDbXrecord
  1
{EECE66E0-8DB4-11D6-88E6-0090279574E7}
  0
XRECORD
  5
7DE1B343D9D8F3B
102
{ACAD_REACTORS
330
7DE1B343D9D8F38
102
}
330
7DE1B343D9D8F38
100
AcDbXrecord
  1

  0
XRECORD
  5
7DE1B343D9D8F41
102
{ACAD_REACTORS
330
7DE1B343D9D8F38
102
}
330
7DE1B343D9D8F38
100
AcDbXrecord
 90
        0
  0
XRECORD
  5
7DE1B343D9D8F3D
102
{ACAD_REACTORS
330
7DE1B343D9D8F38
102
}
330
7DE1B343D9D8F38
100
AcDbXrecord
340
7DE1B343D9D8F2D
  0
XRECORD
  5
7DE1B343D9D8F40
102
{ACAD_REACTORS
330
7DE1B343D9D8F38
102
}
330
7DE1B343D9D8F38
100
AcDbXrecord
 90
    14877
  0
XRECORD
  5
7DE1B343D9D8F3E
102
{ACAD_REACTORS
330
7DE1B343D9D8F38
102
}
330
7DE1B343D9D8F38
100
AcDbXrecord
340
7DE1B343D9D8F2E
  0
XRECORD
  5
7DE1B343D9D8F3F
102
{ACAD_REACTORS
330
7DE1B343D9D8F38
102
}
330
7DE1B343D9D8F38
100
AcDbXrecord
340
7DE1B343D9D8F2B
  0
XRECORD
  5
7DE1B343D9D8F45
102
{ACAD_REACTORS
330
7DE1B343D9D8F38
102
}
330
7DE1B343D9D8F38
100
AcDbXrecord
 40
0.0
  0
XRECORD
  5
7DE1B343D9D8F48
102
{ACAD_REACTORS
330
7DE1B343D9D8F38
102
}
330
7DE1B343D9D8F38
100
AcDbXrecord
340
0
  0
XRECORD
  5
7DE1B343D9D8F4E
102
{ACAD_REACTORS
330
7DE1B343D9D8F38
102
}
330
7DE1B343D9D8F38
100
AcDbXrecord
 10
0.0
 20
0.0
 30
0.0
  0
XRECORD
  5
7DE1B343D9D8F4A
102
{ACAD_REACTORS
330
7DE1B343D9D8F38
102
}
330
7DE1B343D9D8F38
100
AcDbXrecord
 10
0.0
 20
0.0
 30
0.0
  0
XRECORD
  5
7DE1B343D9D8F4D
102
{ACAD_REACTORS
330
7DE1B343D9D8F38
102
}
330
7DE1B343D9D8F38
100
AcDbXrecord
 10
0.0
 20
0.0
 30
0.0
  0
XRECORD
  5
7DE1B343D9D8F4B
102
{ACAD_REACTORS
330
7DE1B343D9D8F38
102
}
330
7DE1B343D9D8F38
100
AcDbXrecord
 10
0.0
 20
0.0
 30
0.0
  0
XRECORD
  5
7DE1B343D9D8F4C
102
{ACAD_REACTORS
330
7DE1B343D9D8F38
102
}
330
7DE1B343D9D8F38
100
AcDbXrecord
 10
0.0
 20
0.0
 30
0.0
  0
XRECORD
  5
7DE1B343D9D8F49
102
{ACAD_REACTORS
330
7DE1B343D9D8F38
102
}
330
7DE1B343D9D8F38
100
AcDbXrecord
 10
0.0
 20
0.0
 30
0.0
  0
XRECORD
  5
7DE1B343D9D8F46
102
{ACAD_REACTORS
330
7DE1B343D9D8F38
102
}
330
7DE1B343D9D8F38
100
AcDbXrecord
340
0
  0
XRECORD
  5
7DE1B343D9D8F47
102
{ACAD_REACTORS
330
7DE1B343D9D8F38
102
}
330
7DE1B343D9D8F38
100
AcDbXrecord
 70
     0
  0
XRECORD
  5
7DE1B343D9D8F3C
102
{ACAD_REACTORS
330
7DE1B343D9D8F38
102
}
330
7DE1B343D9D8F38
100
AcDbXrecord
  1

  0
XRECORD
  5
7DE1B343D9D8F39
102
{ACAD_REACTORS
330
7DE1B343D9D8F38
102
}
330
7DE1B343D9D8F38
100
AcDbXrecord
 90
        1
  0
XRECORD
  5
7DE1B343D9D8F3A
102
{ACAD_REACTORS
330
7DE1B343D9D8F38
102
}
330
7DE1B343D9D8F38
100
AcDbXrecord
 90
       70
  0
XRECORD
  5
7DE1B343D9D8F51
102
{ACAD_REACTORS
330
7DE1B343D9D8F38
102
}
330
7DE1B343D9D8F38
100
AcDbXrecord
340
0
  0
XRECORD
  5
7DE1B343D9D8F57
102
{ACAD_REACTORS
330
7DE1B343D9D8F38
102
}
330
7DE1B343D9D8F38
100
AcDbXrecord
 10
0.0
 20
0.0
 30
0.0
  0
XRECORD
  5
7DE1B343D9D8F53
102
{ACAD_REACTORS
330
7DE1B343D9D8F38
102
}
330
7DE1B343D9D8F38
100
AcDbXrecord
 10
0.0
 20
0.0
 30
0.0
  0
XRECORD
  5
7DE1B343D9D8F56
102
{ACAD_REACTORS
330
7DE1B343D9D8F38
102
}
330
7DE1B343D9D8F38
100
AcDbXrecord
 10
0.0
 20
0.0
 30
0.0
  0
XRECORD
  5
7DE1B343D9D8F54
102
{ACAD_REACTORS
330
7DE1B343D9D8F38
102
}
330
7DE1B343D9D8F38
100
AcDbXrecord
 10
0.0
 20
0.0
 30
0.0
  0
XRECORD
  5
7DE1B343D9D8F55
102
{ACAD_REACTORS
330
7DE1B343D9D8F38
102
}
330
7DE1B343D9D8F38
100
AcDbXrecord
 10
0.0
 20
0.0
 30
0.0
  0
XRECORD
  5
7DE1B343D9D8F52
102
{ACAD_REACTORS
330
7DE1B343D9D8F38
102
}
330
7DE1B343D9D8F38
100
AcDbXrecord
 10
0.0
 20
0.0
 30
0.0
  0
XRECORD
  5
7DE1B343D9D8F4F
102
{ACAD_REACTORS
330
7DE1B343D9D8F38
102
}
330
7DE1B343D9D8F38
100
AcDbXrecord
340
0
  0
XRECORD
  5
7DE1B343D9D8F50
102
{ACAD_REACTORS
330
7DE1B343D9D8F38
102
}
330
7DE1B343D9D8F38
100
AcDbXrecord
 70
     0
  0
XRECORD
  5
7DE1B343D9D8F44
102
{ACAD_REACTORS
330
7DE1B343D9D8F38
102
}
330
7DE1B343D9D8F38
100
AcDbXrecord
  1
{EECE66E2-8DB4-11D6-88E6-0090279574E7}
  0
DICTIONARYVAR
  5
7DE1B343D9D8F36
102
{ACAD_REACTORS
330
7DE1B343D9D8F35
102
}
330
7DE1B343D9D8F35
100
DictionaryVariables
280
     0
  1
1
  0
ENDSEC
  0
EOF
