  0
SECTION
  2
HEADER
  9
$ACADVER
  1
AC1014
  9
$ACADMAINTVER
 70
     9
  9
$DWGCODEPAGE
  3
ANSI_1252
  9
$INSBASE
 10
1.600609752255784
 20
1.526408815493059
 30
0.0
  9
$EXTMIN
 10
-0.0887739325966635
 20
0.3759167274654318
 30
0.0
  9
$EXTMAX
 10
3.396445389150464
 20
1.977047066020149
 30
0.0
  9
$LIMMIN
 10
0.0
 20
0.0
  9
$LIMMAX
 10
18.0
 20
12.0
  9
$ORTHOMODE
 70
     1
  9
$REGENMODE
 70
     1
  9
$FILLMODE
 70
     1
  9
$QTEXTMODE
 70
     0
  9
$MIRRTEXT
 70
     0
  9
$DRAGMODE
 70
     2
  9
$LTSCALE
 40
1.0
  9
$OSMODE
 70
    39
  9
$ATTMODE
 70
     1
  9
$TEXTSIZE
 40
0.125
  9
$TRACEWID
 40
0.05
  9
$TEXTSTYLE
  7
ROMANS
  9
$CLAYER
  8
0
  9
$CELTYPE
  6
BYLAYER
  9
$CECOLOR
 62
   256
  9
$CELTSCALE
 40
1.0
  9
$DELOBJ
 70
     1
  9
$DISPSILH
 70
     1
  9
$DIMSCALE
 40
1.0
  9
$DIMASZ
 40
0.125
  9
$DIMEXO
 40
0.125
  9
$DIMDLI
 40
0.375
  9
$DIMRND
 40
0.0
  9
$DIMDLE
 40
0.0
  9
$DIMEXE
 40
0.125
  9
$DIMTP
 40
0.0
  9
$DIMTM
 40
0.0
  9
$DIMTXT
 40
0.125
  9
$DIMCEN
 40
-0.125
  9
$DIMTSZ
 40
0.0
  9
$DIMTOL
 70
     0
  9
$DIMLIM
 70
     0
  9
$DIMTIH
 70
     1
  9
$DIMTOH
 70
     1
  9
$DIMSE1
 70
     0
  9
$DIMSE2
 70
     0
  9
$DIMTAD
 70
     0
  9
$DIMZIN
 70
     4
  9
$DIMBLK
  1

  9
$DIMASO
 70
     1
  9
$DIMSHO
 70
     1
  9
$DIMPOST
  1

  9
$DIMAPOST
  1

  9
$DIMALT
 70
     0
  9
$DIMALTD
 70
     2
  9
$DIMALTF
 40
25.4
  9
$DIMLFAC
 40
1.0
  9
$DIMTOFL
 70
     0
  9
$DIMTVP
 40
0.0
  9
$DIMTIX
 70
     1
  9
$DIMSOXD
 70
     0
  9
$DIMSAH
 70
     0
  9
$DIMBLK1
  1

  9
$DIMBLK2
  1

  9
$DIMSTYLE
  2
STANDARD
  9
$DIMCLRD
 70
     0
  9
$DIMCLRE
 70
     0
  9
$DIMCLRT
 70
     0
  9
$DIMTFAC
 40
1.0
  9
$DIMGAP
 40
0.09
  9
$DIMJUST
 70
     0
  9
$DIMSD1
 70
     0
  9
$DIMSD2
 70
     0
  9
$DIMTOLJ
 70
     1
  9
$DIMTZIN
 70
     4
  9
$DIMALTZ
 70
     0
  9
$DIMALTTZ
 70
     0
  9
$DIMFIT
 70
     3
  9
$DIMUPT
 70
     0
  9
$DIMUNIT
 70
     2
  9
$DIMDEC
 70
     3
  9
$DIMTDEC
 70
     3
  9
$DIMALTU
 70
     2
  9
$DIMALTTD
 70
     2
  9
$DIMTXSTY
  7
ROMANS
  9
$DIMAUNIT
 70
     0
  9
$LUNITS
 70
     2
  9
$LUPREC
 70
     3
  9
$SKETCHINC
 40
0.1
  9
$FILLETRAD
 40
0.03125
  9
$AUNITS
 70
     0
  9
$AUPREC
 70
     0
  9
$MENU
  1
ACAD
  9
$ELEVATION
 40
0.0
  9
$PELEVATION
 40
0.0
  9
$THICKNESS
 40
0.0
  9
$LIMCHECK
 70
     0
  9
$BLIPMODE
 70
     0
  9
$CHAMFERA
 40
0.0
  9
$CHAMFERB
 40
0.0
  9
$CHAMFERC
 40
0.0
  9
$CHAMFERD
 40
0.0
  9
$SKPOLY
 70
     0
  9
$TDCREATE
 40
2448994.383240046
  9
$TDUPDATE
 40
2452458.300070810
  9
$TDINDWG
 40
0.0009199190
  9
$TDUSRTIMER
 40
0.0009199190
  9
$USRTIMER
 70
     1
  9
$ANGBASE
 50
0.0
  9
$ANGDIR
 70
     0
  9
$PDMODE
 70
     0
  9
$PDSIZE
 40
0.0
  9
$PLINEWID
 40
0.0
  9
$COORDS
 70
     2
  9
$SPLFRAME
 70
     0
  9
$SPLINETYPE
 70
     6
  9
$SPLINESEGS
 70
     8
  9
$ATTDIA
 70
     0
  9
$ATTREQ
 70
     1
  9
$HANDLING
 70
 22529
  9
$HANDSEED
  5
7DE1B343D9D8B42
  9
$SURFTAB1
 70
     6
  9
$SURFTAB2
 70
     6
  9
$SURFTYPE
 70
     6
  9
$SURFU
 70
     6
  9
$SURFV
 70
     6
  9
$UCSNAME
  2

  9
$UCSORG
 10
0.0
 20
0.0
 30
0.0
  9
$UCSXDIR
 10
1.0
 20
0.0
 30
0.0
  9
$UCSYDIR
 10
0.0
 20
1.0
 30
0.0
  9
$PUCSNAME
  2

  9
$PUCSORG
 10
0.0
 20
0.0
 30
0.0
  9
$PUCSXDIR
 10
1.0
 20
0.0
 30
0.0
  9
$PUCSYDIR
 10
0.0
 20
1.0
 30
0.0
  9
$USERI1
 70
     0
  9
$USERI2
 70
     0
  9
$USERI3
 70
     0
  9
$USERI4
 70
     0
  9
$USERI5
 70
     0
  9
$USERR1
 40
0.0
  9
$USERR2
 40
0.0
  9
$USERR3
 40
0.0
  9
$USERR4
 40
0.0
  9
$USERR5
 40
0.0
  9
$WORLDVIEW
 70
     1
  9
$SHADEDGE
 70
     3
  9
$SHADEDIF
 70
    70
  9
$TILEMODE
 70
     1
  9
$MAXACTVP
 70
    16
  9
$PINSBASE
 10
1.215642938705184
 20
50.00000000000001
 30
0.8567073422791274
  9
$PLIMCHECK
 70
     0
  9
$PEXTMIN
 10
1.000000000000000E+20
 20
1.000000000000000E+20
 30
1.000000000000000E+20
  9
$PEXTMAX
 10
-1.000000000000000E+20
 20
-1.000000000000000E+20
 30
-1.000000000000000E+20
  9
$PLIMMIN
 10
0.0
 20
0.0
  9
$PLIMMAX
 10
12.0
 20
9.0
  9
$UNITMODE
 70
     0
  9
$VISRETAIN
 70
     0
  9
$PLINEGEN
 70
     1
  9
$PSLTSCALE
 70
     0
  9
$TREEDEPTH
 70
  3020
  9
$PICKSTYLE
 70
     1
  9
$CMLSTYLE
  2
STANDARD
  9
$CMLJUST
 70
     0
  9
$CMLSCALE
 40
1.0
  9
$PROXYGRAPHICS
 70
     1
  9
$MEASUREMENT
 70
     0
  0
ENDSEC
  0
SECTION
  2
CLASSES
  0
CLASS
  1
LWPOLYLINE
  2
AcDbPolyline
  3
AutoCAD 2000
 90
        0
280
     0
281
     1
  0
CLASS
  1
ACDBDICTIONARYWDFLT
  2
AcDbDictionaryWithDefault
  3
AutoCAD 2000
 90
        0
280
     0
281
     0
  0
CLASS
  1
ACDBPLACEHOLDER
  2
AcDbPlaceHolder
  3
AutoCAD 2000
 90
        0
280
     0
281
     0
  0
CLASS
  1
LAYOUT
  2
AcDbLayout
  3
AutoCAD 2000
 90
        0
280
     0
281
     0
  0
CLASS
  1
DICTIONARYVAR
  2
AcDbDictionaryVar
  3
AutoCAD 2000
 90
        0
280
     0
281
     0
  0
CLASS
  1
LONG_TRANSACTION
  2
AcDbLongTransaction
  3
AutoCAD 2000
 90
        0
280
     0
281
     0
  0
CLASS
  1
LWPOLYLINE
  2
AcDbPolyline
  3
AutoCAD 2000
 90
        0
280
     0
281
     1
  0
CLASS
  1
HATCH
  2
AcDbHatch
  3
AutoCAD 2000
 90
        0
280
     0
281
     1
  0
CLASS
  1
XRECORD
  2
AcDbXrecord
  3
AutoCAD 2000
 90
        0
280
     0
281
     0
  0
ENDSEC
  0
SECTION
  2
TABLES
  0
TABLE
  2
VPORT
  5
7DE1B343D9D8AE9
330
0
100
AcDbSymbolTable
 70
     2
  0
VPORT
  5
7DE1B343D9D8B1D
330
7DE1B343D9D8AE9
100
AcDbSymbolTableRecord
100
AcDbViewportTableRecord
  2
*ACTIVE
 70
     0
 10
0.0
 20
0.0
 11
1.0
 21
1.0
 12
4.629395680694534
 22
1.17654421177756
 13
0.0
 23
0.0
 14
0.015625
 24
0.015625
 15
0.0
 25
0.0
 16
0.0
 26
0.0
 36
1.0
 17
0.0
 27
0.0
 37
0.0
 40
2.282159886418912
 41
4.320930232558139
 42
50.0
 43
0.0
 44
0.0
 50
0.0
 51
0.0
 71
     0
 72
  2000
 73
     1
 74
     0
 75
     0
 76
     0
 77
     0
 78
     0
  0
ENDTAB
  0
TABLE
  2
LTYPE
  5
7DE1B343D9D8AE6
330
0
100
AcDbSymbolTable
 70
     1
  0
LTYPE
  5
7DE1B343D9D8AF3
330
7DE1B343D9D8AE6
100
AcDbSymbolTableRecord
100
AcDbLinetypeTableRecord
  2
BYBLOCK
 70
     0
  3

 72
    65
 73
     0
 40
0.0
  0
LTYPE
  5
7DE1B343D9D8AF4
330
7DE1B343D9D8AE6
100
AcDbSymbolTableRecord
100
AcDbLinetypeTableRecord
  2
BYLAYER
 70
     0
  3

 72
    65
 73
     0
 40
0.0
  0
LTYPE
  5
7DE1B343D9D8AF5
330
7DE1B343D9D8AE6
100
AcDbSymbolTableRecord
100
AcDbLinetypeTableRecord
  2
CONTINUOUS
 70
     0
  3
Solid line
 72
    65
 73
     0
 40
0.0
  0
ENDTAB
  0
TABLE
  2
LAYER
  5
7DE1B343D9D8AE3
330
0
100
AcDbSymbolTable
 70
     2
  0
LAYER
  5
7DE1B343D9D8AF0
330
7DE1B343D9D8AE3
100
AcDbSymbolTableRecord
100
AcDbLayerTableRecord
  2
0
 70
     0
 62
     7
  6
CONTINUOUS
  0
LAYER
  5
7DE1B343D9D8B00
330
7DE1B343D9D8AE3
100
AcDbSymbolTableRecord
100
AcDbLayerTableRecord
  2
TEXT
 70
     0
 62
     3
  6
CONTINUOUS
  0
ENDTAB
  0
TABLE
  2
STYLE
  5
7DE1B343D9D8AE4
330
0
100
AcDbSymbolTable
 70
     3
  0
STYLE
  5
7DE1B343D9D8AF1
330
7DE1B343D9D8AE4
100
AcDbSymbolTableRecord
100
AcDbTextStyleTableRecord
  2
STANDARD
 70
     0
 40
0.0
 41
1.0
 50
0.0
 71
     0
 42
0.3125
  3
txt
  4

  0
STYLE
  5
7DE1B343D9D8AFD
330
7DE1B343D9D8AE4
100
AcDbSymbolTableRecord
100
AcDbTextStyleTableRecord
  2
ITALICC
 70
     0
 40
0.0
 41
1.0
 50
0.0
 71
     0
 42
0.125
  3
italicc
  4

  0
STYLE
  5
7DE1B343D9D8B0D
330
7DE1B343D9D8AE4
100
AcDbSymbolTableRecord
100
AcDbTextStyleTableRecord
  2
ROMANS
 70
     0
 40
0.0
 41
1.0
 50
0.0
 71
     0
 42
0.125
  3
romans.shx
  4

  0
ENDTAB
  0
TABLE
  2
VIEW
  5
7DE1B343D9D8AE7
330
0
100
AcDbSymbolTable
 70
     0
  0
ENDTAB
  0
TABLE
  2
UCS
  5
7DE1B343D9D8AE8
330
0
100
AcDbSymbolTable
 70
     0
  0
ENDTAB
  0
TABLE
  2
APPID
  5
7DE1B343D9D8AEA
330
0
100
AcDbSymbolTable
 70
     1
  0
APPID
  5
7DE1B343D9D8AF2
330
7DE1B343D9D8AEA
100
AcDbSymbolTableRecord
100
AcDbRegAppTableRecord
  2
ACAD
 70
     0
  0
ENDTAB
  0
TABLE
  2
DIMSTYLE
  5
7DE1B343D9D8AEB
330
0
100
AcDbSymbolTable
 70
     1
  0
DIMSTYLE
105
7DE1B343D9D8B05
330
7DE1B343D9D8AEB
100
AcDbSymbolTableRecord
100
AcDbDimStyleTableRecord
  2
STANDARD
 70
     0
  3

  4

  5

  6

  7

 40
1.0
 41
0.125
 42
0.125
 43
0.375
 44
0.125
 45
0.0
 46
0.0
 47
0.0
 48
0.0
140
0.125
141
-0.125
142
0.0
143
25.4
144
1.0
145
0.0
146
1.0
147
0.09
 71
     0
 72
     0
 73
     1
 74
     1
 75
     0
 76
     0
 77
     0
 78
     4
170
     0
171
     2
172
     0
173
     0
174
     1
175
     0
176
     0
177
     0
178
     0
270
     2
271
     3
272
     3
273
     2
274
     2
340
7DE1B343D9D8B0D
275
     0
280
     0
281
     0
282
     0
283
     1
284
     4
285
     0
286
     0
287
     3
288
     0
  0
ENDTAB
  0
TABLE
  2
BLOCK_RECORD
  5
7DE1B343D9D8AE2
330
0
100
AcDbSymbolTable
 70
     0
  0
BLOCK_RECORD
  5
7DE1B343D9D8AF9
102
{ACAD_XDICTIONARY
360
7DE1B343D9D8B40
102
}
330
7DE1B343D9D8AE2
100
AcDbSymbolTableRecord
100
AcDbBlockTableRecord
  2
*MODEL_SPACE
  0
BLOCK_RECORD
  5
7DE1B343D9D8AF6
102
{ACAD_XDICTIONARY
360
7DE1B343D9D8B3E
102
}
330
7DE1B343D9D8AE2
100
AcDbSymbolTableRecord
100
AcDbBlockTableRecord
  2
*PAPER_SPACE
  0
ENDTAB
  0
ENDSEC
  0
SECTION
  2
BLOCKS
  0
BLOCK
  5
7DE1B343D9D8B03
330
7DE1B343D9D8AF9
100
AcDbEntity
  8
0
100
AcDbBlockBegin
  2
*MODEL_SPACE
 70
     0
 10
0.0
 20
0.0
 30
0.0
  3
*MODEL_SPACE
  1

  0
ENDBLK
  5
7DE1B343D9D8B04
330
7DE1B343D9D8AF9
100
AcDbEntity
  8
0
100
AcDbBlockEnd
  0
BLOCK
  5
7DE1B343D9D8B01
330
7DE1B343D9D8AF6
100
AcDbEntity
 67
     1
  8
0
100
AcDbBlockBegin
  2
*PAPER_SPACE
 70
     0
 10
0.0
 20
0.0
 30
0.0
  3
*PAPER_SPACE
  1

  0
ENDBLK
  5
7DE1B343D9D8B02
330
7DE1B343D9D8AF6
100
AcDbEntity
 67
     1
  8
0
100
AcDbBlockEnd
  0
ENDSEC
  0
SECTION
  2
ENTITIES
  0
LWPOLYLINE
  5
7DE1B343D9D74EA
330
7DE1B343D9D8AF9
100
AcDbEntity
  8
0
100
AcDbPolyline
 90
       28
 70
     1
 43
0.0
 10
1.53143356256452
 20
1.16454706602015
 10
1.53143356256452
 20
1.35204706602015
 10
1.62455856256452
 20
1.352047066020149
 10
1.62455856256452
 20
1.414547066020149
 10
1.523194380495887
 20
1.414547066020149
 10
1.468308562564518
 20
1.359661248088785
 10
1.468308562564518
 20
1.16454706602015
 10
1.362042685199247
 20
1.16454706602015
 10
1.362042685199247
 20
1.43017206602015
 10
1.424542685199247
 20
1.492672066020145
 10
1.424542685199247
 20
1.508297066020149
 10
1.362042685199247
 20
1.508297066020149
 10
1.362042685199247
 20
1.701422066020149
 10
1.352042685199247
 20
1.711422066020149
 10
1.362042685199247
 20
1.721422066020149
 10
1.362042685199247
 20
1.914547066020149
 10
1.424542685199247
 20
1.914547066020149
 10
1.424542685199247
 20
1.977047066020149
 10
1.049542685199247
 20
1.977047066020149
 10
1.049542685199247
 20
1.914547066020149
 10
1.299542685199247
 20
1.914547066020149
 10
1.299542685199247
 20
1.102047066020149
 10
2.10643356256452
 20
1.102047066020149
 10
2.190167685199247
 20
1.414547066020149
 10
1.96830856256452
 20
1.414547066020149
 10
1.96830856256452
 20
1.352047066020149
 10
2.06143356256452
 20
1.352047066020149
 10
2.06143356256452
 20
1.164547066020149
  0
TEXT
  5
7DE1B343D9D89A4
330
7DE1B343D9D8AF9
100
AcDbEntity
  8
TEXT
100
AcDbText
 10
0.901231456154289
 20
0.8339353315480133
 30
0.0
 40
0.125
  1
PART #110198
  7
ITALICC
 72
     1
 11
1.654207646630479
 21
0.8339353315480133
 31
0.0
100
AcDbText
  0
TEXT
  5
7DE1B343D9D89A5
330
7DE1B343D9D8AF9
100
AcDbEntity
  8
TEXT
100
AcDbText
 10
2.0675128048808
 20
0.3870126888756382
 30
0.0
 40
0.0522247191011236
  1
Phone  1-800-328-2495
 41
1.272321428571429
 72
     5
 11
3.396445389150464
 21
0.3870126888756382
 31
0.0
100
AcDbText
  0
TEXT
  5
7DE1B343D9D89A6
330
7DE1B343D9D8AF9
100
AcDbEntity
  8
TEXT
100
AcDbText
 10
2.0675128048808
 20
0.6667879697745147
 30
0.0
 40
0.0522247191011236
  1
Stylmark  Incorporated
 41
1.221428571428573
 72
     5
 11
3.396445389150464
 21
0.6667879697745147
 31
0.0
100
AcDbText
  0
TEXT
  5
7DE1B343D9D89A7
330
7DE1B343D9D8AF9
100
AcDbEntity
  8
TEXT
100
AcDbText
 10
2.0675128048808
 20
0.5735295428082226
 30
0.0
 40
0.0522247191011236
  1
6536 Main St. N.E. * P.O. Box 32008
 41
0.8388932496075366
 72
     5
 11
3.396445389150464
 21
0.5735295428082226
 31
0.0
100
AcDbText
  0
TEXT
  5
7DE1B343D9D89A8
330
7DE1B343D9D8AF9
100
AcDbEntity
  8
TEXT
100
AcDbText
 10
2.0675128048808
 20
0.4802711158419304
 30
0.0
 40
0.0522247191011236
  1
Minneapolis, MN 55432-0008
 41
1.11444212721585
 72
     5
 11
3.396445389150464
 21
0.4802711158419304
 31
0.0
100
AcDbText
  0
LWPOLYLINE
  5
7DE1B343D9D89A9
330
7DE1B343D9D8AF9
100
AcDbEntity
  8
TEXT
100
AcDbPolyline
 90
        3
 70
     0
 43
0.0006660908203125
 10
-0.0884408871865072
 20
0.5006574515130731
 10
-0.0884408871865072
 20
0.3874220120599454
 10
0.0247945522666151
 20
0.3874220120599454
  0
LWPOLYLINE
  5
7DE1B343D9D89AE
330
7DE1B343D9D8AF9
100
AcDbEntity
  8
TEXT
100
AcDbPolyline
 90
        3
 70
     0
 43
0.0006660908203125
 10
-0.0617972543740097
 20
0.5006574515130731
 10
-0.0617972543740097
 20
0.4140656448724465
 10
0.0247945522666151
 20
0.4140656448724465
  0
LWPOLYLINE
  5
7DE1B343D9D89B3
330
7DE1B343D9D8AF9
100
AcDbEntity
  8
TEXT
100
AcDbPolyline
 90
        2
 70
     0
 43
0.0001332181640625
 10
-0.0151708969521329
 20
0.5106488138177583
 10
-0.0884408871865072
 20
0.5006574515130731
  0
LWPOLYLINE
  5
7DE1B343D9D89B7
330
7DE1B343D9D8AF9
100
AcDbEntity
  8
TEXT
100
AcDbPolyline
 90
        2
 70
     0
 43
0.0001332181640625
 10
-0.0617972543740097
 20
0.5006574515130731
 10
-0.0018490805458824
 20
0.5106488138177583
  0
LWPOLYLINE
  5
7DE1B343D9D89BB
330
7DE1B343D9D8AF9
100
AcDbEntity
  8
TEXT
100
AcDbPolyline
 90
        2
 70
     0
 43
0.0001332181640625
 10
-0.0617972543740097
 20
0.4140656448724465
 10
-0.0018490805458824
 20
0.4740138187005721
  0
LWPOLYLINE
  5
7DE1B343D9D89BF
330
7DE1B343D9D8AF9
100
AcDbEntity
  8
TEXT
100
AcDbPolyline
 90
        3
 70
     0
 43
0.0006660908203125
 10
0.0247945522666151
 20
0.6538583401849487
 10
-0.0884408871865072
 20
0.6538583401849487
 10
-0.0884408871865072
 20
0.5406229007318211
  0
LWPOLYLINE
  5
7DE1B343D9D89C4
330
7DE1B343D9D8AF9
100
AcDbEntity
  8
TEXT
100
AcDbPolyline
 90
        3
 70
     0
 43
0.0006660908203125
 10
0.0247945522666151
 20
0.6272147073724477
 10
-0.0617972543740097
 20
0.6272147073724477
 10
-0.0617972543740097
 20
0.5406229007318211
  0
LWPOLYLINE
  5
7DE1B343D9D89C9
330
7DE1B343D9D8AF9
100
AcDbEntity
  8
TEXT
100
AcDbPolyline
 90
        2
 70
     0
 43
0.0001332181640625
 10
-0.0617972543740097
 20
0.6272147073724477
 10
-0.0018490805458842
 20
0.5672665335443221
  0
LWPOLYLINE
  5
7DE1B343D9D89CD
330
7DE1B343D9D8AF9
100
AcDbEntity
  8
TEXT
100
AcDbPolyline
 90
        2
 70
     0
 43
0.0001332181640625
 10
-0.0617972543740097
 20
0.5406229007318211
 10
-0.0018490805458842
 20
0.5306315384271323
  0
LWPOLYLINE
  5
7DE1B343D9D89D1
330
7DE1B343D9D8AF9
100
AcDbEntity
  8
TEXT
100
AcDbPolyline
 90
        2
 70
     0
 43
0.0001332181640625
 10
-0.0884408871865072
 20
0.5406229007318211
 10
-0.0151708969521329
 20
0.5306315384271323
  0
LWPOLYLINE
  5
7DE1B343D9D89D5
330
7DE1B343D9D8AF9
100
AcDbEntity
  8
TEXT
100
AcDbPolyline
 90
        2
 70
     0
 43
0.0006660908203125
 10
-0.0617972543740097
 20
0.5006574515130731
 10
-0.0884408871865072
 20
0.5006574515130731
  0
LWPOLYLINE
  5
7DE1B343D9D89D9
330
7DE1B343D9D8AF9
100
AcDbEntity
  8
TEXT
100
AcDbPolyline
 90
        2
 70
     0
 43
0.0006660908203125
 10
-0.0617972543740097
 20
0.5406229007318211
 10
-0.0884408871865072
 20
0.5406229007318211
  0
LINE
  5
7DE1B343D9D89DD
330
7DE1B343D9D8AF9
100
AcDbEntity
  8
TEXT
100
AcDbLine
 10
1.42674954193999
 20
0.5895816455281797
 30
0.0
 11
1.3195432685527
 21
0.5895816455281797
 31
0.0
  0
LINE
  5
7DE1B343D9D89DE
330
7DE1B343D9D8AF9
100
AcDbEntity
  8
TEXT
100
AcDbLine
 10
1.455780440284468
 20
0.6538583401849452
 30
0.0
 11
1.320948531067409
 21
0.6538583401849452
 31
0.0
  0
ARC
  5
7DE1B343D9D89DF
330
7DE1B343D9D8AF9
100
AcDbEntity
  8
TEXT
100
AcDbCircle
 10
1.380262627460726
 20
0.4846210909219289
 30
0.0
 40
0.0676855811441166
100
AcDbArc
 50
90.0
 51
153.7768192527749
  0
LWPOLYLINE
  5
7DE1B343D9D89E0
330
7DE1B343D9D8AF9
100
AcDbEntity
  8
TEXT
100
AcDbPolyline
 90
        2
 70
     0
 43
0.0
 10
1.31851077309789
 20
0.4308762521468723
 42
0.2901071551932823
 10
1.361586705965526
 20
0.3873853071964342
 42
5.328517124445801
  0
ARC
  5
7DE1B343D9D89E4
330
7DE1B343D9D8AF9
100
AcDbEntity
  8
TEXT
100
AcDbCircle
 10
0.6751312497892408
 20
0.447177698534484
 30
0.0
 40
0.0601160179737537
100
AcDbArc
 50
180.0000000000003
 51
264.0521544866073
  0
LINE
  5
7DE1B343D9D89E5
330
7DE1B343D9D8AF9
100
AcDbEntity
  8
TEXT
100
AcDbLine
 10
0.6786466054147886
 20
0.6882462577790834
 30
0.0
 11
0.6186040005707816
 21
0.6882462577790834
 31
0.0
  0
ARC
  5
7DE1B343D9D89E6
330
7DE1B343D9D8AF9
100
AcDbEntity
  8
TEXT
100
AcDbCircle
 10
0.4428722476722702
 20
0.5717708807384434
 30
0.0
 40
0.0820874594465043
100
AcDbArc
 50
90.0
 51
270.0
  0
LWPOLYLINE
  5
7DE1B343D9D89E7
330
7DE1B343D9D8AF9
100
AcDbEntity
  8
TEXT
100
AcDbPolyline
 90
        2
 70
     0
 43
0.0001332181640625
 10
0.0347859145713057
 20
0.5805883499505691
 10
0.0247945522666151
 20
0.6538583401849487
  0
LWPOLYLINE
  5
7DE1B343D9D89EB
330
7DE1B343D9D8AF9
100
AcDbEntity
  8
TEXT
100
AcDbPolyline
 90
        2
 70
     0
 43
0.0001332181640625
 10
0.0247945522666151
 20
0.6272147073724477
 10
0.0347859145713057
 20
0.5672665335443221
  0
LWPOLYLINE
  5
7DE1B343D9D89EF
330
7DE1B343D9D8AF9
100
AcDbEntity
  8
TEXT
100
AcDbPolyline
 90
        3
 70
     0
 43
0.0006660908203125
 10
0.1779954409384925
 20
0.5406229007318211
 10
0.1779954409384925
 20
0.6538583401849487
 10
0.0647600014853667
 20
0.6538583401849487
  0
LWPOLYLINE
  5
7DE1B343D9D89F4
330
7DE1B343D9D8AF9
100
AcDbEntity
  8
TEXT
100
AcDbPolyline
 90
        3
 70
     0
 43
0.0006660908203125
 10
0.1513518081259915
 20
0.5406229007318211
 10
0.1513518081259915
 20
0.6272147073724477
 10
0.0647600014853667
 20
0.6272147073724477
  0
LWPOLYLINE
  5
7DE1B343D9D89F9
330
7DE1B343D9D8AF9
100
AcDbEntity
  8
TEXT
100
AcDbPolyline
 90
        2
 70
     0
 43
0.0001332181640625
 10
0.1513518081259915
 20
0.6272147073724477
 10
0.0914036342978677
 20
0.5672665335443221
  0
LWPOLYLINE
  5
7DE1B343D9D89FD
330
7DE1B343D9D8AF9
100
AcDbEntity
  8
TEXT
100
AcDbPolyline
 90
        2
 70
     0
 43
0.0001332181640625
 10
0.0647600014853667
 20
0.6272147073724477
 10
0.0547686391806779
 20
0.5672665335443221
  0
LWPOLYLINE
  5
7DE1B343D9D8A01
330
7DE1B343D9D8AF9
100
AcDbEntity
  8
TEXT
100
AcDbPolyline
 90
        2
 70
     0
 43
0.0001332181640625
 10
0.0647600014853667
 20
0.6538583401849487
 10
0.0547686391806779
 20
0.5805883499505691
  0
LWPOLYLINE
  5
7DE1B343D9D8A05
330
7DE1B343D9D8AF9
100
AcDbEntity
  8
TEXT
100
AcDbPolyline
 90
        2
 70
     0
 43
0.0001332181640625
 10
0.1047254507041164
 20
0.5306315384271323
 10
0.1779954409384925
 20
0.5406229007318211
  0
LWPOLYLINE
  5
7DE1B343D9D8A09
330
7DE1B343D9D8AF9
100
AcDbEntity
  8
TEXT
100
AcDbPolyline
 90
        2
 70
     0
 43
0.0001332181640625
 10
0.1513518081259915
 20
0.5406229007318211
 10
0.0914036342978677
 20
0.5306315384271323
  0
LWPOLYLINE
  5
7DE1B343D9D8A0D
330
7DE1B343D9D8AF9
100
AcDbEntity
  8
TEXT
100
AcDbPolyline
 90
        2
 70
     0
 43
0.0001332181640625
 10
0.1779954409384925
 20
0.5006574515130731
 10
0.1047254507041164
 20
0.5106488138177583
  0
LWPOLYLINE
  5
7DE1B343D9D8A11
330
7DE1B343D9D8AF9
100
AcDbEntity
  8
TEXT
100
AcDbPolyline
 90
        2
 70
     0
 43
0.0001332181640625
 10
0.1513518081259915
 20
0.5006574515130731
 10
0.0914036342978677
 20
0.5106488138177583
  0
LWPOLYLINE
  5
7DE1B343D9D8A15
330
7DE1B343D9D8AF9
100
AcDbEntity
  8
TEXT
100
AcDbPolyline
 90
        2
 70
     0
 43
0.0001332181640625
 10
0.1513518081259915
 20
0.4140656448724465
 10
0.0914036342978677
 20
0.4740138187005721
  0
LWPOLYLINE
  5
7DE1B343D9D8A19
330
7DE1B343D9D8AF9
100
AcDbEntity
  8
TEXT
100
AcDbPolyline
 90
        3
 70
     0
 43
0.0006660908203125
 10
0.0647600014853667
 20
0.4140656448724465
 10
0.1513518081259915
 20
0.4140656448724465
 10
0.1513518081259915
 20
0.5006574515130731
  0
LWPOLYLINE
  5
7DE1B343D9D8A1E
330
7DE1B343D9D8AF9
100
AcDbEntity
  8
TEXT
100
AcDbPolyline
 90
        3
 70
     0
 43
0.0006660908203125
 10
0.0647600014853667
 20
0.3874220120599454
 10
0.1779954409384925
 20
0.3874220120599454
 10
0.1779954409384925
 20
0.5006574515130731
  0
LWPOLYLINE
  5
7DE1B343D9D8A23
330
7DE1B343D9D8AF9
100
AcDbEntity
  8
TEXT
100
AcDbPolyline
 90
        5
 70
     0
 43
0.0001332181640625
 10
0.0347859145713057
 20
0.4606920022943215
 10
0.0347859145713057
 20
0.4740138187005721
 10
-0.0018490805458824
 20
0.4740138187005721
 10
-0.0018490805458824
 20
0.5106488138177583
 10
-0.0151708969521329
 20
0.5106488138177583
  0
LWPOLYLINE
  5
7DE1B343D9D8A2A
330
7DE1B343D9D8AF9
100
AcDbEntity
  8
TEXT
100
AcDbPolyline
 90
        2
 70
     0
 43
0.0006660908203125
 10
0.0247945522666151
 20
0.4140656448724465
 10
0.0247945522666151
 20
0.3874220120599454
  0
LWPOLYLINE
  5
7DE1B343D9D8A2E
330
7DE1B343D9D8AF9
100
AcDbEntity
  8
TEXT
100
AcDbPolyline
 90
        2
 70
     0
 43
0.0001332181640625
 10
0.0247945522666151
 20
0.4140656448724465
 10
0.0347859145713057
 20
0.4740138187005721
  0
LWPOLYLINE
  5
7DE1B343D9D8A32
330
7DE1B343D9D8AF9
100
AcDbEntity
  8
TEXT
100
AcDbPolyline
 90
        2
 70
     0
 43
0.0001332181640625
 10
0.0247945522666151
 20
0.3874220120599454
 10
0.0347859145713057
 20
0.4606920022943215
  0
LWPOLYLINE
  5
7DE1B343D9D8A36
330
7DE1B343D9D8AF9
100
AcDbEntity
  8
TEXT
100
AcDbPolyline
 90
        5
 70
     0
 43
0.0001332181640625
 10
-0.0151708969521329
 20
0.5306315384271323
 10
-0.0018490805458842
 20
0.5306315384271323
 10
-0.0018490805458842
 20
0.5672665335443221
 10
0.0347859145713057
 20
0.5672665335443221
 10
0.0347859145713057
 20
0.5805883499505691
  0
LWPOLYLINE
  5
7DE1B343D9D8A3D
330
7DE1B343D9D8AF9
100
AcDbEntity
  8
TEXT
100
AcDbPolyline
 90
        5
 70
     0
 43
0.0001332181640625
 10
0.0547686391806779
 20
0.5805883499505691
 10
0.0547686391806779
 20
0.5672665335443221
 10
0.0914036342978677
 20
0.5672665335443221
 10
0.0914036342978677
 20
0.5306315384271323
 10
0.1047254507041164
 20
0.5306315384271323
  0
LWPOLYLINE
  5
7DE1B343D9D8A44
330
7DE1B343D9D8AF9
100
AcDbEntity
  8
TEXT
100
AcDbPolyline
 90
        2
 70
     0
 43
0.0001332181640625
 10
0.0647600014853667
 20
0.4140656448724465
 10
0.0547686391806779
 20
0.4740138187005721
  0
LWPOLYLINE
  5
7DE1B343D9D8A48
330
7DE1B343D9D8AF9
100
AcDbEntity
  8
TEXT
100
AcDbPolyline
 90
        2
 70
     0
 43
0.0001332181640625
 10
0.0547686391806779
 20
0.4606920022943215
 10
0.0647600014853667
 20
0.3874220120599454
  0
LWPOLYLINE
  5
7DE1B343D9D8A4C
330
7DE1B343D9D8AF9
100
AcDbEntity
  8
TEXT
100
AcDbPolyline
 90
        2
 70
     0
 43
0.0006660908203125
 10
0.0647600014853667
 20
0.4140656448724465
 10
0.0647600014853667
 20
0.3874220120599454
  0
LWPOLYLINE
  5
7DE1B343D9D8A50
330
7DE1B343D9D8AF9
100
AcDbEntity
  8
TEXT
100
AcDbPolyline
 90
        5
 70
     0
 43
0.0001332181640625
 10
0.1047254507041164
 20
0.5106488138177583
 10
0.0914036342978677
 20
0.5106488138177583
 10
0.0914036342978677
 20
0.4740138187005721
 10
0.0547686391806779
 20
0.4740138187005721
 10
0.0547686391806779
 20
0.4606920022943215
  0
LWPOLYLINE
  5
7DE1B343D9D8A57
330
7DE1B343D9D8AF9
100
AcDbEntity
  8
TEXT
100
AcDbPolyline
 90
        2
 70
     0
 43
0.0006660908203125
 10
0.1513518081259915
 20
0.5406229007318211
 10
0.1779954409384925
 20
0.5406229007318211
  0
LWPOLYLINE
  5
7DE1B343D9D8A5B
330
7DE1B343D9D8AF9
100
AcDbEntity
  8
TEXT
100
AcDbPolyline
 90
        2
 70
     0
 43
0.0006660908203125
 10
0.1513518081259915
 20
0.5006574515130731
 10
0.1779954409384925
 20
0.5006574515130731
  0
LINE
  5
7DE1B343D9D8A5F
330
7DE1B343D9D8AF9
100
AcDbEntity
  8
TEXT
100
AcDbLine
 10
0.4481095777865174
 20
0.5895816455281797
 30
0.0
 11
0.6150152318154887
 21
0.5895816455281797
 31
0.0
  0
LINE
  5
7DE1B343D9D8A60
330
7DE1B343D9D8AF9
100
AcDbEntity
  8
TEXT
100
AcDbLine
 10
0.5137097140308185
 20
0.5537769239175519
 30
0.0
 11
0.4481095777865174
 21
0.5537769239175519
 31
0.0
  0
LINE
  5
7DE1B343D9D8A61
330
7DE1B343D9D8AF9
100
AcDbEntity
  8
TEXT
100
AcDbLine
 10
0.3607847882257658
 20
0.3873853071964342
 30
0.0
 11
0.5137097140308185
 21
0.3873853071964342
 31
0.0
  0
LINE
  5
7DE1B343D9D8A62
330
7DE1B343D9D8AF9
100
AcDbEntity
  8
TEXT
100
AcDbLine
 10
0.5186500879370981
 20
0.4557423135298735
 30
0.0
 11
0.360784788225764
 21
0.4557423135298735
 31
0.0
  0
LINE
  5
7DE1B343D9D8A63
330
7DE1B343D9D8AF9
100
AcDbEntity
  8
TEXT
100
AcDbLine
 10
0.4428722476722693
 20
0.4896834212919381
 30
0.0
 11
0.5186500879370981
 21
0.4896834212919381
 31
0.0
  0
ARC
  5
7DE1B343D9D8A64
330
7DE1B343D9D8AF9
100
AcDbEntity
  8
TEXT
100
AcDbCircle
 10
0.4481095777865183
 20
0.5716792847228676
 30
0.0
 40
0.017902360805315
100
AcDbArc
 50
90.0
 51
270.0
  0
LINE
  5
7DE1B343D9D8A65
330
7DE1B343D9D8AF9
100
AcDbEntity
  8
TEXT
100
AcDbLine
 10
0.360784788225764
 20
0.4557423135298735
 30
0.0
 11
0.3607847882257658
 21
0.3873853071964342
 31
0.0
  0
LINE
  5
7DE1B343D9D8A66
330
7DE1B343D9D8AF9
100
AcDbEntity
  8
TEXT
100
AcDbLine
 10
0.6150152318154887
 20
0.5895816455281797
 30
0.0
 11
0.6150152318154887
 21
0.447177698534484
 31
0.0
  0
ARC
  5
7DE1B343D9D8A67
330
7DE1B343D9D8AF9
100
AcDbEntity
  8
TEXT
100
AcDbCircle
 10
0.5137097140308194
 20
0.4705811155569913
 30
0.0
 40
0.0831958083605586
100
AcDbArc
 50
270.0
 51
90.0
  0
ARC
  5
7DE1B343D9D8A68
330
7DE1B343D9D8AF9
100
AcDbEntity
  8
TEXT
100
AcDbCircle
 10
0.518650087937099
 20
0.4727128674109076
 30
0.0
 40
0.0169705538810321
100
AcDbArc
 50
270.0
 51
90.0
  0
LWPOLYLINE
  5
7DE1B343D9D8A69
330
7DE1B343D9D8AF9
100
AcDbEntity
  8
TEXT
100
AcDbPolyline
 90
        2
 70
     0
 43
0.0006660908203125
 10
0.0247945522666151
 20
0.6272147073724477
 10
0.0247945522666151
 20
0.6538583401849487
  0
LWPOLYLINE
  5
7DE1B343D9D8A6D
330
7DE1B343D9D8AF9
100
AcDbEntity
  8
TEXT
100
AcDbPolyline
 90
        2
 70
     0
 43
0.0006660908203125
 10
0.0647600014853667
 20
0.6272147073724477
 10
0.0647600014853667
 20
0.6538583401849487
  0
LINE
  5
7DE1B343D9D8A71
330
7DE1B343D9D8AF9
100
AcDbEntity
  8
TEXT
100
AcDbLine
 10
0.6186040005707816
 20
0.6538583401849452
 30
0.0
 11
0.4428722476722693
 21
0.6538583401849452
 31
0.0
  0
LINE
  5
7DE1B343D9D8A72
330
7DE1B343D9D8AF9
100
AcDbEntity
  8
TEXT
100
AcDbLine
 10
0.6186040005707816
 20
0.6882462577790834
 30
0.0
 11
0.6186040005707816
 21
0.6538583401849452
 31
0.0
  0
LINE
  5
7DE1B343D9D8A73
330
7DE1B343D9D8AF9
100
AcDbEntity
  8
TEXT
100
AcDbLine
 10
0.8090758925906339
 20
0.5529863440718246
 30
0.0
 11
0.750445571558696
 21
0.6538583401849452
 31
0.0
  0
LINE
  5
7DE1B343D9D8A74
330
7DE1B343D9D8AF9
100
AcDbEntity
  8
TEXT
100
AcDbLine
 10
0.8678244553964994
 20
0.6538583401849452
 30
0.0
 11
0.8090758925906339
 21
0.5529863440718246
 31
0.0
  0
LINE
  5
7DE1B343D9D8A75
330
7DE1B343D9D8AF9
100
AcDbEntity
  8
TEXT
100
AcDbLine
 10
0.9647550807562407
 20
0.4697731452994334
 30
0.0
 11
0.9647550807562407
 21
0.7218698179237557
 31
0.0
  0
LINE
  5
7DE1B343D9D8A76
330
7DE1B343D9D8AF9
100
AcDbEntity
  8
TEXT
100
AcDbLine
 10
0.9970669348939008
 20
0.6538583401849452
 30
0.0
 11
0.9970669348939008
 21
0.452994133452537
 31
0.0
  0
LINE
  5
7DE1B343D9D8A77
330
7DE1B343D9D8AF9
100
AcDbEntity
  8
TEXT
100
AcDbLine
 10
0.9970669348939008
 20
0.452994133452537
 30
0.0
 11
0.9800732980092995
 21
0.452994133452537
 31
0.0
  0
LINE
  5
7DE1B343D9D8A78
330
7DE1B343D9D8AF9
100
AcDbEntity
  8
TEXT
100
AcDbLine
 10
0.9658946542524354
 20
0.3873853071964342
 30
0.0
 11
1.063897987951869
 21
0.3873853071964342
 31
0.0
  0
LINE
  5
7DE1B343D9D8A79
330
7DE1B343D9D8AF9
100
AcDbEntity
  8
TEXT
100
AcDbLine
 10
0.7994756555936795
 20
0.4073438133014471
 30
0.0
 11
0.8967753616871242
 21
0.5716940242367153
 31
0.0
  0
ARC
  5
7DE1B343D9D8A7A
330
7DE1B343D9D8AF9
100
AcDbEntity
  8
TEXT
100
AcDbCircle
 10
0.7654320956814656
 20
0.4269330294701299
 30
0.0
 40
0.0392772371940762
100
AcDbArc
 50
270.1604552698595
 51
330.0831797321295
  0
LINE
  5
7DE1B343D9D8A7B
330
7DE1B343D9D8AF9
100
AcDbEntity
  8
TEXT
100
AcDbLine
 10
0.6689018392955944
 20
0.3873853071964342
 30
0.0
 11
0.7655420903705888
 21
0.3876559462947165
 31
0.0
  0
LWPOLYLINE
  5
7DE1B343D9D8A7C
330
7DE1B343D9D8AF9
100
AcDbEntity
  8
TEXT
100
AcDbPolyline
 90
        6
 70
     1
 43
0.0
 10
0.711425642870744
 20
0.5895816455281797
 10
0.6811090486505358
 20
0.5895816455281797
 10
0.6811090486505358
 20
0.4664706474732854
 42
0.407328721240804
 10
0.6926526998120122
 20
0.4546517327968993
 10
0.753274398856743
 20
0.4546517327968993
 10
0.770739739264061
 20
0.4874639618403785
  0
LINE
  5
7DE1B343D9D8A84
330
7DE1B343D9D8AF9
100
AcDbEntity
  8
TEXT
100
AcDbLine
 10
0.8967753616871242
 20
0.5716940242367153
 30
0.0
 11
0.8967753616871242
 21
0.4389366494113589
 31
0.0
  0
ARC
  5
7DE1B343D9D8A85
330
7DE1B343D9D8AF9
100
AcDbEntity
  8
TEXT
100
AcDbCircle
 10
0.9800732980092977
 20
0.4683759396959624
 30
0.0
 40
0.0153818062434269
100
AcDbArc
 50
174.7883570302258
 51
270.0
  0
LWPOLYLINE
  5
7DE1B343D9D8A86
330
7DE1B343D9D8AF9
100
AcDbEntity
  8
TEXT
100
AcDbPolyline
 90
        2
 70
     0
 43
0.0
 10
0.8967753616871224
 20
0.4389366494113625
 42
0.3318488747599744
 10
0.9658946542524354
 20
0.3873853071964342
 42
-6.868794160588311
  0
LINE
  5
7DE1B343D9D8A8A
330
7DE1B343D9D8AF9
100
AcDbEntity
  8
TEXT
100
AcDbLine
 10
1.121287056941131
 20
0.3873853071964342
 30
0.0
 11
1.188345103722971
 21
0.3873853071964342
 31
0.0
  0
LINE
  5
7DE1B343D9D8A8B
330
7DE1B343D9D8AF9
100
AcDbEntity
  8
TEXT
100
AcDbLine
 10
1.121287056941131
 20
0.5820278563620698
 30
0.0
 11
1.121287056941131
 21
0.3873853071964342
 31
0.0
  0
LINE
  5
7DE1B343D9D8A8C
330
7DE1B343D9D8AF9
100
AcDbEntity
  8
TEXT
100
AcDbLine
 10
1.063897987951869
 20
0.5895816455281797
 30
0.0
 11
1.113733267775017
 21
0.5895816455281797
 31
0.0
  0
LINE
  5
7DE1B343D9D8A8D
330
7DE1B343D9D8AF9
100
AcDbEntity
  8
TEXT
100
AcDbLine
 10
1.063897987951869
 20
0.3873853071964342
 30
0.0
 11
1.063897987951869
 21
0.5895816455281797
 31
0.0
  0
LWPOLYLINE
  5
7DE1B343D9D8A8E
330
7DE1B343D9D8AF9
100
AcDbEntity
  8
TEXT
100
AcDbPolyline
 90
        2
 70
     0
 43
0.0
 10
1.113733267775015
 20
0.5895816455281797
 42
-0.4142135623731017
 10
1.121287056941129
 20
0.5820278563620698
 42
-0.9999999999999998
  0
LINE
  5
7DE1B343D9D8A92
330
7DE1B343D9D8AF9
100
AcDbEntity
  8
TEXT
100
AcDbLine
 10
1.3195432685527
 20
0.5895816455281797
 30
0.0
 11
1.3195432685527
 21
0.5145292394539731
 31
0.0
  0
LINE
  5
7DE1B343D9D8A93
330
7DE1B343D9D8AF9
100
AcDbEntity
  8
TEXT
100
AcDbLine
 10
1.188345103722971
 20
0.5895816455281797
 30
0.0
 11
1.242478700643921
 21
0.5895816455281797
 31
0.0
  0
LINE
  5
7DE1B343D9D8A94
330
7DE1B343D9D8AF9
100
AcDbEntity
  8
TEXT
100
AcDbLine
 10
1.188345103722971
 20
0.3873853071964342
 30
0.0
 11
1.188345103722971
 21
0.5895816455281797
 31
0.0
  0
LWPOLYLINE
  5
7DE1B343D9D8A95
330
7DE1B343D9D8AF9
100
AcDbEntity
  8
TEXT
100
AcDbPolyline
 90
        2
 70
     0
 43
0.0
 10
1.242478700643919
 20
0.5895816455281797
 42
-0.4142135623731017
 10
1.250032489810033
 20
0.5820278563620698
 42
-0.9999999999999998
  0
LWPOLYLINE
  5
7DE1B343D9D8A99
330
7DE1B343D9D8AF9
100
AcDbEntity
  8
TEXT
100
AcDbPolyline
 90
        4
 70
     0
 43
0.0
 10
1.250032489810033
 20
0.5820278563620698
 10
1.250032489810033
 20
0.3873853071964342
 10
1.31851077309789
 20
0.3873853071964342
 10
1.31851077309789
 20
0.4308762521468723
 42
-1.714843617202739
  0
LINE
  5
7DE1B343D9D8A9F
330
7DE1B343D9D8AF9
100
AcDbEntity
  8
TEXT
100
AcDbLine
 10
0.6786466054147886
 20
0.6538583401849452
 30
0.0
 11
0.6786466054147886
 21
0.6882462577790834
 31
0.0
  0
LINE
  5
7DE1B343D9D8AA0
330
7DE1B343D9D8AF9
100
AcDbEntity
  8
TEXT
100
AcDbLine
 10
0.750445571558696
 20
0.6538583401849452
 30
0.0
 11
0.6786466054147886
 21
0.6538583401849452
 31
0.0
  0
LINE
  5
7DE1B343D9D8AA1
330
7DE1B343D9D8AF9
100
AcDbEntity
  8
TEXT
100
AcDbLine
 10
0.8979463681898756
 20
0.6538583401849452
 30
0.0
 11
0.8678244553964994
 21
0.6538583401849452
 31
0.0
  0
LINE
  5
7DE1B343D9D8AA2
330
7DE1B343D9D8AF9
100
AcDbEntity
  8
TEXT
100
AcDbLine
 10
0.8979463681898756
 20
0.7218698179237557
 30
0.0
 11
0.8979463681898756
 21
0.6538583401849452
 31
0.0
  0
LINE
  5
7DE1B343D9D8AA3
330
7DE1B343D9D8AF9
100
AcDbEntity
  8
TEXT
100
AcDbLine
 10
0.9647550807562407
 20
0.7218698179237557
 30
0.0
 11
0.8979463681898756
 21
0.7218698179237557
 31
0.0
  0
LWPOLYLINE
  5
7DE1B343D9D8AA4
330
7DE1B343D9D8AF9
100
AcDbEntity
  8
TEXT
100
AcDbPolyline
 90
        3
 70
     0
 43
0.0
 10
1.285166840354242
 20
0.6538583401849487
 10
1.166866681538198
 20
0.6538583401849487
 10
1.166866681538198
 20
0.6266908434240528
 42
-1.960274751411753
  0
LINE
  5
7DE1B343D9D8AA9
330
7DE1B343D9D8AF9
100
AcDbEntity
  8
TEXT
100
AcDbLine
 10
1.131084990825037
 20
0.6538583401849452
 30
0.0
 11
0.9970669348939008
 21
0.6538583401849452
 31
0.0
  0
LWPOLYLINE
  5
7DE1B343D9D8AAA
330
7DE1B343D9D8AF9
100
AcDbEntity
  8
TEXT
100
AcDbPolyline
 90
        2
 70
     0
 43
0.0
 10
1.131084990825037
 20
0.6538583401849487
 42
-0.3328679258950098
 10
1.166866681538198
 20
0.6266908434240528
 42
6.772930709997214
  0
LINE
  5
7DE1B343D9D8AAE
330
7DE1B343D9D8AF9
100
AcDbEntity
  8
TEXT
100
AcDbLine
 10
1.320948531067409
 20
0.6538583401849452
 30
0.0
 11
1.320948531067409
 21
0.6255357944153013
 31
0.0
  0
LWPOLYLINE
  5
7DE1B343D9D8AAF
330
7DE1B343D9D8AF9
100
AcDbEntity
  8
TEXT
100
AcDbPolyline
 90
        2
 70
     0
 43
0.0
 10
1.285166840354242
 20
0.6538583401849487
 42
-0.3277054968067132
 10
1.320948531067407
 20
0.6255357944153049
 42
6.667889725900311
  0
LINE
  5
7DE1B343D9D8AB3
330
7DE1B343D9D8AF9
100
AcDbEntity
  8
TEXT
100
AcDbLine
 10
1.534740379159509
 20
0.5486463616315178
 30
0.0
 11
1.490989607977608
 21
0.6308966376276631
 31
0.0
  0
LINE
  5
7DE1B343D9D8AB4
330
7DE1B343D9D8AF9
100
AcDbEntity
  8
TEXT
100
AcDbLine
 10
1.534740379159509
 20
0.6538583401849452
 30
0.0
 11
1.534740379159509
 21
0.5486463616315178
 31
0.0
  0
LINE
  5
7DE1B343D9D8AB5
330
7DE1B343D9D8AF9
100
AcDbEntity
  8
TEXT
100
AcDbLine
 10
1.762424118097878
 20
0.5779930137734071
 30
0.0
 11
1.762424118097878
 21
0.7193225459525459
 31
0.0
  0
LINE
  5
7DE1B343D9D8AB6
330
7DE1B343D9D8AF9
100
AcDbEntity
  8
TEXT
100
AcDbLine
 10
1.809522276653863
 20
0.6538583401849452
 30
0.0
 11
1.762424118097878
 21
0.5779930137734071
 31
0.0
  0
LINE
  5
7DE1B343D9D8AB7
330
7DE1B343D9D8AF9
100
AcDbEntity
  8
TEXT
100
AcDbLine
 10
1.819956993417786
 20
0.5439650972439716
 30
0.0
 11
1.884514109383491
 21
0.6538583401849452
 31
0.0
  0
LINE
  5
7DE1B343D9D8AB8
330
7DE1B343D9D8AF9
100
AcDbEntity
  8
TEXT
100
AcDbLine
 10
1.698589126875105
 20
0.3873853071964342
 30
0.0
 11
1.762967311193726
 21
0.3873853071964342
 31
0.0
  0
LWPOLYLINE
  5
7DE1B343D9D8AB9
330
7DE1B343D9D8AF9
100
AcDbEntity
  8
TEXT
100
AcDbPolyline
 90
        2
 70
     0
 43
0.0
 10
1.538680056464547
 20
0.4308762521468723
 42
-0.2901071551932486
 10
1.495604123596903
 20
0.3873853071964342
 42
-5.328517124445184
  0
ARC
  5
7DE1B343D9D8ABD
330
7DE1B343D9D8AF9
100
AcDbEntity
  8
TEXT
100
AcDbCircle
 10
1.426749541939988
 20
0.5612222705281824
 30
0.0
 40
0.028359375
100
AcDbArc
 50
25.78218179591245
 51
90.0
  0
LINE
  5
7DE1B343D9D8ABE
330
7DE1B343D9D8AF9
100
AcDbEntity
  8
TEXT
100
AcDbLine
 10
1.462550617244111
 20
0.5523066720660475
 30
0.0
 11
1.452285856830547
 21
0.5735572116387418
 31
0.0
  0
LINE
  5
7DE1B343D9D8ABF
330
7DE1B343D9D8AF9
100
AcDbEntity
  8
TEXT
100
AcDbLine
 10
1.380262627460728
 20
0.5523066720660475
 30
0.0
 11
1.462550617244111
 21
0.5523066720660475
 31
0.0
  0
LWPOLYLINE
  5
7DE1B343D9D8AC0
330
7DE1B343D9D8AF9
100
AcDbEntity
  8
TEXT
100
AcDbPolyline
 90
        4
 70
     1
 43
0.0
 10
1.47548165852701
 20
0.4903492851804594
 10
1.386821339867152
 20
0.4903492851804594
 42
0.9999999999999998
 10
1.386821339867152
 20
0.4479507446765987
 10
1.47548165852701
 20
0.4479507446765987
 42
1.0
  0
LWPOLYLINE
  5
7DE1B343D9D8AC6
330
7DE1B343D9D8AF9
100
AcDbEntity
  8
TEXT
100
AcDbPolyline
 90
        2
 70
     0
 43
0.0
 10
1.361586705965526
 20
0.3873853071964342
 10
1.495604123596903
 20
0.3873853071964342
 42
0.9999999999999998
  0
LINE
  5
7DE1B343D9D8ACA
330
7DE1B343D9D8AF9
100
AcDbEntity
  8
TEXT
100
AcDbLine
 10
1.621941145582542
 20
0.5895816455281797
 30
0.0
 11
1.6985891268751
 21
0.5895816455281797
 31
0.0
  0
LINE
  5
7DE1B343D9D8ACB
330
7DE1B343D9D8AF9
100
AcDbEntity
  8
TEXT
100
AcDbLine
 10
1.6985891268751
 20
0.5895816455281797
 30
0.0
 11
1.698589126875105
 21
0.3873853071964342
 31
0.0
  0
ARC
  5
7DE1B343D9D8ACC
330
7DE1B343D9D8AF9
100
AcDbEntity
  8
TEXT
100
AcDbCircle
 10
1.62194114558254
 20
0.564675770245517
 30
0.0
 40
0.0249058752826653
100
AcDbArc
 50
89.99971217465335
 51
179.9999999999985
  0
LINE
  5
7DE1B343D9D8ACD
330
7DE1B343D9D8AF9
100
AcDbEntity
  8
TEXT
100
AcDbLine
 10
1.597035270299883
 20
0.3873853071964342
 30
0.0
 11
1.597035270299878
 21
0.5646758126279026
 31
0.0
  0
LWPOLYLINE
  5
7DE1B343D9D8ACE
330
7DE1B343D9D8AF9
100
AcDbEntity
  8
TEXT
100
AcDbPolyline
 90
        2
 70
     0
 43
0.0
 10
1.538680056464547
 20
0.3873853071964342
 10
1.597035270299881
 20
0.3873853071964342
  0
LWPOLYLINE
  5
7DE1B343D9D8AD2
330
7DE1B343D9D8AF9
100
AcDbEntity
  8
TEXT
100
AcDbPolyline
 90
        2
 70
     0
 43
0.0
 10
1.538680056464547
 20
0.4308762521468723
 10
1.538680056464547
 20
0.3873853071964342
  0
LINE
  5
7DE1B343D9D8AD6
330
7DE1B343D9D8AF9
100
AcDbEntity
  8
TEXT
100
AcDbLine
 10
1.915449216781396
 20
0.3873853071964342
 30
0.0
 11
1.819956993417786
 21
0.5439650972439716
 31
0.0
  0
LINE
  5
7DE1B343D9D8AD7
330
7DE1B343D9D8AF9
100
AcDbEntity
  8
TEXT
100
AcDbLine
 10
1.83887084440519
 20
0.3873853071964342
 30
0.0
 11
1.915449216781396
 21
0.3873853071964342
 31
0.0
  0
LINE
  5
7DE1B343D9D8AD8
330
7DE1B343D9D8AF9
100
AcDbEntity
  8
TEXT
100
AcDbLine
 10
1.762967311193726
 20
0.5189648756726144
 30
0.0
 11
1.83887084440519
 21
0.3873853071964342
 31
0.0
  0
LINE
  5
7DE1B343D9D8AD9
330
7DE1B343D9D8AF9
100
AcDbEntity
  8
TEXT
100
AcDbLine
 10
1.762967311193726
 20
0.3873853071964342
 30
0.0
 11
1.762967311193726
 21
0.5189648756726144
 31
0.0
  0
LINE
  5
7DE1B343D9D8ADA
330
7DE1B343D9D8AF9
100
AcDbEntity
  8
TEXT
100
AcDbLine
 10
1.762424118097878
 20
0.7193225459525459
 30
0.0
 11
1.694109239548605
 21
0.7193225459525459
 31
0.0
  0
ARC
  5
7DE1B343D9D8ADB
330
7DE1B343D9D8AF9
100
AcDbEntity
  8
TEXT
100
AcDbCircle
 10
1.453753500507399
 20
0.6122747730640428
 30
0.0
 40
0.0416329381542859
100
AcDbArc
 50
26.56974201007528
 51
87.20939649401342
  0
LINE
  5
7DE1B343D9D8ADC
330
7DE1B343D9D8AF9
100
AcDbEntity
  8
TEXT
100
AcDbLine
 10
1.59863728545901
 20
0.6538583401849452
 30
0.0
 11
1.534740379159509
 21
0.6538583401849452
 31
0.0
  0
LINE
  5
7DE1B343D9D8ADD
330
7DE1B343D9D8AF9
100
AcDbEntity
  8
TEXT
100
AcDbLine
 10
1.59863728545901
 20
0.6263106903240705
 30
0.0
 11
1.59863728545901
 21
0.6538583401849452
 31
0.0
  0
ARC
  5
7DE1B343D9D8ADE
330
7DE1B343D9D8AF9
100
AcDbEntity
  8
TEXT
100
AcDbCircle
 10
1.629830102522118
 20
0.6226126129026804
 30
0.0
 40
0.0314112657011332
100
AcDbArc
 50
95.88484768694724
 51
173.2388340632136
  0
LINE
  5
7DE1B343D9D8ADF
330
7DE1B343D9D8AF9
100
AcDbEntity
  8
TEXT
100
AcDbLine
 10
1.6941092395486
 20
0.6538583401849452
 30
0.0
 11
1.626609521899083
 21
0.6538583401849452
 31
0.0
  0
LINE
  5
7DE1B343D9D8AE0
330
7DE1B343D9D8AF9
100
AcDbEntity
  8
TEXT
100
AcDbLine
 10
1.694109239548605
 20
0.7193225459525459
 30
0.0
 11
1.6941092395486
 21
0.6538583401849452
 31
0.0
  0
LINE
  5
7DE1B343D9D8AE1
330
7DE1B343D9D8AF9
100
AcDbEntity
  8
TEXT
100
AcDbLine
 10
1.884514109383491
 20
0.6538583401849452
 30
0.0
 11
1.809522276653865
 21
0.6538583401849452
 31
0.0
  0
ENDSEC
  0
SECTION
  2
OBJECTS
  0
DICTIONARY
  5
7DE1B343D9D8AED
330
0
100
AcDbDictionary
  3
ACAD_GROUP
350
7DE1B343D9D8AEE
  3
ACAD_LAYOUT
350
7DE1B343D9D8B13
  3
ACAD_MLINESTYLE
350
7DE1B343D9D8AEF
  3
ACAD_PLOTSETTINGS
350
7DE1B343D9D8B14
  3
ACAD_PLOTSTYLENAME
350
7DE1B343D9D8B11
  3
ACDBHEADERROUNDTRIPXREC
350
7DE1B343D9D8B1E
  3
ACDBVARIABLEDICTIONARY
350
7DE1B343D9D8B1B
  0
DICTIONARY
  5
7DE1B343D9D8B40
330
7DE1B343D9D8AF9
100
AcDbDictionary
280
     1
  3
ACAD_LAYOUTSELFREF
360
7DE1B343D9D8B41
  0
DICTIONARY
  5
7DE1B343D9D8B3E
330
7DE1B343D9D8AF6
100
AcDbDictionary
280
     1
  3
ACAD_LAYOUTSELFREF
360
7DE1B343D9D8B3F
  0
DICTIONARY
  5
7DE1B343D9D8AEE
102
{ACAD_REACTORS
330
7DE1B343D9D8AED
102
}
330
7DE1B343D9D8AED
100
AcDbDictionary
  0
DICTIONARY
  5
7DE1B343D9D8B13
102
{ACAD_REACTORS
330
7DE1B343D9D8AED
102
}
330
7DE1B343D9D8AED
100
AcDbDictionary
  0
DICTIONARY
  5
7DE1B343D9D8AEF
102
{ACAD_REACTORS
330
7DE1B343D9D8AED
102
}
330
7DE1B343D9D8AED
100
AcDbDictionary
  3
STANDARD
350
7DE1B343D9D8AFC
  0
DICTIONARY
  5
7DE1B343D9D8B14
102
{ACAD_REACTORS
330
7DE1B343D9D8AED
102
}
330
7DE1B343D9D8AED
100
AcDbDictionary
  0
ACDBDICTIONARYWDFLT
  5
7DE1B343D9D8B11
102
{ACAD_REACTORS
330
7DE1B343D9D8AED
102
}
330
7DE1B343D9D8AED
100
AcDbDictionary
281
     1
  3
Normal
350
7DE1B343D9D8B12
100
AcDbDictionaryWithDefault
340
7DE1B343D9D8B12
  0
DICTIONARY
  5
7DE1B343D9D8B1E
102
{ACAD_REACTORS
330
7DE1B343D9D8AED
102
}
330
7DE1B343D9D8AED
100
AcDbDictionary
  3
CEPSNTYPE
350
7DE1B343D9D8B28
  3
FINGERPRINTGUID
350
7DE1B343D9D8B29
  3
HYPERLINKBASE
350
7DE1B343D9D8B21
  3
INSUNITS
350
7DE1B343D9D8B27
  3
LAYOUTDICT
350
7DE1B343D9D8B23
  3
LWETCUNION
350
7DE1B343D9D8B26
  3
PLOTSETDICT
350
7DE1B343D9D8B24
  3
PLOTSTYLNAMDICT
350
7DE1B343D9D8B25
  3
PSVPSCALE
350
7DE1B343D9D8B2B
  3
PUCSBASE
350
7DE1B343D9D8B2E
  3
PUCSORGBACK
350
7DE1B343D9D8B34
  3
PUCSORGBOTTOM
350
7DE1B343D9D8B30
  3
PUCSORGFRONT
350
7DE1B343D9D8B33
  3
PUCSORGLEFT
350
7DE1B343D9D8B31
  3
PUCSORGRIGHT
350
7DE1B343D9D8B32
  3
PUCSORGTOP
350
7DE1B343D9D8B2F
  3
PUCSORTHOREF
350
7DE1B343D9D8B2C
  3
PUCSORTHOVIEW
350
7DE1B343D9D8B2D
  3
STYLESHEET
350
7DE1B343D9D8B22
  3
TSTACKALIGN
350
7DE1B343D9D8B1F
  3
TSTACKSIZE
350
7DE1B343D9D8B20
  3
UCSBASE
350
7DE1B343D9D8B37
  3
UCSORGBACK
350
7DE1B343D9D8B3D
  3
UCSORGBOTTOM
350
7DE1B343D9D8B39
  3
UCSORGFRONT
350
7DE1B343D9D8B3C
  3
UCSORGLEFT
350
7DE1B343D9D8B3A
  3
UCSORGRIGHT
350
7DE1B343D9D8B3B
  3
UCSORGTOP
350
7DE1B343D9D8B38
  3
UCSORTHOREF
350
7DE1B343D9D8B35
  3
UCSORTHOVIEW
350
7DE1B343D9D8B36
  3
VERSIONGUID
350
7DE1B343D9D8B2A
  0
DICTIONARY
  5
7DE1B343D9D8B1B
102
{ACAD_REACTORS
330
7DE1B343D9D8AED
102
}
330
7DE1B343D9D8AED
100
AcDbDictionary
  3
DIMASSOC
350
7DE1B343D9D8B1C
  0
XRECORD
  5
7DE1B343D9D8B41
102
{ACAD_REACTORS
330
7DE1B343D9D8B40
102
}
330
7DE1B343D9D8B40
100
AcDbXrecord
340
7DE1B343D9D8AF9
  0
XRECORD
  5
7DE1B343D9D8B3F
102
{ACAD_REACTORS
330
7DE1B343D9D8B3E
102
}
330
7DE1B343D9D8B3E
100
AcDbXrecord
340
7DE1B343D9D8AF6
  0
MLINESTYLE
  5
7DE1B343D9D8AFC
102
{ACAD_REACTORS
330
7DE1B343D9D8AEF
102
}
330
7DE1B343D9D8AEF
100
AcDbMlineStyle
  2
STANDARD
 70
     0
  3

 62
     0
 51
90.0
 52
90.0
 71
     2
 49
0.5
 62
   256
  6
BYLAYER
 49
-0.5
 62
   256
  6
BYLAYER
  0
ACDBPLACEHOLDER
  5
7DE1B343D9D8B12
102
{ACAD_REACTORS
330
7DE1B343D9D8B11
102
}
330
7DE1B343D9D8B11
100
AcDbPlaceHolder
280
     0
  0
XRECORD
  5
7DE1B343D9D8B28
102
{ACAD_REACTORS
330
7DE1B343D9D8B1E
102
}
330
7DE1B343D9D8B1E
100
AcDbXrecord
 90
        0
  0
XRECORD
  5
7DE1B343D9D8B29
102
{ACAD_REACTORS
330
7DE1B343D9D8B1E
102
}
330
7DE1B343D9D8B1E
100
AcDbXrecord
  1
{EA3EF3A0-8DB4-11D6-88E6-0090279574E7}
  0
XRECORD
  5
7DE1B343D9D8B21
102
{ACAD_REACTORS
330
7DE1B343D9D8B1E
102
}
330
7DE1B343D9D8B1E
100
AcDbXrecord
  1

  0
XRECORD
  5
7DE1B343D9D8B27
102
{ACAD_REACTORS
330
7DE1B343D9D8B1E
102
}
330
7DE1B343D9D8B1E
100
AcDbXrecord
 90
        0
  0
XRECORD
  5
7DE1B343D9D8B23
102
{ACAD_REACTORS
330
7DE1B343D9D8B1E
102
}
330
7DE1B343D9D8B1E
100
AcDbXrecord
340
7DE1B343D9D8B13
  0
XRECORD
  5
7DE1B343D9D8B26
102
{ACAD_REACTORS
330
7DE1B343D9D8B1E
102
}
330
7DE1B343D9D8B1E
100
AcDbXrecord
 90
    14877
  0
XRECORD
  5
7DE1B343D9D8B24
102
{ACAD_REACTORS
330
7DE1B343D9D8B1E
102
}
330
7DE1B343D9D8B1E
100
AcDbXrecord
340
7DE1B343D9D8B14
  0
XRECORD
  5
7DE1B343D9D8B25
102
{ACAD_REACTORS
330
7DE1B343D9D8B1E
102
}
330
7DE1B343D9D8B1E
100
AcDbXrecord
340
7DE1B343D9D8B11
  0
XRECORD
  5
7DE1B343D9D8B2B
102
{ACAD_REACTORS
330
7DE1B343D9D8B1E
102
}
330
7DE1B343D9D8B1E
100
AcDbXrecord
 40
0.0
  0
XRECORD
  5
7DE1B343D9D8B2E
102
{ACAD_REACTORS
330
7DE1B343D9D8B1E
102
}
330
7DE1B343D9D8B1E
100
AcDbXrecord
340
0
  0
XRECORD
  5
7DE1B343D9D8B34
102
{ACAD_REACTORS
330
7DE1B343D9D8B1E
102
}
330
7DE1B343D9D8B1E
100
AcDbXrecord
 10
0.0
 20
0.0
 30
0.0
  0
XRECORD
  5
7DE1B343D9D8B30
102
{ACAD_REACTORS
330
7DE1B343D9D8B1E
102
}
330
7DE1B343D9D8B1E
100
AcDbXrecord
 10
0.0
 20
0.0
 30
0.0
  0
XRECORD
  5
7DE1B343D9D8B33
102
{ACAD_REACTORS
330
7DE1B343D9D8B1E
102
}
330
7DE1B343D9D8B1E
100
AcDbXrecord
 10
0.0
 20
0.0
 30
0.0
  0
XRECORD
  5
7DE1B343D9D8B31
102
{ACAD_REACTORS
330
7DE1B343D9D8B1E
102
}
330
7DE1B343D9D8B1E
100
AcDbXrecord
 10
0.0
 20
0.0
 30
0.0
  0
XRECORD
  5
7DE1B343D9D8B32
102
{ACAD_REACTORS
330
7DE1B343D9D8B1E
102
}
330
7DE1B343D9D8B1E
100
AcDbXrecord
 10
0.0
 20
0.0
 30
0.0
  0
XRECORD
  5
7DE1B343D9D8B2F
102
{ACAD_REACTORS
330
7DE1B343D9D8B1E
102
}
330
7DE1B343D9D8B1E
100
AcDbXrecord
 10
0.0
 20
0.0
 30
0.0
  0
XRECORD
  5
7DE1B343D9D8B2C
102
{ACAD_REACTORS
330
7DE1B343D9D8B1E
102
}
330
7DE1B343D9D8B1E
100
AcDbXrecord
340
0
  0
XRECORD
  5
7DE1B343D9D8B2D
102
{ACAD_REACTORS
330
7DE1B343D9D8B1E
102
}
330
7DE1B343D9D8B1E
100
AcDbXrecord
 70
     0
  0
XRECORD
  5
7DE1B343D9D8B22
102
{ACAD_REACTORS
330
7DE1B343D9D8B1E
102
}
330
7DE1B343D9D8B1E
100
AcDbXrecord
  1

  0
XRECORD
  5
7DE1B343D9D8B1F
102
{ACAD_REACTORS
330
7DE1B343D9D8B1E
102
}
330
7DE1B343D9D8B1E
100
AcDbXrecord
 90
        1
  0
XRECORD
  5
7DE1B343D9D8B20
102
{ACAD_REACTORS
330
7DE1B343D9D8B1E
102
}
330
7DE1B343D9D8B1E
100
AcDbXrecord
 90
       70
  0
XRECORD
  5
7DE1B343D9D8B37
102
{ACAD_REACTORS
330
7DE1B343D9D8B1E
102
}
330
7DE1B343D9D8B1E
100
AcDbXrecord
340
0
  0
XRECORD
  5
7DE1B343D9D8B3D
102
{ACAD_REACTORS
330
7DE1B343D9D8B1E
102
}
330
7DE1B343D9D8B1E
100
AcDbXrecord
 10
0.0
 20
0.0
 30
0.0
  0
XRECORD
  5
7DE1B343D9D8B39
102
{ACAD_REACTORS
330
7DE1B343D9D8B1E
102
}
330
7DE1B343D9D8B1E
100
AcDbXrecord
 10
0.0
 20
0.0
 30
0.0
  0
XRECORD
  5
7DE1B343D9D8B3C
102
{ACAD_REACTORS
330
7DE1B343D9D8B1E
102
}
330
7DE1B343D9D8B1E
100
AcDbXrecord
 10
0.0
 20
0.0
 30
0.0
  0
XRECORD
  5
7DE1B343D9D8B3A
102
{ACAD_REACTORS
330
7DE1B343D9D8B1E
102
}
330
7DE1B343D9D8B1E
100
AcDbXrecord
 10
0.0
 20
0.0
 30
0.0
  0
XRECORD
  5
7DE1B343D9D8B3B
102
{ACAD_REACTORS
330
7DE1B343D9D8B1E
102
}
330
7DE1B343D9D8B1E
100
AcDbXrecord
 10
0.0
 20
0.0
 30
0.0
  0
XRECORD
  5
7DE1B343D9D8B38
102
{ACAD_REACTORS
330
7DE1B343D9D8B1E
102
}
330
7DE1B343D9D8B1E
100
AcDbXrecord
 10
0.0
 20
0.0
 30
0.0
  0
XRECORD
  5
7DE1B343D9D8B35
102
{ACAD_REACTORS
330
7DE1B343D9D8B1E
102
}
330
7DE1B343D9D8B1E
100
AcDbXrecord
340
0
  0
XRECORD
  5
7DE1B343D9D8B36
102
{ACAD_REACTORS
330
7DE1B343D9D8B1E
102
}
330
7DE1B343D9D8B1E
100
AcDbXrecord
 70
     0
  0
XRECORD
  5
7DE1B343D9D8B2A
102
{ACAD_REACTORS
330
7DE1B343D9D8B1E
102
}
330
7DE1B343D9D8B1E
100
AcDbXrecord
  1
{EA3EF3A2-8DB4-11D6-88E6-0090279574E7}
  0
DICTIONARYVAR
  5
7DE1B343D9D8B1C
102
{ACAD_REACTORS
330
7DE1B343D9D8B1B
102
}
330
7DE1B343D9D8B1B
100
DictionaryVariables
280
     0
  1
1
  0
ENDSEC
  0
EOF
