  0
SECTION
  2
HEADER
  9
$ACADVER
  1
AC1014
  9
$ACADMAINTVER
 70
     9
  9
$DWGCODEPAGE
  3
ANSI_1252
  9
$INSBASE
 10
2.423780482571061
 20
1.757959855415016
 30
0.0
  9
$EXTMIN
 10
0.6988990349256883
 20
0.7097326498995587
 30
0.0
  9
$EXTMAX
 10
4.184118356672817
 20
2.129603837163781
 30
0.0
  9
$LIMMIN
 10
0.0
 20
0.0
  9
$LIMMAX
 10
18.0
 20
12.0
  9
$ORTHOMODE
 70
     1
  9
$REGENMODE
 70
     1
  9
$FILLMODE
 70
     1
  9
$QTEXTMODE
 70
     0
  9
$MIRRTEXT
 70
     0
  9
$DRAGMODE
 70
     2
  9
$LTSCALE
 40
1.0
  9
$OSMODE
 70
    39
  9
$ATTMODE
 70
     1
  9
$TEXTSIZE
 40
0.125
  9
$TRACEWID
 40
0.05
  9
$TEXTSTYLE
  7
ROMANS
  9
$CLAYER
  8
0
  9
$CELTYPE
  6
BYLAYER
  9
$CECOLOR
 62
   256
  9
$CELTSCALE
 40
1.0
  9
$DELOBJ
 70
     1
  9
$DISPSILH
 70
     1
  9
$DIMSCALE
 40
1.0
  9
$DIMASZ
 40
0.125
  9
$DIMEXO
 40
0.125
  9
$DIMDLI
 40
0.375
  9
$DIMRND
 40
0.0
  9
$DIMDLE
 40
0.0
  9
$DIMEXE
 40
0.125
  9
$DIMTP
 40
0.0
  9
$DIMTM
 40
0.0
  9
$DIMTXT
 40
0.125
  9
$DIMCEN
 40
-0.125
  9
$DIMTSZ
 40
0.0
  9
$DIMTOL
 70
     0
  9
$DIMLIM
 70
     0
  9
$DIMTIH
 70
     1
  9
$DIMTOH
 70
     1
  9
$DIMSE1
 70
     0
  9
$DIMSE2
 70
     0
  9
$DIMTAD
 70
     0
  9
$DIMZIN
 70
     4
  9
$DIMBLK
  1

  9
$DIMASO
 70
     1
  9
$DIMSHO
 70
     1
  9
$DIMPOST
  1

  9
$DIMAPOST
  1

  9
$DIMALT
 70
     0
  9
$DIMALTD
 70
     2
  9
$DIMALTF
 40
25.4
  9
$DIMLFAC
 40
1.0
  9
$DIMTOFL
 70
     0
  9
$DIMTVP
 40
0.0
  9
$DIMTIX
 70
     1
  9
$DIMSOXD
 70
     0
  9
$DIMSAH
 70
     0
  9
$DIMBLK1
  1

  9
$DIMBLK2
  1

  9
$DIMSTYLE
  2
STANDARD
  9
$DIMCLRD
 70
     0
  9
$DIMCLRE
 70
     0
  9
$DIMCLRT
 70
     0
  9
$DIMTFAC
 40
1.0
  9
$DIMGAP
 40
0.09
  9
$DIMJUST
 70
     0
  9
$DIMSD1
 70
     0
  9
$DIMSD2
 70
     0
  9
$DIMTOLJ
 70
     1
  9
$DIMTZIN
 70
     4
  9
$DIMALTZ
 70
     0
  9
$DIMALTTZ
 70
     0
  9
$DIMFIT
 70
     3
  9
$DIMUPT
 70
     0
  9
$DIMUNIT
 70
     2
  9
$DIMDEC
 70
     3
  9
$DIMTDEC
 70
     3
  9
$DIMALTU
 70
     2
  9
$DIMALTTD
 70
     2
  9
$DIMTXSTY
  7
ROMANS
  9
$DIMAUNIT
 70
     0
  9
$LUNITS
 70
     2
  9
$LUPREC
 70
     3
  9
$SKETCHINC
 40
0.1
  9
$FILLETRAD
 40
0.03125
  9
$AUNITS
 70
     0
  9
$AUPREC
 70
     0
  9
$MENU
  1
ACAD
  9
$ELEVATION
 40
0.0
  9
$PELEVATION
 40
0.0
  9
$THICKNESS
 40
0.0
  9
$LIMCHECK
 70
     0
  9
$BLIPMODE
 70
     0
  9
$CHAMFERA
 40
0.0
  9
$CHAMFERB
 40
0.0
  9
$CHAMFERC
 40
0.0
  9
$CHAMFERD
 40
0.0
  9
$SKPOLY
 70
     0
  9
$TDCREATE
 40
2448994.382381828
  9
$TDUPDATE
 40
2452458.299955937
  9
$TDINDWG
 40
0.0005895486
  9
$TDUSRTIMER
 40
0.0005895486
  9
$USRTIMER
 70
     1
  9
$ANGBASE
 50
0.0
  9
$ANGDIR
 70
     0
  9
$PDMODE
 70
     0
  9
$PDSIZE
 40
0.0
  9
$PLINEWID
 40
0.0
  9
$COORDS
 70
     2
  9
$SPLFRAME
 70
     0
  9
$SPLINETYPE
 70
     6
  9
$SPLINESEGS
 70
     8
  9
$ATTDIA
 70
     0
  9
$ATTREQ
 70
     1
  9
$HANDLING
 70
 22529
  9
$HANDSEED
  5
7DE1B343D9D8677
  9
$SURFTAB1
 70
     6
  9
$SURFTAB2
 70
     6
  9
$SURFTYPE
 70
     6
  9
$SURFU
 70
     6
  9
$SURFV
 70
     6
  9
$UCSNAME
  2

  9
$UCSORG
 10
0.0
 20
0.0
 30
0.0
  9
$UCSXDIR
 10
1.0
 20
0.0
 30
0.0
  9
$UCSYDIR
 10
0.0
 20
1.0
 30
0.0
  9
$PUCSNAME
  2

  9
$PUCSORG
 10
0.0
 20
0.0
 30
0.0
  9
$PUCSXDIR
 10
1.0
 20
0.0
 30
0.0
  9
$PUCSYDIR
 10
0.0
 20
1.0
 30
0.0
  9
$USERI1
 70
     0
  9
$USERI2
 70
     0
  9
$USERI3
 70
     0
  9
$USERI4
 70
     0
  9
$USERI5
 70
     0
  9
$USERR1
 40
0.0
  9
$USERR2
 40
0.0
  9
$USERR3
 40
0.0
  9
$USERR4
 40
0.0
  9
$USERR5
 40
0.0
  9
$WORLDVIEW
 70
     1
  9
$SHADEDGE
 70
     3
  9
$SHADEDIF
 70
    70
  9
$TILEMODE
 70
     1
  9
$MAXACTVP
 70
    16
  9
$PINSBASE
 10
0.1797566965150144
 20
50.00000000000001
 30
0.9908536641963287
  9
$PLIMCHECK
 70
     0
  9
$PEXTMIN
 10
1.000000000000000E+20
 20
1.000000000000000E+20
 30
1.000000000000000E+20
  9
$PEXTMAX
 10
-1.000000000000000E+20
 20
-1.000000000000000E+20
 30
-1.000000000000000E+20
  9
$PLIMMIN
 10
0.0
 20
0.0
  9
$PLIMMAX
 10
12.0
 20
9.0
  9
$UNITMODE
 70
     0
  9
$VISRETAIN
 70
     0
  9
$PLINEGEN
 70
     1
  9
$PSLTSCALE
 70
     0
  9
$TREEDEPTH
 70
  3020
  9
$PICKSTYLE
 70
     1
  9
$CMLSTYLE
  2
STANDARD
  9
$CMLJUST
 70
     0
  9
$CMLSCALE
 40
1.0
  9
$PROXYGRAPHICS
 70
     1
  9
$MEASUREMENT
 70
     0
  0
ENDSEC
  0
SECTION
  2
CLASSES
  0
CLASS
  1
LWPOLYLINE
  2
AcDbPolyline
  3
AutoCAD 2000
 90
        0
280
     0
281
     1
  0
CLASS
  1
ACDBDICTIONARYWDFLT
  2
AcDbDictionaryWithDefault
  3
AutoCAD 2000
 90
        0
280
     0
281
     0
  0
CLASS
  1
ACDBPLACEHOLDER
  2
AcDbPlaceHolder
  3
AutoCAD 2000
 90
        0
280
     0
281
     0
  0
CLASS
  1
LAYOUT
  2
AcDbLayout
  3
AutoCAD 2000
 90
        0
280
     0
281
     0
  0
CLASS
  1
DICTIONARYVAR
  2
AcDbDictionaryVar
  3
AutoCAD 2000
 90
        0
280
     0
281
     0
  0
CLASS
  1
LONG_TRANSACTION
  2
AcDbLongTransaction
  3
AutoCAD 2000
 90
        0
280
     0
281
     0
  0
CLASS
  1
LWPOLYLINE
  2
AcDbPolyline
  3
AutoCAD 2000
 90
        0
280
     0
281
     1
  0
CLASS
  1
HATCH
  2
AcDbHatch
  3
AutoCAD 2000
 90
        0
280
     0
281
     1
  0
CLASS
  1
XRECORD
  2
AcDbXrecord
  3
AutoCAD 2000
 90
        0
280
     0
281
     0
  0
ENDSEC
  0
SECTION
  2
TABLES
  0
TABLE
  2
VPORT
  5
7DE1B343D9D861E
330
0
100
AcDbSymbolTable
 70
     2
  0
VPORT
  5
7DE1B343D9D8652
330
7DE1B343D9D861E
100
AcDbSymbolTableRecord
100
AcDbViewportTableRecord
  2
*ACTIVE
 70
     0
 10
0.0
 20
0.0
 11
1.0
 21
1.0
 12
5.418185078196242
 22
1.419616721826159
 13
0.0
 23
0.0
 14
0.015625
 24
0.015625
 15
0.0
 25
0.0
 16
0.0
 26
0.0
 36
1.0
 17
0.0
 27
0.0
 37
0.0
 40
2.282647215150728
 41
4.320930232558139
 42
50.0
 43
0.0
 44
0.0
 50
0.0
 51
0.0
 71
     0
 72
  2000
 73
     1
 74
     0
 75
     0
 76
     0
 77
     0
 78
     0
  0
ENDTAB
  0
TABLE
  2
LTYPE
  5
7DE1B343D9D861B
330
0
100
AcDbSymbolTable
 70
     1
  0
LTYPE
  5
7DE1B343D9D8628
330
7DE1B343D9D861B
100
AcDbSymbolTableRecord
100
AcDbLinetypeTableRecord
  2
BYBLOCK
 70
     0
  3

 72
    65
 73
     0
 40
0.0
  0
LTYPE
  5
7DE1B343D9D8629
330
7DE1B343D9D861B
100
AcDbSymbolTableRecord
100
AcDbLinetypeTableRecord
  2
BYLAYER
 70
     0
  3

 72
    65
 73
     0
 40
0.0
  0
LTYPE
  5
7DE1B343D9D862A
330
7DE1B343D9D861B
100
AcDbSymbolTableRecord
100
AcDbLinetypeTableRecord
  2
CONTINUOUS
 70
     0
  3
Solid line
 72
    65
 73
     0
 40
0.0
  0
ENDTAB
  0
TABLE
  2
LAYER
  5
7DE1B343D9D8618
330
0
100
AcDbSymbolTable
 70
     2
  0
LAYER
  5
7DE1B343D9D8625
330
7DE1B343D9D8618
100
AcDbSymbolTableRecord
100
AcDbLayerTableRecord
  2
0
 70
     0
 62
     7
  6
CONTINUOUS
  0
LAYER
  5
7DE1B343D9D8635
330
7DE1B343D9D8618
100
AcDbSymbolTableRecord
100
AcDbLayerTableRecord
  2
TEXT
 70
     0
 62
     3
  6
CONTINUOUS
  0
ENDTAB
  0
TABLE
  2
STYLE
  5
7DE1B343D9D8619
330
0
100
AcDbSymbolTable
 70
     3
  0
STYLE
  5
7DE1B343D9D8626
330
7DE1B343D9D8619
100
AcDbSymbolTableRecord
100
AcDbTextStyleTableRecord
  2
STANDARD
 70
     0
 40
0.0
 41
1.0
 50
0.0
 71
     0
 42
0.3125
  3
txt
  4

  0
STYLE
  5
7DE1B343D9D8632
330
7DE1B343D9D8619
100
AcDbSymbolTableRecord
100
AcDbTextStyleTableRecord
  2
ITALICC
 70
     0
 40
0.0
 41
1.0
 50
0.0
 71
     0
 42
0.125
  3
italicc
  4

  0
STYLE
  5
7DE1B343D9D8642
330
7DE1B343D9D8619
100
AcDbSymbolTableRecord
100
AcDbTextStyleTableRecord
  2
ROMANS
 70
     0
 40
0.0
 41
1.0
 50
0.0
 71
     0
 42
0.125
  3
romans.shx
  4

  0
ENDTAB
  0
TABLE
  2
VIEW
  5
7DE1B343D9D861C
330
0
100
AcDbSymbolTable
 70
     0
  0
ENDTAB
  0
TABLE
  2
UCS
  5
7DE1B343D9D861D
330
0
100
AcDbSymbolTable
 70
     0
  0
ENDTAB
  0
TABLE
  2
APPID
  5
7DE1B343D9D861F
330
0
100
AcDbSymbolTable
 70
     1
  0
APPID
  5
7DE1B343D9D8627
330
7DE1B343D9D861F
100
AcDbSymbolTableRecord
100
AcDbRegAppTableRecord
  2
ACAD
 70
     0
  0
ENDTAB
  0
TABLE
  2
DIMSTYLE
  5
7DE1B343D9D8620
330
0
100
AcDbSymbolTable
 70
     1
  0
DIMSTYLE
105
7DE1B343D9D863A
330
7DE1B343D9D8620
100
AcDbSymbolTableRecord
100
AcDbDimStyleTableRecord
  2
STANDARD
 70
     0
  3

  4

  5

  6

  7

 40
1.0
 41
0.125
 42
0.125
 43
0.375
 44
0.125
 45
0.0
 46
0.0
 47
0.0
 48
0.0
140
0.125
141
-0.125
142
0.0
143
25.4
144
1.0
145
0.0
146
1.0
147
0.09
 71
     0
 72
     0
 73
     1
 74
     1
 75
     0
 76
     0
 77
     0
 78
     4
170
     0
171
     2
172
     0
173
     0
174
     1
175
     0
176
     0
177
     0
178
     0
270
     2
271
     3
272
     3
273
     2
274
     2
340
7DE1B343D9D8642
275
     0
280
     0
281
     0
282
     0
283
     1
284
     4
285
     0
286
     0
287
     3
288
     0
  0
ENDTAB
  0
TABLE
  2
BLOCK_RECORD
  5
7DE1B343D9D8617
330
0
100
AcDbSymbolTable
 70
     0
  0
BLOCK_RECORD
  5
7DE1B343D9D862E
102
{ACAD_XDICTIONARY
360
7DE1B343D9D8675
102
}
330
7DE1B343D9D8617
100
AcDbSymbolTableRecord
100
AcDbBlockTableRecord
  2
*MODEL_SPACE
  0
BLOCK_RECORD
  5
7DE1B343D9D862B
102
{ACAD_XDICTIONARY
360
7DE1B343D9D8673
102
}
330
7DE1B343D9D8617
100
AcDbSymbolTableRecord
100
AcDbBlockTableRecord
  2
*PAPER_SPACE
  0
ENDTAB
  0
ENDSEC
  0
SECTION
  2
BLOCKS
  0
BLOCK
  5
7DE1B343D9D8638
330
7DE1B343D9D862E
100
AcDbEntity
  8
0
100
AcDbBlockBegin
  2
*MODEL_SPACE
 70
     0
 10
0.0
 20
0.0
 30
0.0
  3
*MODEL_SPACE
  1

  0
ENDBLK
  5
7DE1B343D9D8639
330
7DE1B343D9D862E
100
AcDbEntity
  8
0
100
AcDbBlockEnd
  0
BLOCK
  5
7DE1B343D9D8636
330
7DE1B343D9D862B
100
AcDbEntity
 67
     1
  8
0
100
AcDbBlockBegin
  2
*PAPER_SPACE
 70
     0
 10
0.0
 20
0.0
 30
0.0
  3
*PAPER_SPACE
  1

  0
ENDBLK
  5
7DE1B343D9D8637
330
7DE1B343D9D862B
100
AcDbEntity
 67
     1
  8
0
100
AcDbBlockEnd
  0
ENDSEC
  0
SECTION
  2
ENTITIES
  0
LWPOLYLINE
  5
7DE1B343D9D7223
330
7DE1B343D9D862E
100
AcDbEntity
  8
0
100
AcDbPolyline
 90
       21
 70
     1
 43
0.0
 10
2.334643085237706
 20
2.126860604687946
 42
0.6016424204958492
 10
2.325525116776424
 20
2.111725157024865
 10
2.363880614152831
 20
2.047890889705962
 10
2.363880614152831
 20
1.565390889705963
 42
-0.4142135623730951
 10
2.301380614152831
 20
1.502890889705963
 10
1.942380614152831
 20
1.502890889705963
 10
1.942380614152832
 20
1.627890889705963
 10
1.879880614152831
 20
1.627890889705963
 10
1.879880614152831
 20
1.502890889705963
 10
1.841525116776424
 20
1.43905662238706
 42
0.6016424204958497
 10
1.850643085237706
 20
1.423921174723979
 10
2.160811764630626
 20
1.440890889705962
 10
2.47111863872497
 20
1.423920716584151
 42
0.6016346501631481
 10
2.480236379318085
 20
1.439056176711575
 10
2.441880614152831
 20
1.502890889705963
 10
2.441880614152831
 20
1.985390889705962
 42
-0.4142135623730951
 10
2.504380614152831
 20
2.047890889705962
 10
2.925880614152831
 20
2.047890889705963
 10
2.964236379318085
 20
2.111725602700348
 42
0.6016346501631499
 10
2.95511863872497
 20
2.126861062827772
 10
2.644811764630627
 20
2.109890889705962
  0
TEXT
  5
7DE1B343D9D84D9
330
7DE1B343D9D862E
100
AcDbEntity
  8
TEXT
100
AcDbText
 10
1.68592823320045
 20
1.16775125398214
 30
0.0
 40
0.125
  1
PART #110197
  7
ITALICC
 72
     1
 11
2.441880614152831
 21
1.16775125398214
 31
0.0
100
AcDbText
  0
TEXT
  5
7DE1B343D9D84DA
330
7DE1B343D9D862E
100
AcDbEntity
  8
TEXT
100
AcDbText
 10
2.855185772403152
 20
0.7208286113097651
 30
0.0
 40
0.0522247191011236
  1
Phone  1-800-328-2495
 41
1.272321428571429
 72
     5
 11
4.184118356672815
 21
0.7208286113097651
 31
0.0
100
AcDbText
  0
TEXT
  5
7DE1B343D9D84DB
330
7DE1B343D9D862E
100
AcDbEntity
  8
TEXT
100
AcDbText
 10
2.855185772403152
 20
1.000603892208641
 30
0.0
 40
0.0522247191011236
  1
Stylmark  Incorporated
 41
1.221428571428572
 72
     5
 11
4.184118356672815
 21
1.000603892208641
 31
0.0
100
AcDbText
  0
TEXT
  5
7DE1B343D9D84DC
330
7DE1B343D9D862E
100
AcDbEntity
  8
TEXT
100
AcDbText
 10
2.855185772403152
 20
0.9073454652423492
 30
0.0
 40
0.0522247191011236
  1
6536 Main St. N.E. * P.O. Box 32008
 41
0.8388932496075362
 72
     5
 11
4.184118356672815
 21
0.9073454652423492
 31
0.0
100
AcDbText
  0
TEXT
  5
7DE1B343D9D84DD
330
7DE1B343D9D862E
100
AcDbEntity
  8
TEXT
100
AcDbText
 10
2.855185772403152
 20
0.8140870382760571
 30
0.0
 40
0.0522247191011236
  1
Minneapolis, MN 55432-0008
 41
1.11444212721585
 72
     5
 11
4.184118356672815
 21
0.8140870382760571
 31
0.0
100
AcDbText
  0
LWPOLYLINE
  5
7DE1B343D9D84DE
330
7DE1B343D9D862E
100
AcDbEntity
  8
TEXT
100
AcDbPolyline
 90
        3
 70
     0
 43
0.0006660908203125
 10
0.6992320803358445
 20
0.8344733739471998
 10
0.6992320803358445
 20
0.7212379344940723
 10
0.8124675197889668
 20
0.7212379344940723
  0
LWPOLYLINE
  5
7DE1B343D9D84E3
330
7DE1B343D9D862E
100
AcDbEntity
  8
TEXT
100
AcDbPolyline
 90
        3
 70
     0
 43
0.0006660908203125
 10
0.725875713148342
 20
0.8344733739471998
 10
0.725875713148342
 20
0.7478815673065733
 10
0.8124675197889668
 20
0.7478815673065733
  0
LWPOLYLINE
  5
7DE1B343D9D84E8
330
7DE1B343D9D862E
100
AcDbEntity
  8
TEXT
100
AcDbPolyline
 90
        2
 70
     0
 43
0.0001332181640625
 10
0.7725020705702188
 20
0.844464736251885
 10
0.6992320803358445
 20
0.8344733739471998
  0
LWPOLYLINE
  5
7DE1B343D9D84EC
330
7DE1B343D9D862E
100
AcDbEntity
  8
TEXT
100
AcDbPolyline
 90
        2
 70
     0
 43
0.0001332181640625
 10
0.725875713148342
 20
0.8344733739471998
 10
0.7858238869764694
 20
0.844464736251885
  0
LWPOLYLINE
  5
7DE1B343D9D84F0
330
7DE1B343D9D862E
100
AcDbEntity
  8
TEXT
100
AcDbPolyline
 90
        2
 70
     0
 43
0.0001332181640625
 10
0.725875713148342
 20
0.7478815673065733
 10
0.7858238869764694
 20
0.8078297411346987
  0
LWPOLYLINE
  5
7DE1B343D9D84F4
330
7DE1B343D9D862E
100
AcDbEntity
  8
TEXT
100
AcDbPolyline
 90
        3
 70
     0
 43
0.0006660908203125
 10
0.8124675197889668
 20
0.9876742626190754
 10
0.6992320803358445
 20
0.9876742626190754
 10
0.6992320803358445
 20
0.8744388231659478
  0
LWPOLYLINE
  5
7DE1B343D9D84F9
330
7DE1B343D9D862E
100
AcDbEntity
  8
TEXT
100
AcDbPolyline
 90
        3
 70
     0
 43
0.0006660908203125
 10
0.8124675197889668
 20
0.9610306298065744
 10
0.725875713148342
 20
0.9610306298065744
 10
0.725875713148342
 20
0.8744388231659478
  0
LWPOLYLINE
  5
7DE1B343D9D84FE
330
7DE1B343D9D862E
100
AcDbEntity
  8
TEXT
100
AcDbPolyline
 90
        2
 70
     0
 43
0.0001332181640625
 10
0.725875713148342
 20
0.9610306298065744
 10
0.7858238869764676
 20
0.9010824559784488
  0
LWPOLYLINE
  5
7DE1B343D9D8502
330
7DE1B343D9D862E
100
AcDbEntity
  8
TEXT
100
AcDbPolyline
 90
        2
 70
     0
 43
0.0001332181640625
 10
0.725875713148342
 20
0.8744388231659478
 10
0.7858238869764676
 20
0.864447460861259
  0
LWPOLYLINE
  5
7DE1B343D9D8506
330
7DE1B343D9D862E
100
AcDbEntity
  8
TEXT
100
AcDbPolyline
 90
        2
 70
     0
 43
0.0001332181640625
 10
0.6992320803358445
 20
0.8744388231659478
 10
0.7725020705702188
 20
0.864447460861259
  0
LWPOLYLINE
  5
7DE1B343D9D850A
330
7DE1B343D9D862E
100
AcDbEntity
  8
TEXT
100
AcDbPolyline
 90
        2
 70
     0
 43
0.0006660908203125
 10
0.725875713148342
 20
0.8344733739471998
 10
0.6992320803358445
 20
0.8344733739471998
  0
LWPOLYLINE
  5
7DE1B343D9D850E
330
7DE1B343D9D862E
100
AcDbEntity
  8
TEXT
100
AcDbPolyline
 90
        2
 70
     0
 43
0.0006660908203125
 10
0.725875713148342
 20
0.8744388231659478
 10
0.6992320803358445
 20
0.8744388231659478
  0
LINE
  5
7DE1B343D9D8512
330
7DE1B343D9D862E
100
AcDbEntity
  8
TEXT
100
AcDbLine
 10
2.214422509462341
 20
0.9233975679623064
 30
0.0
 11
2.107216236075052
 21
0.9233975679623064
 31
0.0
  0
LINE
  5
7DE1B343D9D8513
330
7DE1B343D9D862E
100
AcDbEntity
  8
TEXT
100
AcDbLine
 10
2.24345340780682
 20
0.9876742626190718
 30
0.0
 11
2.108621498589761
 21
0.9876742626190718
 31
0.0
  0
ARC
  5
7DE1B343D9D8514
330
7DE1B343D9D862E
100
AcDbEntity
  8
TEXT
100
AcDbCircle
 10
2.167935594983078
 20
0.8184370133560555
 30
0.0
 40
0.0676855811441166
100
AcDbArc
 50
90.0
 51
153.7768192527749
  0
LWPOLYLINE
  5
7DE1B343D9D8515
330
7DE1B343D9D862E
100
AcDbEntity
  8
TEXT
100
AcDbPolyline
 90
        2
 70
     0
 43
0.0
 10
2.106183740620242
 20
0.7646921745809992
 42
0.2901071551932823
 10
2.149259673487878
 20
0.721201229630561
 42
5.328517124445801
  0
ARC
  5
7DE1B343D9D8519
330
7DE1B343D9D862E
100
AcDbEntity
  8
TEXT
100
AcDbCircle
 10
1.462804217311592
 20
0.7809936209686108
 30
0.0
 40
0.0601160179737537
100
AcDbArc
 50
180.0000000000003
 51
264.0521544866073
  0
LINE
  5
7DE1B343D9D851A
330
7DE1B343D9D862E
100
AcDbEntity
  8
TEXT
100
AcDbLine
 10
1.46631957293714
 20
1.02206218021321
 30
0.0
 11
1.406276968093133
 21
1.02206218021321
 31
0.0
  0
ARC
  5
7DE1B343D9D851B
330
7DE1B343D9D862E
100
AcDbEntity
  8
TEXT
100
AcDbCircle
 10
1.230545215194621
 20
0.9055868031725701
 30
0.0
 40
0.0820874594465043
100
AcDbArc
 50
90.0
 51
270.0
  0
LWPOLYLINE
  5
7DE1B343D9D851C
330
7DE1B343D9D862E
100
AcDbEntity
  8
TEXT
100
AcDbPolyline
 90
        2
 70
     0
 43
0.0001332181640625
 10
0.8224588820936574
 20
0.9144042723846958
 10
0.8124675197889668
 20
0.9876742626190754
  0
LWPOLYLINE
  5
7DE1B343D9D8520
330
7DE1B343D9D862E
100
AcDbEntity
  8
TEXT
100
AcDbPolyline
 90
        2
 70
     0
 43
0.0001332181640625
 10
0.8124675197889668
 20
0.9610306298065744
 10
0.8224588820936574
 20
0.9010824559784488
  0
LWPOLYLINE
  5
7DE1B343D9D8524
330
7DE1B343D9D862E
100
AcDbEntity
  8
TEXT
100
AcDbPolyline
 90
        3
 70
     0
 43
0.0006660908203125
 10
0.9656684084608443
 20
0.8744388231659478
 10
0.9656684084608443
 20
0.9876742626190754
 10
0.8524329690077184
 20
0.9876742626190754
  0
LWPOLYLINE
  5
7DE1B343D9D8529
330
7DE1B343D9D862E
100
AcDbEntity
  8
TEXT
100
AcDbPolyline
 90
        3
 70
     0
 43
0.0006660908203125
 10
0.9390247756483432
 20
0.8744388231659478
 10
0.9390247756483432
 20
0.9610306298065744
 10
0.8524329690077184
 20
0.9610306298065744
  0
LWPOLYLINE
  5
7DE1B343D9D852E
330
7DE1B343D9D862E
100
AcDbEntity
  8
TEXT
100
AcDbPolyline
 90
        2
 70
     0
 43
0.0001332181640625
 10
0.9390247756483432
 20
0.9610306298065744
 10
0.8790766018202194
 20
0.9010824559784488
  0
LWPOLYLINE
  5
7DE1B343D9D8532
330
7DE1B343D9D862E
100
AcDbEntity
  8
TEXT
100
AcDbPolyline
 90
        2
 70
     0
 43
0.0001332181640625
 10
0.8524329690077184
 20
0.9610306298065744
 10
0.8424416067030296
 20
0.9010824559784488
  0
LWPOLYLINE
  5
7DE1B343D9D8536
330
7DE1B343D9D862E
100
AcDbEntity
  8
TEXT
100
AcDbPolyline
 90
        2
 70
     0
 43
0.0001332181640625
 10
0.8524329690077184
 20
0.9876742626190754
 10
0.8424416067030296
 20
0.9144042723846958
  0
LWPOLYLINE
  5
7DE1B343D9D853A
330
7DE1B343D9D862E
100
AcDbEntity
  8
TEXT
100
AcDbPolyline
 90
        2
 70
     0
 43
0.0001332181640625
 10
0.8923984182264682
 20
0.864447460861259
 10
0.9656684084608443
 20
0.8744388231659478
  0
LWPOLYLINE
  5
7DE1B343D9D853E
330
7DE1B343D9D862E
100
AcDbEntity
  8
TEXT
100
AcDbPolyline
 90
        2
 70
     0
 43
0.0001332181640625
 10
0.9390247756483432
 20
0.8744388231659478
 10
0.8790766018202194
 20
0.864447460861259
  0
LWPOLYLINE
  5
7DE1B343D9D8542
330
7DE1B343D9D862E
100
AcDbEntity
  8
TEXT
100
AcDbPolyline
 90
        2
 70
     0
 43
0.0001332181640625
 10
0.9656684084608443
 20
0.8344733739471998
 10
0.8923984182264682
 20
0.844464736251885
  0
LWPOLYLINE
  5
7DE1B343D9D8546
330
7DE1B343D9D862E
100
AcDbEntity
  8
TEXT
100
AcDbPolyline
 90
        2
 70
     0
 43
0.0001332181640625
 10
0.9390247756483432
 20
0.8344733739471998
 10
0.8790766018202194
 20
0.844464736251885
  0
LWPOLYLINE
  5
7DE1B343D9D854A
330
7DE1B343D9D862E
100
AcDbEntity
  8
TEXT
100
AcDbPolyline
 90
        2
 70
     0
 43
0.0001332181640625
 10
0.9390247756483432
 20
0.7478815673065733
 10
0.8790766018202194
 20
0.8078297411346987
  0
LWPOLYLINE
  5
7DE1B343D9D854E
330
7DE1B343D9D862E
100
AcDbEntity
  8
TEXT
100
AcDbPolyline
 90
        3
 70
     0
 43
0.0006660908203125
 10
0.8524329690077184
 20
0.7478815673065733
 10
0.9390247756483432
 20
0.7478815673065733
 10
0.9390247756483432
 20
0.8344733739471998
  0
LWPOLYLINE
  5
7DE1B343D9D8553
330
7DE1B343D9D862E
100
AcDbEntity
  8
TEXT
100
AcDbPolyline
 90
        3
 70
     0
 43
0.0006660908203125
 10
0.8524329690077184
 20
0.7212379344940723
 10
0.9656684084608443
 20
0.7212379344940723
 10
0.9656684084608443
 20
0.8344733739471998
  0
LWPOLYLINE
  5
7DE1B343D9D8558
330
7DE1B343D9D862E
100
AcDbEntity
  8
TEXT
100
AcDbPolyline
 90
        5
 70
     0
 43
0.0001332181640625
 10
0.8224588820936574
 20
0.7945079247284484
 10
0.8224588820936574
 20
0.8078297411346987
 10
0.7858238869764694
 20
0.8078297411346987
 10
0.7858238869764694
 20
0.844464736251885
 10
0.7725020705702188
 20
0.844464736251885
  0
LWPOLYLINE
  5
7DE1B343D9D855F
330
7DE1B343D9D862E
100
AcDbEntity
  8
TEXT
100
AcDbPolyline
 90
        2
 70
     0
 43
0.0006660908203125
 10
0.8124675197889668
 20
0.7478815673065733
 10
0.8124675197889668
 20
0.7212379344940723
  0
LWPOLYLINE
  5
7DE1B343D9D8563
330
7DE1B343D9D862E
100
AcDbEntity
  8
TEXT
100
AcDbPolyline
 90
        2
 70
     0
 43
0.0001332181640625
 10
0.8124675197889668
 20
0.7478815673065733
 10
0.8224588820936574
 20
0.8078297411346987
  0
LWPOLYLINE
  5
7DE1B343D9D8567
330
7DE1B343D9D862E
100
AcDbEntity
  8
TEXT
100
AcDbPolyline
 90
        2
 70
     0
 43
0.0001332181640625
 10
0.8124675197889668
 20
0.7212379344940723
 10
0.8224588820936574
 20
0.7945079247284484
  0
LWPOLYLINE
  5
7DE1B343D9D856B
330
7DE1B343D9D862E
100
AcDbEntity
  8
TEXT
100
AcDbPolyline
 90
        5
 70
     0
 43
0.0001332181640625
 10
0.7725020705702188
 20
0.864447460861259
 10
0.7858238869764676
 20
0.864447460861259
 10
0.7858238869764676
 20
0.9010824559784488
 10
0.8224588820936574
 20
0.9010824559784488
 10
0.8224588820936574
 20
0.9144042723846958
  0
LWPOLYLINE
  5
7DE1B343D9D8572
330
7DE1B343D9D862E
100
AcDbEntity
  8
TEXT
100
AcDbPolyline
 90
        5
 70
     0
 43
0.0001332181640625
 10
0.8424416067030296
 20
0.9144042723846958
 10
0.8424416067030296
 20
0.9010824559784488
 10
0.8790766018202194
 20
0.9010824559784488
 10
0.8790766018202194
 20
0.864447460861259
 10
0.8923984182264682
 20
0.864447460861259
  0
LWPOLYLINE
  5
7DE1B343D9D8579
330
7DE1B343D9D862E
100
AcDbEntity
  8
TEXT
100
AcDbPolyline
 90
        2
 70
     0
 43
0.0001332181640625
 10
0.8524329690077184
 20
0.7478815673065733
 10
0.8424416067030296
 20
0.8078297411346987
  0
LWPOLYLINE
  5
7DE1B343D9D857D
330
7DE1B343D9D862E
100
AcDbEntity
  8
TEXT
100
AcDbPolyline
 90
        2
 70
     0
 43
0.0001332181640625
 10
0.8424416067030296
 20
0.7945079247284484
 10
0.8524329690077184
 20
0.7212379344940723
  0
LWPOLYLINE
  5
7DE1B343D9D8581
330
7DE1B343D9D862E
100
AcDbEntity
  8
TEXT
100
AcDbPolyline
 90
        2
 70
     0
 43
0.0006660908203125
 10
0.8524329690077184
 20
0.7478815673065733
 10
0.8524329690077184
 20
0.7212379344940723
  0
LWPOLYLINE
  5
7DE1B343D9D8585
330
7DE1B343D9D862E
100
AcDbEntity
  8
TEXT
100
AcDbPolyline
 90
        5
 70
     0
 43
0.0001332181640625
 10
0.8923984182264682
 20
0.844464736251885
 10
0.8790766018202194
 20
0.844464736251885
 10
0.8790766018202194
 20
0.8078297411346987
 10
0.8424416067030296
 20
0.8078297411346987
 10
0.8424416067030296
 20
0.7945079247284484
  0
LWPOLYLINE
  5
7DE1B343D9D858C
330
7DE1B343D9D862E
100
AcDbEntity
  8
TEXT
100
AcDbPolyline
 90
        2
 70
     0
 43
0.0006660908203125
 10
0.9390247756483432
 20
0.8744388231659478
 10
0.9656684084608443
 20
0.8744388231659478
  0
LWPOLYLINE
  5
7DE1B343D9D8590
330
7DE1B343D9D862E
100
AcDbEntity
  8
TEXT
100
AcDbPolyline
 90
        2
 70
     0
 43
0.0006660908203125
 10
0.9390247756483432
 20
0.8344733739471998
 10
0.9656684084608443
 20
0.8344733739471998
  0
LINE
  5
7DE1B343D9D8594
330
7DE1B343D9D862E
100
AcDbEntity
  8
TEXT
100
AcDbLine
 10
1.235782545308869
 20
0.9233975679623064
 30
0.0
 11
1.40268819933784
 21
0.9233975679623064
 31
0.0
  0
LINE
  5
7DE1B343D9D8595
330
7DE1B343D9D862E
100
AcDbEntity
  8
TEXT
100
AcDbLine
 10
1.30138268155317
 20
0.8875928463516785
 30
0.0
 11
1.235782545308869
 21
0.8875928463516785
 31
0.0
  0
LINE
  5
7DE1B343D9D8596
330
7DE1B343D9D862E
100
AcDbEntity
  8
TEXT
100
AcDbLine
 10
1.148457755748117
 20
0.721201229630561
 30
0.0
 11
1.30138268155317
 21
0.721201229630561
 31
0.0
  0
LINE
  5
7DE1B343D9D8597
330
7DE1B343D9D862E
100
AcDbEntity
  8
TEXT
100
AcDbLine
 10
1.306323055459449
 20
0.7895582359640004
 30
0.0
 11
1.148457755748115
 21
0.7895582359640004
 31
0.0
  0
LINE
  5
7DE1B343D9D8598
330
7DE1B343D9D862E
100
AcDbEntity
  8
TEXT
100
AcDbLine
 10
1.230545215194621
 20
0.8234993437260648
 30
0.0
 11
1.306323055459449
 21
0.8234993437260648
 31
0.0
  0
ARC
  5
7DE1B343D9D8599
330
7DE1B343D9D862E
100
AcDbEntity
  8
TEXT
100
AcDbCircle
 10
1.235782545308869
 20
0.9054952071569942
 30
0.0
 40
0.017902360805315
100
AcDbArc
 50
90.0
 51
270.0
  0
LINE
  5
7DE1B343D9D859A
330
7DE1B343D9D862E
100
AcDbEntity
  8
TEXT
100
AcDbLine
 10
1.148457755748115
 20
0.7895582359640004
 30
0.0
 11
1.148457755748117
 21
0.721201229630561
 31
0.0
  0
LINE
  5
7DE1B343D9D859B
330
7DE1B343D9D862E
100
AcDbEntity
  8
TEXT
100
AcDbLine
 10
1.40268819933784
 20
0.9233975679623064
 30
0.0
 11
1.40268819933784
 21
0.7809936209686108
 31
0.0
  0
ARC
  5
7DE1B343D9D859C
330
7DE1B343D9D862E
100
AcDbEntity
  8
TEXT
100
AcDbCircle
 10
1.301382681553171
 20
0.8043970379911179
 30
0.0
 40
0.0831958083605586
100
AcDbArc
 50
270.0
 51
90.0
  0
ARC
  5
7DE1B343D9D859D
330
7DE1B343D9D862E
100
AcDbEntity
  8
TEXT
100
AcDbCircle
 10
1.30632305545945
 20
0.8065287898450343
 30
0.0
 40
0.0169705538810321
100
AcDbArc
 50
270.0
 51
90.0
  0
LWPOLYLINE
  5
7DE1B343D9D859E
330
7DE1B343D9D862E
100
AcDbEntity
  8
TEXT
100
AcDbPolyline
 90
        2
 70
     0
 43
0.0006660908203125
 10
0.8124675197889668
 20
0.9610306298065744
 10
0.8124675197889668
 20
0.9876742626190754
  0
LWPOLYLINE
  5
7DE1B343D9D85A2
330
7DE1B343D9D862E
100
AcDbEntity
  8
TEXT
100
AcDbPolyline
 90
        2
 70
     0
 43
0.0006660908203125
 10
0.8524329690077184
 20
0.9610306298065744
 10
0.8524329690077184
 20
0.9876742626190754
  0
LINE
  5
7DE1B343D9D85A6
330
7DE1B343D9D862E
100
AcDbEntity
  8
TEXT
100
AcDbLine
 10
1.406276968093133
 20
0.9876742626190718
 30
0.0
 11
1.230545215194621
 21
0.9876742626190718
 31
0.0
  0
LINE
  5
7DE1B343D9D85A7
330
7DE1B343D9D862E
100
AcDbEntity
  8
TEXT
100
AcDbLine
 10
1.406276968093133
 20
1.02206218021321
 30
0.0
 11
1.406276968093133
 21
0.9876742626190718
 31
0.0
  0
LINE
  5
7DE1B343D9D85A8
330
7DE1B343D9D862E
100
AcDbEntity
  8
TEXT
100
AcDbLine
 10
1.596748860112985
 20
0.8868022665059513
 30
0.0
 11
1.538118539081047
 21
0.9876742626190718
 31
0.0
  0
LINE
  5
7DE1B343D9D85A9
330
7DE1B343D9D862E
100
AcDbEntity
  8
TEXT
100
AcDbLine
 10
1.655497422918851
 20
0.9876742626190718
 30
0.0
 11
1.596748860112985
 21
0.8868022665059513
 31
0.0
  0
LINE
  5
7DE1B343D9D85AA
330
7DE1B343D9D862E
100
AcDbEntity
  8
TEXT
100
AcDbLine
 10
1.752428048278592
 20
0.8035890677335601
 30
0.0
 11
1.752428048278592
 21
1.055685740357882
 31
0.0
  0
LINE
  5
7DE1B343D9D85AB
330
7DE1B343D9D862E
100
AcDbEntity
  8
TEXT
100
AcDbLine
 10
1.784739902416252
 20
0.9876742626190718
 30
0.0
 11
1.784739902416252
 21
0.7868100558866638
 31
0.0
  0
LINE
  5
7DE1B343D9D85AC
330
7DE1B343D9D862E
100
AcDbEntity
  8
TEXT
100
AcDbLine
 10
1.784739902416252
 20
0.7868100558866638
 30
0.0
 11
1.767746265531651
 21
0.7868100558866638
 31
0.0
  0
LINE
  5
7DE1B343D9D85AD
330
7DE1B343D9D862E
100
AcDbEntity
  8
TEXT
100
AcDbLine
 10
1.753567621774787
 20
0.721201229630561
 30
0.0
 11
1.851570955474221
 21
0.721201229630561
 31
0.0
  0
LINE
  5
7DE1B343D9D85AE
330
7DE1B343D9D862E
100
AcDbEntity
  8
TEXT
100
AcDbLine
 10
1.587148623116031
 20
0.741159735735574
 30
0.0
 11
1.684448329209475
 21
0.9055099466708419
 31
0.0
  0
ARC
  5
7DE1B343D9D85AF
330
7DE1B343D9D862E
100
AcDbEntity
  8
TEXT
100
AcDbCircle
 10
1.553105063203817
 20
0.7607489519042568
 30
0.0
 40
0.0392772371940762
100
AcDbArc
 50
270.1604552698595
 51
330.0831797321295
  0
LINE
  5
7DE1B343D9D85B0
330
7DE1B343D9D862E
100
AcDbEntity
  8
TEXT
100
AcDbLine
 10
1.456574806817946
 20
0.721201229630561
 30
0.0
 11
1.55321505789294
 21
0.7214718687288433
 31
0.0
  0
LWPOLYLINE
  5
7DE1B343D9D85B1
330
7DE1B343D9D862E
100
AcDbEntity
  8
TEXT
100
AcDbPolyline
 90
        6
 70
     1
 43
0.0
 10
1.499098610393095
 20
0.9233975679623064
 10
1.468782016172887
 20
0.9233975679623064
 10
1.468782016172887
 20
0.8002865699074121
 42
0.407328721240804
 10
1.480325667334363
 20
0.7884676552310262
 10
1.540947366379094
 20
0.7884676552310262
 10
1.558412706786412
 20
0.8212798842745051
  0
LINE
  5
7DE1B343D9D85B9
330
7DE1B343D9D862E
100
AcDbEntity
  8
TEXT
100
AcDbLine
 10
1.684448329209475
 20
0.9055099466708419
 30
0.0
 11
1.684448329209475
 21
0.7727525718454858
 31
0.0
  0
ARC
  5
7DE1B343D9D85BA
330
7DE1B343D9D862E
100
AcDbEntity
  8
TEXT
100
AcDbCircle
 10
1.767746265531649
 20
0.8021918621300891
 30
0.0
 40
0.0153818062434269
100
AcDbArc
 50
174.7883570302258
 51
270.0
  0
LWPOLYLINE
  5
7DE1B343D9D85BB
330
7DE1B343D9D862E
100
AcDbEntity
  8
TEXT
100
AcDbPolyline
 90
        2
 70
     0
 43
0.0
 10
1.684448329209474
 20
0.7727525718454893
 42
0.3318488747599744
 10
1.753567621774787
 20
0.721201229630561
 42
-6.868794160588311
  0
LINE
  5
7DE1B343D9D85BF
330
7DE1B343D9D862E
100
AcDbEntity
  8
TEXT
100
AcDbLine
 10
1.908960024463482
 20
0.721201229630561
 30
0.0
 11
1.976018071245322
 21
0.721201229630561
 31
0.0
  0
LINE
  5
7DE1B343D9D85C0
330
7DE1B343D9D862E
100
AcDbEntity
  8
TEXT
100
AcDbLine
 10
1.908960024463482
 20
0.9158437787961965
 30
0.0
 11
1.908960024463482
 21
0.721201229630561
 31
0.0
  0
LINE
  5
7DE1B343D9D85C1
330
7DE1B343D9D862E
100
AcDbEntity
  8
TEXT
100
AcDbLine
 10
1.851570955474221
 20
0.9233975679623064
 30
0.0
 11
1.901406235297369
 21
0.9233975679623064
 31
0.0
  0
LINE
  5
7DE1B343D9D85C2
330
7DE1B343D9D862E
100
AcDbEntity
  8
TEXT
100
AcDbLine
 10
1.851570955474221
 20
0.721201229630561
 30
0.0
 11
1.851570955474221
 21
0.9233975679623064
 31
0.0
  0
LWPOLYLINE
  5
7DE1B343D9D85C3
330
7DE1B343D9D862E
100
AcDbEntity
  8
TEXT
100
AcDbPolyline
 90
        2
 70
     0
 43
0.0
 10
1.901406235297367
 20
0.9233975679623064
 42
-0.4142135623731017
 10
1.90896002446348
 20
0.9158437787961965
 42
-0.9999999999999998
  0
LINE
  5
7DE1B343D9D85C7
330
7DE1B343D9D862E
100
AcDbEntity
  8
TEXT
100
AcDbLine
 10
2.107216236075052
 20
0.9233975679623064
 30
0.0
 11
2.107216236075052
 21
0.8483451618880998
 31
0.0
  0
LINE
  5
7DE1B343D9D85C8
330
7DE1B343D9D862E
100
AcDbEntity
  8
TEXT
100
AcDbLine
 10
1.976018071245322
 20
0.9233975679623064
 30
0.0
 11
2.030151668166273
 21
0.9233975679623064
 31
0.0
  0
LINE
  5
7DE1B343D9D85C9
330
7DE1B343D9D862E
100
AcDbEntity
  8
TEXT
100
AcDbLine
 10
1.976018071245322
 20
0.721201229630561
 30
0.0
 11
1.976018071245322
 21
0.9233975679623064
 31
0.0
  0
LWPOLYLINE
  5
7DE1B343D9D85CA
330
7DE1B343D9D862E
100
AcDbEntity
  8
TEXT
100
AcDbPolyline
 90
        2
 70
     0
 43
0.0
 10
2.030151668166271
 20
0.9233975679623064
 42
-0.4142135623731017
 10
2.037705457332384
 20
0.9158437787961965
 42
-0.9999999999999998
  0
LWPOLYLINE
  5
7DE1B343D9D85CE
330
7DE1B343D9D862E
100
AcDbEntity
  8
TEXT
100
AcDbPolyline
 90
        4
 70
     0
 43
0.0
 10
2.037705457332384
 20
0.9158437787961965
 10
2.037705457332384
 20
0.721201229630561
 10
2.106183740620242
 20
0.721201229630561
 10
2.106183740620242
 20
0.7646921745809992
 42
-1.714843617202739
  0
LINE
  5
7DE1B343D9D85D4
330
7DE1B343D9D862E
100
AcDbEntity
  8
TEXT
100
AcDbLine
 10
1.46631957293714
 20
0.9876742626190718
 30
0.0
 11
1.46631957293714
 21
1.02206218021321
 31
0.0
  0
LINE
  5
7DE1B343D9D85D5
330
7DE1B343D9D862E
100
AcDbEntity
  8
TEXT
100
AcDbLine
 10
1.538118539081047
 20
0.9876742626190718
 30
0.0
 11
1.46631957293714
 21
0.9876742626190718
 31
0.0
  0
LINE
  5
7DE1B343D9D85D6
330
7DE1B343D9D862E
100
AcDbEntity
  8
TEXT
100
AcDbLine
 10
1.685619335712227
 20
0.9876742626190718
 30
0.0
 11
1.655497422918851
 21
0.9876742626190718
 31
0.0
  0
LINE
  5
7DE1B343D9D85D7
330
7DE1B343D9D862E
100
AcDbEntity
  8
TEXT
100
AcDbLine
 10
1.685619335712227
 20
1.055685740357882
 30
0.0
 11
1.685619335712227
 21
0.9876742626190718
 31
0.0
  0
LINE
  5
7DE1B343D9D85D8
330
7DE1B343D9D862E
100
AcDbEntity
  8
TEXT
100
AcDbLine
 10
1.752428048278592
 20
1.055685740357882
 30
0.0
 11
1.685619335712227
 21
1.055685740357882
 31
0.0
  0
LWPOLYLINE
  5
7DE1B343D9D85D9
330
7DE1B343D9D862E
100
AcDbEntity
  8
TEXT
100
AcDbPolyline
 90
        3
 70
     0
 43
0.0
 10
2.072839807876594
 20
0.9876742626190754
 10
1.95453964906055
 20
0.9876742626190754
 10
1.95453964906055
 20
0.9605067658581795
 42
-1.960274751411753
  0
LINE
  5
7DE1B343D9D85DE
330
7DE1B343D9D862E
100
AcDbEntity
  8
TEXT
100
AcDbLine
 10
1.918757958347388
 20
0.9876742626190718
 30
0.0
 11
1.784739902416252
 21
0.9876742626190718
 31
0.0
  0
LWPOLYLINE
  5
7DE1B343D9D85DF
330
7DE1B343D9D862E
100
AcDbEntity
  8
TEXT
100
AcDbPolyline
 90
        2
 70
     0
 43
0.0
 10
1.918757958347388
 20
0.9876742626190754
 42
-0.3328679258950098
 10
1.95453964906055
 20
0.9605067658581795
 42
6.772930709997214
  0
LINE
  5
7DE1B343D9D85E3
330
7DE1B343D9D862E
100
AcDbEntity
  8
TEXT
100
AcDbLine
 10
2.108621498589761
 20
0.9876742626190718
 30
0.0
 11
2.108621498589761
 21
0.959351716849428
 31
0.0
  0
LWPOLYLINE
  5
7DE1B343D9D85E4
330
7DE1B343D9D862E
100
AcDbEntity
  8
TEXT
100
AcDbPolyline
 90
        2
 70
     0
 43
0.0
 10
2.072839807876594
 20
0.9876742626190754
 42
-0.3277054968067132
 10
2.108621498589759
 20
0.9593517168494315
 42
6.667889725900311
  0
LINE
  5
7DE1B343D9D85E8
330
7DE1B343D9D862E
100
AcDbEntity
  8
TEXT
100
AcDbLine
 10
2.322413346681861
 20
0.8824622840656445
 30
0.0
 11
2.278662575499959
 21
0.9647125600617897
 31
0.0
  0
LINE
  5
7DE1B343D9D85E9
330
7DE1B343D9D862E
100
AcDbEntity
  8
TEXT
100
AcDbLine
 10
2.322413346681861
 20
0.9876742626190718
 30
0.0
 11
2.322413346681861
 21
0.8824622840656445
 31
0.0
  0
LINE
  5
7DE1B343D9D85EA
330
7DE1B343D9D862E
100
AcDbEntity
  8
TEXT
100
AcDbLine
 10
2.55009708562023
 20
0.9118089362075338
 30
0.0
 11
2.55009708562023
 21
1.053138468386672
 31
0.0
  0
LINE
  5
7DE1B343D9D85EB
330
7DE1B343D9D862E
100
AcDbEntity
  8
TEXT
100
AcDbLine
 10
2.597195244176214
 20
0.9876742626190718
 30
0.0
 11
2.55009708562023
 21
0.9118089362075338
 31
0.0
  0
LINE
  5
7DE1B343D9D85EC
330
7DE1B343D9D862E
100
AcDbEntity
  8
TEXT
100
AcDbLine
 10
2.607629960940137
 20
0.8777810196780983
 30
0.0
 11
2.672187076905843
 21
0.9876742626190718
 31
0.0
  0
LINE
  5
7DE1B343D9D85ED
330
7DE1B343D9D862E
100
AcDbEntity
  8
TEXT
100
AcDbLine
 10
2.486262094397457
 20
0.721201229630561
 30
0.0
 11
2.550640278716077
 21
0.721201229630561
 31
0.0
  0
LWPOLYLINE
  5
7DE1B343D9D85EE
330
7DE1B343D9D862E
100
AcDbEntity
  8
TEXT
100
AcDbPolyline
 90
        2
 70
     0
 43
0.0
 10
2.326353023986899
 20
0.7646921745809992
 42
-0.2901071551932486
 10
2.283277091119254
 20
0.721201229630561
 42
-5.328517124445184
  0
ARC
  5
7DE1B343D9D85F2
330
7DE1B343D9D862E
100
AcDbEntity
  8
TEXT
100
AcDbCircle
 10
2.21442250946234
 20
0.8950381929623091
 30
0.0
 40
0.028359375
100
AcDbArc
 50
25.78218179591245
 51
90.0
  0
LINE
  5
7DE1B343D9D85F3
330
7DE1B343D9D862E
100
AcDbEntity
  8
TEXT
100
AcDbLine
 10
2.250223584766463
 20
0.8861225945001741
 30
0.0
 11
2.239958824352898
 21
0.9073731340728684
 31
0.0
  0
LINE
  5
7DE1B343D9D85F4
330
7DE1B343D9D862E
100
AcDbEntity
  8
TEXT
100
AcDbLine
 10
2.16793559498308
 20
0.8861225945001741
 30
0.0
 11
2.250223584766463
 21
0.8861225945001741
 31
0.0
  0
LWPOLYLINE
  5
7DE1B343D9D85F5
330
7DE1B343D9D862E
100
AcDbEntity
  8
TEXT
100
AcDbPolyline
 90
        4
 70
     1
 43
0.0
 10
2.263154626049362
 20
0.8241652076145861
 10
2.174494307389503
 20
0.8241652076145861
 42
0.9999999999999998
 10
2.174494307389503
 20
0.7817666671107255
 10
2.263154626049362
 20
0.7817666671107255
 42
1.0
  0
LWPOLYLINE
  5
7DE1B343D9D85FB
330
7DE1B343D9D862E
100
AcDbEntity
  8
TEXT
100
AcDbPolyline
 90
        2
 70
     0
 43
0.0
 10
2.149259673487878
 20
0.721201229630561
 10
2.283277091119254
 20
0.721201229630561
 42
0.9999999999999998
  0
LINE
  5
7DE1B343D9D85FF
330
7DE1B343D9D862E
100
AcDbEntity
  8
TEXT
100
AcDbLine
 10
2.409614113104894
 20
0.9233975679623064
 30
0.0
 11
2.486262094397452
 21
0.9233975679623064
 31
0.0
  0
LINE
  5
7DE1B343D9D8600
330
7DE1B343D9D862E
100
AcDbEntity
  8
TEXT
100
AcDbLine
 10
2.486262094397452
 20
0.9233975679623064
 30
0.0
 11
2.486262094397457
 21
0.721201229630561
 31
0.0
  0
ARC
  5
7DE1B343D9D8601
330
7DE1B343D9D862E
100
AcDbEntity
  8
TEXT
100
AcDbCircle
 10
2.409614113104892
 20
0.8984916926796437
 30
0.0
 40
0.0249058752826653
100
AcDbArc
 50
89.99971217465335
 51
179.9999999999985
  0
LINE
  5
7DE1B343D9D8602
330
7DE1B343D9D862E
100
AcDbEntity
  8
TEXT
100
AcDbLine
 10
2.384708237822235
 20
0.721201229630561
 30
0.0
 11
2.384708237822229
 21
0.8984917350620293
 31
0.0
  0
LWPOLYLINE
  5
7DE1B343D9D8603
330
7DE1B343D9D862E
100
AcDbEntity
  8
TEXT
100
AcDbPolyline
 90
        2
 70
     0
 43
0.0
 10
2.326353023986899
 20
0.721201229630561
 10
2.384708237822233
 20
0.721201229630561
  0
LWPOLYLINE
  5
7DE1B343D9D8607
330
7DE1B343D9D862E
100
AcDbEntity
  8
TEXT
100
AcDbPolyline
 90
        2
 70
     0
 43
0.0
 10
2.326353023986899
 20
0.7646921745809992
 10
2.326353023986899
 20
0.721201229630561
  0
LINE
  5
7DE1B343D9D860B
330
7DE1B343D9D862E
100
AcDbEntity
  8
TEXT
100
AcDbLine
 10
2.703122184303748
 20
0.721201229630561
 30
0.0
 11
2.607629960940137
 21
0.8777810196780983
 31
0.0
  0
LINE
  5
7DE1B343D9D860C
330
7DE1B343D9D862E
100
AcDbEntity
  8
TEXT
100
AcDbLine
 10
2.626543811927542
 20
0.721201229630561
 30
0.0
 11
2.703122184303748
 21
0.721201229630561
 31
0.0
  0
LINE
  5
7DE1B343D9D860D
330
7DE1B343D9D862E
100
AcDbEntity
  8
TEXT
100
AcDbLine
 10
2.550640278716077
 20
0.8527807981067411
 30
0.0
 11
2.626543811927542
 21
0.721201229630561
 31
0.0
  0
LINE
  5
7DE1B343D9D860E
330
7DE1B343D9D862E
100
AcDbEntity
  8
TEXT
100
AcDbLine
 10
2.550640278716077
 20
0.721201229630561
 30
0.0
 11
2.550640278716077
 21
0.8527807981067411
 31
0.0
  0
LINE
  5
7DE1B343D9D860F
330
7DE1B343D9D862E
100
AcDbEntity
  8
TEXT
100
AcDbLine
 10
2.55009708562023
 20
1.053138468386672
 30
0.0
 11
2.481782207070957
 21
1.053138468386672
 31
0.0
  0
ARC
  5
7DE1B343D9D8610
330
7DE1B343D9D862E
100
AcDbEntity
  8
TEXT
100
AcDbCircle
 10
2.241426468029751
 20
0.9460906954981695
 30
0.0
 40
0.0416329381542859
100
AcDbArc
 50
26.56974201007528
 51
87.20939649401342
  0
LINE
  5
7DE1B343D9D8611
330
7DE1B343D9D862E
100
AcDbEntity
  8
TEXT
100
AcDbLine
 10
2.386310252981362
 20
0.9876742626190718
 30
0.0
 11
2.322413346681861
 21
0.9876742626190718
 31
0.0
  0
LINE
  5
7DE1B343D9D8612
330
7DE1B343D9D862E
100
AcDbEntity
  8
TEXT
100
AcDbLine
 10
2.386310252981362
 20
0.9601266127581972
 30
0.0
 11
2.386310252981362
 21
0.9876742626190718
 31
0.0
  0
ARC
  5
7DE1B343D9D8613
330
7DE1B343D9D862E
100
AcDbEntity
  8
TEXT
100
AcDbCircle
 10
2.41750307004447
 20
0.956428535336807
 30
0.0
 40
0.0314112657011332
100
AcDbArc
 50
95.88484768694724
 51
173.2388340632136
  0
LINE
  5
7DE1B343D9D8614
330
7DE1B343D9D862E
100
AcDbEntity
  8
TEXT
100
AcDbLine
 10
2.481782207070951
 20
0.9876742626190718
 30
0.0
 11
2.414282489421435
 21
0.9876742626190718
 31
0.0
  0
LINE
  5
7DE1B343D9D8615
330
7DE1B343D9D862E
100
AcDbEntity
  8
TEXT
100
AcDbLine
 10
2.481782207070957
 20
1.053138468386672
 30
0.0
 11
2.481782207070951
 21
0.9876742626190718
 31
0.0
  0
LINE
  5
7DE1B343D9D8616
330
7DE1B343D9D862E
100
AcDbEntity
  8
TEXT
100
AcDbLine
 10
2.672187076905843
 20
0.9876742626190718
 30
0.0
 11
2.597195244176216
 21
0.9876742626190718
 31
0.0
  0
ENDSEC
  0
SECTION
  2
OBJECTS
  0
DICTIONARY
  5
7DE1B343D9D8622
330
0
100
AcDbDictionary
  3
ACAD_GROUP
350
7DE1B343D9D8623
  3
ACAD_LAYOUT
350
7DE1B343D9D8648
  3
ACAD_MLINESTYLE
350
7DE1B343D9D8624
  3
ACAD_PLOTSETTINGS
350
7DE1B343D9D8649
  3
ACAD_PLOTSTYLENAME
350
7DE1B343D9D8646
  3
ACDBHEADERROUNDTRIPXREC
350
7DE1B343D9D8653
  3
ACDBVARIABLEDICTIONARY
350
7DE1B343D9D8650
  0
DICTIONARY
  5
7DE1B343D9D8675
330
7DE1B343D9D862E
100
AcDbDictionary
280
     1
  3
ACAD_LAYOUTSELFREF
360
7DE1B343D9D8676
  0
DICTIONARY
  5
7DE1B343D9D8673
330
7DE1B343D9D862B
100
AcDbDictionary
280
     1
  3
ACAD_LAYOUTSELFREF
360
7DE1B343D9D8674
  0
DICTIONARY
  5
7DE1B343D9D8623
102
{ACAD_REACTORS
330
7DE1B343D9D8622
102
}
330
7DE1B343D9D8622
100
AcDbDictionary
  0
DICTIONARY
  5
7DE1B343D9D8648
102
{ACAD_REACTORS
330
7DE1B343D9D8622
102
}
330
7DE1B343D9D8622
100
AcDbDictionary
  0
DICTIONARY
  5
7DE1B343D9D8624
102
{ACAD_REACTORS
330
7DE1B343D9D8622
102
}
330
7DE1B343D9D8622
100
AcDbDictionary
  3
STANDARD
350
7DE1B343D9D8631
  0
DICTIONARY
  5
7DE1B343D9D8649
102
{ACAD_REACTORS
330
7DE1B343D9D8622
102
}
330
7DE1B343D9D8622
100
AcDbDictionary
  0
ACDBDICTIONARYWDFLT
  5
7DE1B343D9D8646
102
{ACAD_REACTORS
330
7DE1B343D9D8622
102
}
330
7DE1B343D9D8622
100
AcDbDictionary
281
     1
  3
Normal
350
7DE1B343D9D8647
100
AcDbDictionaryWithDefault
340
7DE1B343D9D8647
  0
DICTIONARY
  5
7DE1B343D9D8653
102
{ACAD_REACTORS
330
7DE1B343D9D8622
102
}
330
7DE1B343D9D8622
100
AcDbDictionary
  3
CEPSNTYPE
350
7DE1B343D9D865D
  3
FINGERPRINTGUID
350
7DE1B343D9D865E
  3
HYPERLINKBASE
350
7DE1B343D9D8656
  3
INSUNITS
350
7DE1B343D9D865C
  3
LAYOUTDICT
350
7DE1B343D9D8658
  3
LWETCUNION
350
7DE1B343D9D865B
  3
PLOTSETDICT
350
7DE1B343D9D8659
  3
PLOTSTYLNAMDICT
350
7DE1B343D9D865A
  3
PSVPSCALE
350
7DE1B343D9D8660
  3
PUCSBASE
350
7DE1B343D9D8663
  3
PUCSORGBACK
350
7DE1B343D9D8669
  3
PUCSORGBOTTOM
350
7DE1B343D9D8665
  3
PUCSORGFRONT
350
7DE1B343D9D8668
  3
PUCSORGLEFT
350
7DE1B343D9D8666
  3
PUCSORGRIGHT
350
7DE1B343D9D8667
  3
PUCSORGTOP
350
7DE1B343D9D8664
  3
PUCSORTHOREF
350
7DE1B343D9D8661
  3
PUCSORTHOVIEW
350
7DE1B343D9D8662
  3
STYLESHEET
350
7DE1B343D9D8657
  3
TSTACKALIGN
350
7DE1B343D9D8654
  3
TSTACKSIZE
350
7DE1B343D9D8655
  3
UCSBASE
350
7DE1B343D9D866C
  3
UCSORGBACK
350
7DE1B343D9D8672
  3
UCSORGBOTTOM
350
7DE1B343D9D866E
  3
UCSORGFRONT
350
7DE1B343D9D8671
  3
UCSORGLEFT
350
7DE1B343D9D866F
  3
UCSORGRIGHT
350
7DE1B343D9D8670
  3
UCSORGTOP
350
7DE1B343D9D866D
  3
UCSORTHOREF
350
7DE1B343D9D866A
  3
UCSORTHOVIEW
350
7DE1B343D9D866B
  3
VERSIONGUID
350
7DE1B343D9D865F
  0
DICTIONARY
  5
7DE1B343D9D8650
102
{ACAD_REACTORS
330
7DE1B343D9D8622
102
}
330
7DE1B343D9D8622
100
AcDbDictionary
  3
DIMASSOC
350
7DE1B343D9D8651
  0
XRECORD
  5
7DE1B343D9D8676
102
{ACAD_REACTORS
330
7DE1B343D9D8675
102
}
330
7DE1B343D9D8675
100
AcDbXrecord
340
7DE1B343D9D862E
  0
XRECORD
  5
7DE1B343D9D8674
102
{ACAD_REACTORS
330
7DE1B343D9D8673
102
}
330
7DE1B343D9D8673
100
AcDbXrecord
340
7DE1B343D9D862B
  0
MLINESTYLE
  5
7DE1B343D9D8631
102
{ACAD_REACTORS
330
7DE1B343D9D8624
102
}
330
7DE1B343D9D8624
100
AcDbMlineStyle
  2
STANDARD
 70
     0
  3

 62
     0
 51
90.0
 52
90.0
 71
     2
 49
0.5
 62
   256
  6
BYLAYER
 49
-0.5
 62
   256
  6
BYLAYER
  0
ACDBPLACEHOLDER
  5
7DE1B343D9D8647
102
{ACAD_REACTORS
330
7DE1B343D9D8646
102
}
330
7DE1B343D9D8646
100
AcDbPlaceHolder
280
     0
  0
XRECORD
  5
7DE1B343D9D865D
102
{ACAD_REACTORS
330
7DE1B343D9D8653
102
}
330
7DE1B343D9D8653
100
AcDbXrecord
 90
        0
  0
XRECORD
  5
7DE1B343D9D865E
102
{ACAD_REACTORS
330
7DE1B343D9D8653
102
}
330
7DE1B343D9D8653
100
AcDbXrecord
  1
{E55CFC40-8DB4-11D6-88E6-0090279574E7}
  0
XRECORD
  5
7DE1B343D9D8656
102
{ACAD_REACTORS
330
7DE1B343D9D8653
102
}
330
7DE1B343D9D8653
100
AcDbXrecord
  1

  0
XRECORD
  5
7DE1B343D9D865C
102
{ACAD_REACTORS
330
7DE1B343D9D8653
102
}
330
7DE1B343D9D8653
100
AcDbXrecord
 90
        0
  0
XRECORD
  5
7DE1B343D9D8658
102
{ACAD_REACTORS
330
7DE1B343D9D8653
102
}
330
7DE1B343D9D8653
100
AcDbXrecord
340
7DE1B343D9D8648
  0
XRECORD
  5
7DE1B343D9D865B
102
{ACAD_REACTORS
330
7DE1B343D9D8653
102
}
330
7DE1B343D9D8653
100
AcDbXrecord
 90
    14877
  0
XRECORD
  5
7DE1B343D9D8659
102
{ACAD_REACTORS
330
7DE1B343D9D8653
102
}
330
7DE1B343D9D8653
100
AcDbXrecord
340
7DE1B343D9D8649
  0
XRECORD
  5
7DE1B343D9D865A
102
{ACAD_REACTORS
330
7DE1B343D9D8653
102
}
330
7DE1B343D9D8653
100
AcDbXrecord
340
7DE1B343D9D8646
  0
XRECORD
  5
7DE1B343D9D8660
102
{ACAD_REACTORS
330
7DE1B343D9D8653
102
}
330
7DE1B343D9D8653
100
AcDbXrecord
 40
0.0
  0
XRECORD
  5
7DE1B343D9D8663
102
{ACAD_REACTORS
330
7DE1B343D9D8653
102
}
330
7DE1B343D9D8653
100
AcDbXrecord
340
0
  0
XRECORD
  5
7DE1B343D9D8669
102
{ACAD_REACTORS
330
7DE1B343D9D8653
102
}
330
7DE1B343D9D8653
100
AcDbXrecord
 10
0.0
 20
0.0
 30
0.0
  0
XRECORD
  5
7DE1B343D9D8665
102
{ACAD_REACTORS
330
7DE1B343D9D8653
102
}
330
7DE1B343D9D8653
100
AcDbXrecord
 10
0.0
 20
0.0
 30
0.0
  0
XRECORD
  5
7DE1B343D9D8668
102
{ACAD_REACTORS
330
7DE1B343D9D8653
102
}
330
7DE1B343D9D8653
100
AcDbXrecord
 10
0.0
 20
0.0
 30
0.0
  0
XRECORD
  5
7DE1B343D9D8666
102
{ACAD_REACTORS
330
7DE1B343D9D8653
102
}
330
7DE1B343D9D8653
100
AcDbXrecord
 10
0.0
 20
0.0
 30
0.0
  0
XRECORD
  5
7DE1B343D9D8667
102
{ACAD_REACTORS
330
7DE1B343D9D8653
102
}
330
7DE1B343D9D8653
100
AcDbXrecord
 10
0.0
 20
0.0
 30
0.0
  0
XRECORD
  5
7DE1B343D9D8664
102
{ACAD_REACTORS
330
7DE1B343D9D8653
102
}
330
7DE1B343D9D8653
100
AcDbXrecord
 10
0.0
 20
0.0
 30
0.0
  0
XRECORD
  5
7DE1B343D9D8661
102
{ACAD_REACTORS
330
7DE1B343D9D8653
102
}
330
7DE1B343D9D8653
100
AcDbXrecord
340
0
  0
XRECORD
  5
7DE1B343D9D8662
102
{ACAD_REACTORS
330
7DE1B343D9D8653
102
}
330
7DE1B343D9D8653
100
AcDbXrecord
 70
     0
  0
XRECORD
  5
7DE1B343D9D8657
102
{ACAD_REACTORS
330
7DE1B343D9D8653
102
}
330
7DE1B343D9D8653
100
AcDbXrecord
  1

  0
XRECORD
  5
7DE1B343D9D8654
102
{ACAD_REACTORS
330
7DE1B343D9D8653
102
}
330
7DE1B343D9D8653
100
AcDbXrecord
 90
        1
  0
XRECORD
  5
7DE1B343D9D8655
102
{ACAD_REACTORS
330
7DE1B343D9D8653
102
}
330
7DE1B343D9D8653
100
AcDbXrecord
 90
       70
  0
XRECORD
  5
7DE1B343D9D866C
102
{ACAD_REACTORS
330
7DE1B343D9D8653
102
}
330
7DE1B343D9D8653
100
AcDbXrecord
340
0
  0
XRECORD
  5
7DE1B343D9D8672
102
{ACAD_REACTORS
330
7DE1B343D9D8653
102
}
330
7DE1B343D9D8653
100
AcDbXrecord
 10
0.0
 20
0.0
 30
0.0
  0
XRECORD
  5
7DE1B343D9D866E
102
{ACAD_REACTORS
330
7DE1B343D9D8653
102
}
330
7DE1B343D9D8653
100
AcDbXrecord
 10
0.0
 20
0.0
 30
0.0
  0
XRECORD
  5
7DE1B343D9D8671
102
{ACAD_REACTORS
330
7DE1B343D9D8653
102
}
330
7DE1B343D9D8653
100
AcDbXrecord
 10
0.0
 20
0.0
 30
0.0
  0
XRECORD
  5
7DE1B343D9D866F
102
{ACAD_REACTORS
330
7DE1B343D9D8653
102
}
330
7DE1B343D9D8653
100
AcDbXrecord
 10
0.0
 20
0.0
 30
0.0
  0
XRECORD
  5
7DE1B343D9D8670
102
{ACAD_REACTORS
330
7DE1B343D9D8653
102
}
330
7DE1B343D9D8653
100
AcDbXrecord
 10
0.0
 20
0.0
 30
0.0
  0
XRECORD
  5
7DE1B343D9D866D
102
{ACAD_REACTORS
330
7DE1B343D9D8653
102
}
330
7DE1B343D9D8653
100
AcDbXrecord
 10
0.0
 20
0.0
 30
0.0
  0
XRECORD
  5
7DE1B343D9D866A
102
{ACAD_REACTORS
330
7DE1B343D9D8653
102
}
330
7DE1B343D9D8653
100
AcDbXrecord
340
0
  0
XRECORD
  5
7DE1B343D9D866B
102
{ACAD_REACTORS
330
7DE1B343D9D8653
102
}
330
7DE1B343D9D8653
100
AcDbXrecord
 70
     0
  0
XRECORD
  5
7DE1B343D9D865F
102
{ACAD_REACTORS
330
7DE1B343D9D8653
102
}
330
7DE1B343D9D8653
100
AcDbXrecord
  1
{E55CFC42-8DB4-11D6-88E6-0090279574E7}
  0
DICTIONARYVAR
  5
7DE1B343D9D8651
102
{ACAD_REACTORS
330
7DE1B343D9D8650
102
}
330
7DE1B343D9D8650
100
DictionaryVariables
280
     0
  1
1
  0
ENDSEC
  0
EOF
