  0
SECTION
  2
HEADER
  9
$ACADVER
  1
AC1014
  9
$ACADMAINTVER
 70
     9
  9
$DWGCODEPAGE
  3
ANSI_1252
  9
$INSBASE
 10
0.9436068087272184
 20
1.735405471482991
 30
0.0
  9
$EXTMIN
 10
-0.0943987242731448
 20
0.9773463226515463
 30
0.0
  9
$EXTMAX
 10
3.390820597473982
 20
2.300405471482991
 30
0.0
  9
$LIMMIN
 10
0.0
 20
0.0
  9
$LIMMAX
 10
18.0
 20
12.0
  9
$ORTHOMODE
 70
     1
  9
$REGENMODE
 70
     1
  9
$FILLMODE
 70
     1
  9
$QTEXTMODE
 70
     0
  9
$MIRRTEXT
 70
     0
  9
$DRAGMODE
 70
     2
  9
$LTSCALE
 40
1.0
  9
$OSMODE
 70
    39
  9
$ATTMODE
 70
     1
  9
$TEXTSIZE
 40
0.125
  9
$TRACEWID
 40
0.05
  9
$TEXTSTYLE
  7
ROMANS
  9
$CLAYER
  8
0
  9
$CELTYPE
  6
BYLAYER
  9
$CECOLOR
 62
   256
  9
$CELTSCALE
 40
1.0
  9
$DELOBJ
 70
     1
  9
$DISPSILH
 70
     1
  9
$DIMSCALE
 40
1.0
  9
$DIMASZ
 40
0.125
  9
$DIMEXO
 40
0.125
  9
$DIMDLI
 40
0.375
  9
$DIMRND
 40
0.0
  9
$DIMDLE
 40
0.0
  9
$DIMEXE
 40
0.125
  9
$DIMTP
 40
0.0
  9
$DIMTM
 40
0.0
  9
$DIMTXT
 40
0.125
  9
$DIMCEN
 40
-0.125
  9
$DIMTSZ
 40
0.0
  9
$DIMTOL
 70
     0
  9
$DIMLIM
 70
     0
  9
$DIMTIH
 70
     1
  9
$DIMTOH
 70
     1
  9
$DIMSE1
 70
     0
  9
$DIMSE2
 70
     0
  9
$DIMTAD
 70
     0
  9
$DIMZIN
 70
     4
  9
$DIMBLK
  1

  9
$DIMASO
 70
     1
  9
$DIMSHO
 70
     1
  9
$DIMPOST
  1

  9
$DIMAPOST
  1

  9
$DIMALT
 70
     0
  9
$DIMALTD
 70
     2
  9
$DIMALTF
 40
25.4
  9
$DIMLFAC
 40
1.0
  9
$DIMTOFL
 70
     0
  9
$DIMTVP
 40
0.0
  9
$DIMTIX
 70
     1
  9
$DIMSOXD
 70
     0
  9
$DIMSAH
 70
     0
  9
$DIMBLK1
  1

  9
$DIMBLK2
  1

  9
$DIMSTYLE
  2
STANDARD
  9
$DIMCLRD
 70
     0
  9
$DIMCLRE
 70
     0
  9
$DIMCLRT
 70
     0
  9
$DIMTFAC
 40
1.0
  9
$DIMGAP
 40
0.09
  9
$DIMJUST
 70
     0
  9
$DIMSD1
 70
     0
  9
$DIMSD2
 70
     0
  9
$DIMTOLJ
 70
     1
  9
$DIMTZIN
 70
     4
  9
$DIMALTZ
 70
     0
  9
$DIMALTTZ
 70
     0
  9
$DIMFIT
 70
     3
  9
$DIMUPT
 70
     0
  9
$DIMUNIT
 70
     2
  9
$DIMDEC
 70
     3
  9
$DIMTDEC
 70
     3
  9
$DIMALTU
 70
     2
  9
$DIMALTTD
 70
     2
  9
$DIMTXSTY
  7
ROMANS
  9
$DIMAUNIT
 70
     0
  9
$LUNITS
 70
     2
  9
$LUPREC
 70
     3
  9
$SKETCHINC
 40
0.1
  9
$FILLETRAD
 40
0.03125
  9
$AUNITS
 70
     0
  9
$AUPREC
 70
     0
  9
$MENU
  1
ACAD
  9
$ELEVATION
 40
0.0
  9
$PELEVATION
 40
0.0
  9
$THICKNESS
 40
0.0
  9
$LIMCHECK
 70
     0
  9
$BLIPMODE
 70
     0
  9
$CHAMFERA
 40
0.0
  9
$CHAMFERB
 40
0.0
  9
$CHAMFERC
 40
0.0
  9
$CHAMFERD
 40
0.0
  9
$SKPOLY
 70
     0
  9
$TDCREATE
 40
2448994.718369444
  9
$TDUPDATE
 40
2452458.299872257
  9
$TDINDWG
 40
0.0007214699
  9
$TDUSRTIMER
 40
0.0007214699
  9
$USRTIMER
 70
     1
  9
$ANGBASE
 50
0.0
  9
$ANGDIR
 70
     0
  9
$PDMODE
 70
     0
  9
$PDSIZE
 40
0.0
  9
$PLINEWID
 40
0.0
  9
$COORDS
 70
     2
  9
$SPLFRAME
 70
     0
  9
$SPLINETYPE
 70
     6
  9
$SPLINESEGS
 70
     8
  9
$ATTDIA
 70
     0
  9
$ATTREQ
 70
     1
  9
$HANDLING
 70
 22529
  9
$HANDSEED
  5
7DE1B343D9D7EFF
  9
$SURFTAB1
 70
     6
  9
$SURFTAB2
 70
     6
  9
$SURFTYPE
 70
     6
  9
$SURFU
 70
     6
  9
$SURFV
 70
     6
  9
$UCSNAME
  2

  9
$UCSORG
 10
0.0
 20
0.0
 30
0.0
  9
$UCSXDIR
 10
1.0
 20
0.0
 30
0.0
  9
$UCSYDIR
 10
0.0
 20
1.0
 30
0.0
  9
$PUCSNAME
  2

  9
$PUCSORG
 10
0.0
 20
0.0
 30
0.0
  9
$PUCSXDIR
 10
1.0
 20
0.0
 30
0.0
  9
$PUCSYDIR
 10
0.0
 20
1.0
 30
0.0
  9
$USERI1
 70
     0
  9
$USERI2
 70
     0
  9
$USERI3
 70
     0
  9
$USERI4
 70
     0
  9
$USERI5
 70
     0
  9
$USERR1
 40
0.0
  9
$USERR2
 40
0.0
  9
$USERR3
 40
0.0
  9
$USERR4
 40
0.0
  9
$USERR5
 40
0.0
  9
$WORLDVIEW
 70
     1
  9
$SHADEDGE
 70
     3
  9
$SHADEDIF
 70
    70
  9
$TILEMODE
 70
     1
  9
$MAXACTVP
 70
    16
  9
$PINSBASE
 10
2.112056735865373
 20
50.00000000000001
 30
1.45324312397327
  9
$PLIMCHECK
 70
     0
  9
$PEXTMIN
 10
1.000000000000000E+20
 20
1.000000000000000E+20
 30
1.000000000000000E+20
  9
$PEXTMAX
 10
-1.000000000000000E+20
 20
-1.000000000000000E+20
 30
-1.000000000000000E+20
  9
$PLIMMIN
 10
0.0
 20
0.0
  9
$PLIMMAX
 10
12.0
 20
9.0
  9
$UNITMODE
 70
     0
  9
$VISRETAIN
 70
     0
  9
$PLINEGEN
 70
     1
  9
$PSLTSCALE
 70
     0
  9
$TREEDEPTH
 70
  3020
  9
$PICKSTYLE
 70
     1
  9
$CMLSTYLE
  2
STANDARD
  9
$CMLJUST
 70
     0
  9
$CMLSCALE
 40
1.0
  9
$PROXYGRAPHICS
 70
     1
  9
$MEASUREMENT
 70
     0
  0
ENDSEC
  0
SECTION
  2
CLASSES
  0
CLASS
  1
LWPOLYLINE
  2
AcDbPolyline
  3
AutoCAD 2000
 90
        0
280
     0
281
     1
  0
CLASS
  1
ACDBDICTIONARYWDFLT
  2
AcDbDictionaryWithDefault
  3
AutoCAD 2000
 90
        0
280
     0
281
     0
  0
CLASS
  1
ACDBPLACEHOLDER
  2
AcDbPlaceHolder
  3
AutoCAD 2000
 90
        0
280
     0
281
     0
  0
CLASS
  1
LAYOUT
  2
AcDbLayout
  3
AutoCAD 2000
 90
        0
280
     0
281
     0
  0
CLASS
  1
DICTIONARYVAR
  2
AcDbDictionaryVar
  3
AutoCAD 2000
 90
        0
280
     0
281
     0
  0
CLASS
  1
LONG_TRANSACTION
  2
AcDbLongTransaction
  3
AutoCAD 2000
 90
        0
280
     0
281
     0
  0
CLASS
  1
LWPOLYLINE
  2
AcDbPolyline
  3
AutoCAD 2000
 90
        0
280
     0
281
     1
  0
CLASS
  1
HATCH
  2
AcDbHatch
  3
AutoCAD 2000
 90
        0
280
     0
281
     1
  0
CLASS
  1
XRECORD
  2
AcDbXrecord
  3
AutoCAD 2000
 90
        0
280
     0
281
     0
  0
ENDSEC
  0
SECTION
  2
TABLES
  0
TABLE
  2
VPORT
  5
7DE1B343D9D7EA6
330
0
100
AcDbSymbolTable
 70
     2
  0
VPORT
  5
7DE1B343D9D7EDA
330
7DE1B343D9D7EA6
100
AcDbSymbolTableRecord
100
AcDbViewportTableRecord
  2
*ACTIVE
 70
     0
 10
0.0
 20
0.0
 11
1.0
 21
1.0
 12
4.62523802666199
 22
1.638885520909546
 13
0.0
 23
0.0
 14
0.015625
 24
0.015625
 15
0.0
 25
0.0
 16
0.0
 26
0.0
 36
1.0
 17
0.0
 27
0.0
 37
0.0
 40
2.282869535065162
 41
4.320930232558139
 42
50.0
 43
0.0
 44
0.0
 50
0.0
 51
0.0
 71
     0
 72
  2000
 73
     1
 74
     0
 75
     0
 76
     0
 77
     0
 78
     0
  0
ENDTAB
  0
TABLE
  2
LTYPE
  5
7DE1B343D9D7EA3
330
0
100
AcDbSymbolTable
 70
     1
  0
LTYPE
  5
7DE1B343D9D7EB0
330
7DE1B343D9D7EA3
100
AcDbSymbolTableRecord
100
AcDbLinetypeTableRecord
  2
BYBLOCK
 70
     0
  3

 72
    65
 73
     0
 40
0.0
  0
LTYPE
  5
7DE1B343D9D7EB1
330
7DE1B343D9D7EA3
100
AcDbSymbolTableRecord
100
AcDbLinetypeTableRecord
  2
BYLAYER
 70
     0
  3

 72
    65
 73
     0
 40
0.0
  0
LTYPE
  5
7DE1B343D9D7EB2
330
7DE1B343D9D7EA3
100
AcDbSymbolTableRecord
100
AcDbLinetypeTableRecord
  2
CONTINUOUS
 70
     0
  3
Solid line
 72
    65
 73
     0
 40
0.0
  0
ENDTAB
  0
TABLE
  2
LAYER
  5
7DE1B343D9D7EA0
330
0
100
AcDbSymbolTable
 70
     2
  0
LAYER
  5
7DE1B343D9D7EAD
330
7DE1B343D9D7EA0
100
AcDbSymbolTableRecord
100
AcDbLayerTableRecord
  2
0
 70
     0
 62
     7
  6
CONTINUOUS
  0
LAYER
  5
7DE1B343D9D7EBD
330
7DE1B343D9D7EA0
100
AcDbSymbolTableRecord
100
AcDbLayerTableRecord
  2
TEXT
 70
     0
 62
     3
  6
CONTINUOUS
  0
ENDTAB
  0
TABLE
  2
STYLE
  5
7DE1B343D9D7EA1
330
0
100
AcDbSymbolTable
 70
     3
  0
STYLE
  5
7DE1B343D9D7EAE
330
7DE1B343D9D7EA1
100
AcDbSymbolTableRecord
100
AcDbTextStyleTableRecord
  2
STANDARD
 70
     0
 40
0.0
 41
1.0
 50
0.0
 71
     0
 42
0.3125
  3
txt
  4

  0
STYLE
  5
7DE1B343D9D7EBA
330
7DE1B343D9D7EA1
100
AcDbSymbolTableRecord
100
AcDbTextStyleTableRecord
  2
ITALICC
 70
     0
 40
0.0
 41
1.0
 50
0.0
 71
     0
 42
0.125
  3
italicc
  4

  0
STYLE
  5
7DE1B343D9D7ECA
330
7DE1B343D9D7EA1
100
AcDbSymbolTableRecord
100
AcDbTextStyleTableRecord
  2
ROMANS
 70
     0
 40
0.0
 41
1.0
 50
0.0
 71
     0
 42
0.125
  3
romans.shx
  4

  0
ENDTAB
  0
TABLE
  2
VIEW
  5
7DE1B343D9D7EA4
330
0
100
AcDbSymbolTable
 70
     0
  0
ENDTAB
  0
TABLE
  2
UCS
  5
7DE1B343D9D7EA5
330
0
100
AcDbSymbolTable
 70
     0
  0
ENDTAB
  0
TABLE
  2
APPID
  5
7DE1B343D9D7EA7
330
0
100
AcDbSymbolTable
 70
     1
  0
APPID
  5
7DE1B343D9D7EAF
330
7DE1B343D9D7EA7
100
AcDbSymbolTableRecord
100
AcDbRegAppTableRecord
  2
ACAD
 70
     0
  0
ENDTAB
  0
TABLE
  2
DIMSTYLE
  5
7DE1B343D9D7EA8
330
0
100
AcDbSymbolTable
 70
     1
  0
DIMSTYLE
105
7DE1B343D9D7EC2
330
7DE1B343D9D7EA8
100
AcDbSymbolTableRecord
100
AcDbDimStyleTableRecord
  2
STANDARD
 70
     0
  3

  4

  5

  6

  7

 40
1.0
 41
0.125
 42
0.125
 43
0.375
 44
0.125
 45
0.0
 46
0.0
 47
0.0
 48
0.0
140
0.125
141
-0.125
142
0.0
143
25.4
144
1.0
145
0.0
146
1.0
147
0.09
 71
     0
 72
     0
 73
     1
 74
     1
 75
     0
 76
     0
 77
     0
 78
     4
170
     0
171
     2
172
     0
173
     0
174
     1
175
     0
176
     0
177
     0
178
     0
270
     2
271
     3
272
     3
273
     2
274
     2
340
7DE1B343D9D7ECA
275
     0
280
     0
281
     0
282
     0
283
     1
284
     4
285
     0
286
     0
287
     3
288
     0
  0
ENDTAB
  0
TABLE
  2
BLOCK_RECORD
  5
7DE1B343D9D7E9F
330
0
100
AcDbSymbolTable
 70
     0
  0
BLOCK_RECORD
  5
7DE1B343D9D7EB6
102
{ACAD_XDICTIONARY
360
7DE1B343D9D7EFD
102
}
330
7DE1B343D9D7E9F
100
AcDbSymbolTableRecord
100
AcDbBlockTableRecord
  2
*MODEL_SPACE
  0
BLOCK_RECORD
  5
7DE1B343D9D7EB3
102
{ACAD_XDICTIONARY
360
7DE1B343D9D7EFB
102
}
330
7DE1B343D9D7E9F
100
AcDbSymbolTableRecord
100
AcDbBlockTableRecord
  2
*PAPER_SPACE
  0
ENDTAB
  0
ENDSEC
  0
SECTION
  2
BLOCKS
  0
BLOCK
  5
7DE1B343D9D7EC0
330
7DE1B343D9D7EB6
100
AcDbEntity
  8
0
100
AcDbBlockBegin
  2
*MODEL_SPACE
 70
     0
 10
0.0
 20
0.0
 30
0.0
  3
*MODEL_SPACE
  1

  0
ENDBLK
  5
7DE1B343D9D7EC1
330
7DE1B343D9D7EB6
100
AcDbEntity
  8
0
100
AcDbBlockEnd
  0
BLOCK
  5
7DE1B343D9D7EBE
330
7DE1B343D9D7EB3
100
AcDbEntity
 67
     1
  8
0
100
AcDbBlockBegin
  2
*PAPER_SPACE
 70
     0
 10
0.0
 20
0.0
 30
0.0
  3
*PAPER_SPACE
  1

  0
ENDBLK
  5
7DE1B343D9D7EBF
330
7DE1B343D9D7EB3
100
AcDbEntity
 67
     1
  8
0
100
AcDbBlockEnd
  0
ENDSEC
  0
SECTION
  2
ENTITIES
  0
LWPOLYLINE
  5
7DE1B343D9D6AA5
330
7DE1B343D9D7EB6
100
AcDbEntity
  8
0
100
AcDbPolyline
 90
       18
 70
     1
 43
0.0
 10
2.104918706918463
 20
2.297905471482991
 10
2.053891888703717
 20
2.107470793356977
 10
1.943944376024623
 20
2.297905471482991
 10
1.809606808727219
 20
2.29790547148299
 42
0.5773502691896262
 10
1.800946554689375
 20
2.28290547148299
 10
1.846557225955357
 20
2.203905471482991
 10
1.523606808727218
 20
2.203905471482991
 10
1.513606808727218
 20
2.193905471482991
 10
1.503606808727217
 20
2.203905471482991
 10
1.180656391499083
 20
2.203905471482991
 10
1.226267062765063
 20
2.282905471482991
 42
0.5773502691896244
 10
1.217606808727219
 20
2.297905471482991
 10
0.9436068087272184
 20
2.297905471482991
 10
0.9436068087272184
 20
1.735405471482991
 10
2.083606808727217
 20
1.735405471482991
 10
2.200834580415834
 20
2.172905471482991
 10
2.381106808727218
 20
2.17290547148299
 10
2.381106808727218
 20
2.297905471482991
  0
LWPOLYLINE
  5
7DE1B343D9D6A97
330
7DE1B343D9D7EB6
100
AcDbEntity
  8
0
100
AcDbPolyline
 90
       12
 70
     1
 43
0.0
 10
1.263606808727218
 20
1.810405471482991
 10
1.763606808727218
 20
1.810405471482991
 10
1.763606808727218
 20
1.860405471482991
 10
1.958606808727219
 20
1.860405471482991
 10
1.958606808727219
 20
2.047905471482991
 10
1.763606808727218
 20
2.047905471482991
 10
1.763606808727218
 20
2.141405471482991
 10
1.263606808727218
 20
2.141405471482991
 10
1.263606808727218
 20
2.047905471482991
 10
1.068606808727218
 20
2.047905471482991
 10
1.068606808727218
 20
1.860405471482991
 10
1.263606808727218
 20
1.860405471482991
  0
TEXT
  5
7DE1B343D9D7D61
330
7DE1B343D9D7EB6
100
AcDbEntity
  8
TEXT
100
AcDbText
 10
0.8956066644778076
 20
1.435364926734127
 30
0.0
 40
0.125
  1
PART #110196
  7
ITALICC
 72
     1
 11
1.648582854953998
 21
1.435364926734127
 31
0.0
100
AcDbText
  0
TEXT
  5
7DE1B343D9D7D62
330
7DE1B343D9D7EB6
100
AcDbEntity
  8
TEXT
100
AcDbText
 10
2.061888013204319
 20
0.9884422840617528
 30
0.0
 40
0.0522247191011236
  1
Phone  1-800-328-2495
 41
1.272321428571429
 72
     5
 11
3.390820597473982
 21
0.9884422840617528
 31
0.0
100
AcDbText
  0
TEXT
  5
7DE1B343D9D7D63
330
7DE1B343D9D7EB6
100
AcDbEntity
  8
TEXT
100
AcDbText
 10
2.061888013204319
 20
1.268217564960629
 30
0.0
 40
0.0522247191011236
  1
Stylmark  Incorporated
 41
1.221428571428573
 72
     5
 11
3.390820597473982
 21
1.268217564960629
 31
0.0
100
AcDbText
  0
TEXT
  5
7DE1B343D9D7D64
330
7DE1B343D9D7EB6
100
AcDbEntity
  8
TEXT
100
AcDbText
 10
2.061888013204319
 20
1.174959137994337
 30
0.0
 40
0.0522247191011236
  1
6536 Main St. N.E. * P.O. Box 32008
 41
0.8388932496075366
 72
     5
 11
3.390820597473982
 21
1.174959137994337
 31
0.0
100
AcDbText
  0
TEXT
  5
7DE1B343D9D7D65
330
7DE1B343D9D7EB6
100
AcDbEntity
  8
TEXT
100
AcDbText
 10
2.061888013204319
 20
1.081700711028044
 30
0.0
 40
0.0522247191011236
  1
Minneapolis, MN 55432-0008
 41
1.11444212721585
 72
     5
 11
3.390820597473982
 21
1.081700711028044
 31
0.0
100
AcDbText
  0
LWPOLYLINE
  5
7DE1B343D9D7D66
330
7DE1B343D9D7EB6
100
AcDbEntity
  8
TEXT
100
AcDbPolyline
 90
        3
 70
     0
 43
0.0006660908203125
 10
-0.0940656788629886
 20
1.102087046699187
 10
-0.0940656788629886
 20
0.98885160724606
 10
0.0191697605901338
 20
0.98885160724606
  0
LWPOLYLINE
  5
7DE1B343D9D7D6B
330
7DE1B343D9D7EB6
100
AcDbEntity
  8
TEXT
100
AcDbPolyline
 90
        3
 70
     0
 43
0.0006660908203125
 10
-0.0674220460504911
 20
1.102087046699187
 10
-0.0674220460504911
 20
1.015495240058561
 10
0.0191697605901338
 20
1.015495240058561
  0
LWPOLYLINE
  5
7DE1B343D9D7D70
330
7DE1B343D9D7EB6
100
AcDbEntity
  8
TEXT
100
AcDbPolyline
 90
        2
 70
     0
 43
0.0001332181640625
 10
-0.0207956886286143
 20
1.112078409003872
 10
-0.0940656788629886
 20
1.102087046699187
  0
LWPOLYLINE
  5
7DE1B343D9D7D74
330
7DE1B343D9D7EB6
100
AcDbEntity
  8
TEXT
100
AcDbPolyline
 90
        2
 70
     0
 43
0.0001332181640625
 10
-0.0674220460504911
 20
1.102087046699187
 10
-0.0074738722223637
 20
1.112078409003872
  0
LWPOLYLINE
  5
7DE1B343D9D7D78
330
7DE1B343D9D7EB6
100
AcDbEntity
  8
TEXT
100
AcDbPolyline
 90
        2
 70
     0
 43
0.0001332181640625
 10
-0.0674220460504911
 20
1.015495240058561
 10
-0.0074738722223637
 20
1.075443413886686
  0
LWPOLYLINE
  5
7DE1B343D9D7D7C
330
7DE1B343D9D7EB6
100
AcDbEntity
  8
TEXT
100
AcDbPolyline
 90
        3
 70
     0
 43
0.0006660908203125
 10
0.0191697605901338
 20
1.255287935371063
 10
-0.0940656788629886
 20
1.255287935371063
 10
-0.0940656788629886
 20
1.142052495917935
  0
LWPOLYLINE
  5
7DE1B343D9D7D81
330
7DE1B343D9D7EB6
100
AcDbEntity
  8
TEXT
100
AcDbPolyline
 90
        3
 70
     0
 43
0.0006660908203125
 10
0.0191697605901338
 20
1.228644302558562
 10
-0.0674220460504911
 20
1.228644302558562
 10
-0.0674220460504911
 20
1.142052495917935
  0
LWPOLYLINE
  5
7DE1B343D9D7D86
330
7DE1B343D9D7EB6
100
AcDbEntity
  8
TEXT
100
AcDbPolyline
 90
        2
 70
     0
 43
0.0001332181640625
 10
-0.0674220460504911
 20
1.228644302558562
 10
-0.0074738722223655
 20
1.168696128730436
  0
LWPOLYLINE
  5
7DE1B343D9D7D8A
330
7DE1B343D9D7EB6
100
AcDbEntity
  8
TEXT
100
AcDbPolyline
 90
        2
 70
     0
 43
0.0001332181640625
 10
-0.0674220460504911
 20
1.142052495917935
 10
-0.0074738722223655
 20
1.132061133613246
  0
LWPOLYLINE
  5
7DE1B343D9D7D8E
330
7DE1B343D9D7EB6
100
AcDbEntity
  8
TEXT
100
AcDbPolyline
 90
        2
 70
     0
 43
0.0001332181640625
 10
-0.0940656788629886
 20
1.142052495917935
 10
-0.0207956886286143
 20
1.132061133613246
  0
LWPOLYLINE
  5
7DE1B343D9D7D92
330
7DE1B343D9D7EB6
100
AcDbEntity
  8
TEXT
100
AcDbPolyline
 90
        2
 70
     0
 43
0.0006660908203125
 10
-0.0674220460504911
 20
1.102087046699187
 10
-0.0940656788629886
 20
1.102087046699187
  0
LWPOLYLINE
  5
7DE1B343D9D7D96
330
7DE1B343D9D7EB6
100
AcDbEntity
  8
TEXT
100
AcDbPolyline
 90
        2
 70
     0
 43
0.0006660908203125
 10
-0.0674220460504911
 20
1.142052495917935
 10
-0.0940656788629886
 20
1.142052495917935
  0
LINE
  5
7DE1B343D9D7D9A
330
7DE1B343D9D7EB6
100
AcDbEntity
  8
TEXT
100
AcDbLine
 10
1.421124750263508
 20
1.191011240714294
 30
0.0
 11
1.313918476876219
 21
1.191011240714294
 31
0.0
  0
LINE
  5
7DE1B343D9D7D9B
330
7DE1B343D9D7EB6
100
AcDbEntity
  8
TEXT
100
AcDbLine
 10
1.450155648607987
 20
1.255287935371059
 30
0.0
 11
1.315323739390928
 21
1.255287935371059
 31
0.0
  0
ARC
  5
7DE1B343D9D7D9C
330
7DE1B343D9D7EB6
100
AcDbEntity
  8
TEXT
100
AcDbCircle
 10
1.374637835784245
 20
1.086050686108043
 30
0.0
 40
0.0676855811441166
100
AcDbArc
 50
90.0
 51
153.7768192527749
  0
LWPOLYLINE
  5
7DE1B343D9D7D9D
330
7DE1B343D9D7EB6
100
AcDbEntity
  8
TEXT
100
AcDbPolyline
 90
        2
 70
     0
 43
0.0
 10
1.312885981421409
 20
1.032305847332986
 42
0.2901071551932823
 10
1.355961914289045
 20
0.9888149023825487
 42
5.328517124445801
  0
ARC
  5
7DE1B343D9D7DA1
330
7DE1B343D9D7EB6
100
AcDbEntity
  8
TEXT
100
AcDbCircle
 10
0.6695064581127595
 20
1.048607293720598
 30
0.0
 40
0.0601160179737537
100
AcDbArc
 50
180.0000000000003
 51
264.0521544866073
  0
LINE
  5
7DE1B343D9D7DA2
330
7DE1B343D9D7EB6
100
AcDbEntity
  8
TEXT
100
AcDbLine
 10
0.6730218137383073
 20
1.289675852965197
 30
0.0
 11
0.6129792088943003
 21
1.289675852965197
 31
0.0
  0
ARC
  5
7DE1B343D9D7DA3
330
7DE1B343D9D7EB6
100
AcDbEntity
  8
TEXT
100
AcDbCircle
 10
0.4372474559957889
 20
1.173200475924558
 30
0.0
 40
0.0820874594465043
100
AcDbArc
 50
90.0
 51
270.0
  0
LWPOLYLINE
  5
7DE1B343D9D7DA4
330
7DE1B343D9D7EB6
100
AcDbEntity
  8
TEXT
100
AcDbPolyline
 90
        2
 70
     0
 43
0.0001332181640625
 10
0.0291611228948243
 20
1.182017945136683
 10
0.0191697605901338
 20
1.255287935371063
  0
LWPOLYLINE
  5
7DE1B343D9D7DA8
330
7DE1B343D9D7EB6
100
AcDbEntity
  8
TEXT
100
AcDbPolyline
 90
        2
 70
     0
 43
0.0001332181640625
 10
0.0191697605901338
 20
1.228644302558562
 10
0.0291611228948243
 20
1.168696128730436
  0
LWPOLYLINE
  5
7DE1B343D9D7DAC
330
7DE1B343D9D7EB6
100
AcDbEntity
  8
TEXT
100
AcDbPolyline
 90
        3
 70
     0
 43
0.0006660908203125
 10
0.1723706492620112
 20
1.142052495917935
 10
0.1723706492620112
 20
1.255287935371063
 10
0.0591352098088853
 20
1.255287935371063
  0
LWPOLYLINE
  5
7DE1B343D9D7DB1
330
7DE1B343D9D7EB6
100
AcDbEntity
  8
TEXT
100
AcDbPolyline
 90
        3
 70
     0
 43
0.0006660908203125
 10
0.1457270164495101
 20
1.142052495917935
 10
0.1457270164495101
 20
1.228644302558562
 10
0.0591352098088853
 20
1.228644302558562
  0
LWPOLYLINE
  5
7DE1B343D9D7DB6
330
7DE1B343D9D7EB6
100
AcDbEntity
  8
TEXT
100
AcDbPolyline
 90
        2
 70
     0
 43
0.0001332181640625
 10
0.1457270164495101
 20
1.228644302558562
 10
0.0857788426213864
 20
1.168696128730436
  0
LWPOLYLINE
  5
7DE1B343D9D7DBA
330
7DE1B343D9D7EB6
100
AcDbEntity
  8
TEXT
100
AcDbPolyline
 90
        2
 70
     0
 43
0.0001332181640625
 10
0.0591352098088853
 20
1.228644302558562
 10
0.0491438475041965
 20
1.168696128730436
  0
LWPOLYLINE
  5
7DE1B343D9D7DBE
330
7DE1B343D9D7EB6
100
AcDbEntity
  8
TEXT
100
AcDbPolyline
 90
        2
 70
     0
 43
0.0001332181640625
 10
0.0591352098088853
 20
1.255287935371063
 10
0.0491438475041965
 20
1.182017945136683
  0
LWPOLYLINE
  5
7DE1B343D9D7DC2
330
7DE1B343D9D7EB6
100
AcDbEntity
  8
TEXT
100
AcDbPolyline
 90
        2
 70
     0
 43
0.0001332181640625
 10
0.0991006590276351
 20
1.132061133613246
 10
0.1723706492620112
 20
1.142052495917935
  0
LWPOLYLINE
  5
7DE1B343D9D7DC6
330
7DE1B343D9D7EB6
100
AcDbEntity
  8
TEXT
100
AcDbPolyline
 90
        2
 70
     0
 43
0.0001332181640625
 10
0.1457270164495101
 20
1.142052495917935
 10
0.0857788426213864
 20
1.132061133613246
  0
LWPOLYLINE
  5
7DE1B343D9D7DCA
330
7DE1B343D9D7EB6
100
AcDbEntity
  8
TEXT
100
AcDbPolyline
 90
        2
 70
     0
 43
0.0001332181640625
 10
0.1723706492620112
 20
1.102087046699187
 10
0.0991006590276351
 20
1.112078409003872
  0
LWPOLYLINE
  5
7DE1B343D9D7DCE
330
7DE1B343D9D7EB6
100
AcDbEntity
  8
TEXT
100
AcDbPolyline
 90
        2
 70
     0
 43
0.0001332181640625
 10
0.1457270164495101
 20
1.102087046699187
 10
0.0857788426213864
 20
1.112078409003872
  0
LWPOLYLINE
  5
7DE1B343D9D7DD2
330
7DE1B343D9D7EB6
100
AcDbEntity
  8
TEXT
100
AcDbPolyline
 90
        2
 70
     0
 43
0.0001332181640625
 10
0.1457270164495101
 20
1.015495240058561
 10
0.0857788426213864
 20
1.075443413886686
  0
LWPOLYLINE
  5
7DE1B343D9D7DD6
330
7DE1B343D9D7EB6
100
AcDbEntity
  8
TEXT
100
AcDbPolyline
 90
        3
 70
     0
 43
0.0006660908203125
 10
0.0591352098088853
 20
1.015495240058561
 10
0.1457270164495101
 20
1.015495240058561
 10
0.1457270164495101
 20
1.102087046699187
  0
LWPOLYLINE
  5
7DE1B343D9D7DDB
330
7DE1B343D9D7EB6
100
AcDbEntity
  8
TEXT
100
AcDbPolyline
 90
        3
 70
     0
 43
0.0006660908203125
 10
0.0591352098088853
 20
0.98885160724606
 10
0.1723706492620112
 20
0.98885160724606
 10
0.1723706492620112
 20
1.102087046699187
  0
LWPOLYLINE
  5
7DE1B343D9D7DE0
330
7DE1B343D9D7EB6
100
AcDbEntity
  8
TEXT
100
AcDbPolyline
 90
        5
 70
     0
 43
0.0001332181640625
 10
0.0291611228948243
 20
1.062121597480436
 10
0.0291611228948243
 20
1.075443413886686
 10
-0.0074738722223637
 20
1.075443413886686
 10
-0.0074738722223637
 20
1.112078409003872
 10
-0.0207956886286143
 20
1.112078409003872
  0
LWPOLYLINE
  5
7DE1B343D9D7DE7
330
7DE1B343D9D7EB6
100
AcDbEntity
  8
TEXT
100
AcDbPolyline
 90
        2
 70
     0
 43
0.0006660908203125
 10
0.0191697605901338
 20
1.015495240058561
 10
0.0191697605901338
 20
0.98885160724606
  0
LWPOLYLINE
  5
7DE1B343D9D7DEB
330
7DE1B343D9D7EB6
100
AcDbEntity
  8
TEXT
100
AcDbPolyline
 90
        2
 70
     0
 43
0.0001332181640625
 10
0.0191697605901338
 20
1.015495240058561
 10
0.0291611228948243
 20
1.075443413886686
  0
LWPOLYLINE
  5
7DE1B343D9D7DEF
330
7DE1B343D9D7EB6
100
AcDbEntity
  8
TEXT
100
AcDbPolyline
 90
        2
 70
     0
 43
0.0001332181640625
 10
0.0191697605901338
 20
0.98885160724606
 10
0.0291611228948243
 20
1.062121597480436
  0
LWPOLYLINE
  5
7DE1B343D9D7DF3
330
7DE1B343D9D7EB6
100
AcDbEntity
  8
TEXT
100
AcDbPolyline
 90
        5
 70
     0
 43
0.0001332181640625
 10
-0.0207956886286143
 20
1.132061133613246
 10
-0.0074738722223655
 20
1.132061133613246
 10
-0.0074738722223655
 20
1.168696128730436
 10
0.0291611228948243
 20
1.168696128730436
 10
0.0291611228948243
 20
1.182017945136683
  0
LWPOLYLINE
  5
7DE1B343D9D7DFA
330
7DE1B343D9D7EB6
100
AcDbEntity
  8
TEXT
100
AcDbPolyline
 90
        5
 70
     0
 43
0.0001332181640625
 10
0.0491438475041965
 20
1.182017945136683
 10
0.0491438475041965
 20
1.168696128730436
 10
0.0857788426213864
 20
1.168696128730436
 10
0.0857788426213864
 20
1.132061133613246
 10
0.0991006590276351
 20
1.132061133613246
  0
LWPOLYLINE
  5
7DE1B343D9D7E01
330
7DE1B343D9D7EB6
100
AcDbEntity
  8
TEXT
100
AcDbPolyline
 90
        2
 70
     0
 43
0.0001332181640625
 10
0.0591352098088853
 20
1.015495240058561
 10
0.0491438475041965
 20
1.075443413886686
  0
LWPOLYLINE
  5
7DE1B343D9D7E05
330
7DE1B343D9D7EB6
100
AcDbEntity
  8
TEXT
100
AcDbPolyline
 90
        2
 70
     0
 43
0.0001332181640625
 10
0.0491438475041965
 20
1.062121597480436
 10
0.0591352098088853
 20
0.98885160724606
  0
LWPOLYLINE
  5
7DE1B343D9D7E09
330
7DE1B343D9D7EB6
100
AcDbEntity
  8
TEXT
100
AcDbPolyline
 90
        2
 70
     0
 43
0.0006660908203125
 10
0.0591352098088853
 20
1.015495240058561
 10
0.0591352098088853
 20
0.98885160724606
  0
LWPOLYLINE
  5
7DE1B343D9D7E0D
330
7DE1B343D9D7EB6
100
AcDbEntity
  8
TEXT
100
AcDbPolyline
 90
        5
 70
     0
 43
0.0001332181640625
 10
0.0991006590276351
 20
1.112078409003872
 10
0.0857788426213864
 20
1.112078409003872
 10
0.0857788426213864
 20
1.075443413886686
 10
0.0491438475041965
 20
1.075443413886686
 10
0.0491438475041965
 20
1.062121597480436
  0
LWPOLYLINE
  5
7DE1B343D9D7E14
330
7DE1B343D9D7EB6
100
AcDbEntity
  8
TEXT
100
AcDbPolyline
 90
        2
 70
     0
 43
0.0006660908203125
 10
0.1457270164495101
 20
1.142052495917935
 10
0.1723706492620112
 20
1.142052495917935
  0
LWPOLYLINE
  5
7DE1B343D9D7E18
330
7DE1B343D9D7EB6
100
AcDbEntity
  8
TEXT
100
AcDbPolyline
 90
        2
 70
     0
 43
0.0006660908203125
 10
0.1457270164495101
 20
1.102087046699187
 10
0.1723706492620112
 20
1.102087046699187
  0
LINE
  5
7DE1B343D9D7E1C
330
7DE1B343D9D7EB6
100
AcDbEntity
  8
TEXT
100
AcDbLine
 10
0.4424847861100361
 20
1.191011240714294
 30
0.0
 11
0.6093904401390074
 21
1.191011240714294
 31
0.0
  0
LINE
  5
7DE1B343D9D7E1D
330
7DE1B343D9D7EB6
100
AcDbEntity
  8
TEXT
100
AcDbLine
 10
0.5080849223543371
 20
1.155206519103666
 30
0.0
 11
0.4424847861100361
 21
1.155206519103666
 31
0.0
  0
LINE
  5
7DE1B343D9D7E1E
330
7DE1B343D9D7EB6
100
AcDbEntity
  8
TEXT
100
AcDbLine
 10
0.3551599965492844
 20
0.9888149023825487
 30
0.0
 11
0.5080849223543371
 21
0.9888149023825487
 31
0.0
  0
LINE
  5
7DE1B343D9D7E1F
330
7DE1B343D9D7EB6
100
AcDbEntity
  8
TEXT
100
AcDbLine
 10
0.5130252962606168
 20
1.057171908715988
 30
0.0
 11
0.3551599965492826
 21
1.057171908715988
 31
0.0
  0
LINE
  5
7DE1B343D9D7E20
330
7DE1B343D9D7EB6
100
AcDbEntity
  8
TEXT
100
AcDbLine
 10
0.437247455995788
 20
1.091113016478052
 30
0.0
 11
0.5130252962606168
 21
1.091113016478052
 31
0.0
  0
ARC
  5
7DE1B343D9D7E21
330
7DE1B343D9D7EB6
100
AcDbEntity
  8
TEXT
100
AcDbCircle
 10
0.442484786110037
 20
1.173108879908982
 30
0.0
 40
0.017902360805315
100
AcDbArc
 50
90.0
 51
270.0
  0
LINE
  5
7DE1B343D9D7E22
330
7DE1B343D9D7EB6
100
AcDbEntity
  8
TEXT
100
AcDbLine
 10
0.3551599965492826
 20
1.057171908715988
 30
0.0
 11
0.3551599965492844
 21
0.9888149023825487
 31
0.0
  0
LINE
  5
7DE1B343D9D7E23
330
7DE1B343D9D7EB6
100
AcDbEntity
  8
TEXT
100
AcDbLine
 10
0.6093904401390074
 20
1.191011240714294
 30
0.0
 11
0.6093904401390074
 21
1.048607293720598
 31
0.0
  0
ARC
  5
7DE1B343D9D7E24
330
7DE1B343D9D7EB6
100
AcDbEntity
  8
TEXT
100
AcDbCircle
 10
0.508084922354338
 20
1.072010710743105
 30
0.0
 40
0.0831958083605586
100
AcDbArc
 50
270.0
 51
90.0
  0
ARC
  5
7DE1B343D9D7E25
330
7DE1B343D9D7EB6
100
AcDbEntity
  8
TEXT
100
AcDbCircle
 10
0.5130252962606177
 20
1.074142462597022
 30
0.0
 40
0.0169705538810321
100
AcDbArc
 50
270.0
 51
90.0
  0
LWPOLYLINE
  5
7DE1B343D9D7E26
330
7DE1B343D9D7EB6
100
AcDbEntity
  8
TEXT
100
AcDbPolyline
 90
        2
 70
     0
 43
0.0006660908203125
 10
0.0191697605901338
 20
1.228644302558562
 10
0.0191697605901338
 20
1.255287935371063
  0
LWPOLYLINE
  5
7DE1B343D9D7E2A
330
7DE1B343D9D7EB6
100
AcDbEntity
  8
TEXT
100
AcDbPolyline
 90
        2
 70
     0
 43
0.0006660908203125
 10
0.0591352098088853
 20
1.228644302558562
 10
0.0591352098088853
 20
1.255287935371063
  0
LINE
  5
7DE1B343D9D7E2E
330
7DE1B343D9D7EB6
100
AcDbEntity
  8
TEXT
100
AcDbLine
 10
0.6129792088943003
 20
1.255287935371059
 30
0.0
 11
0.437247455995788
 21
1.255287935371059
 31
0.0
  0
LINE
  5
7DE1B343D9D7E2F
330
7DE1B343D9D7EB6
100
AcDbEntity
  8
TEXT
100
AcDbLine
 10
0.6129792088943003
 20
1.289675852965197
 30
0.0
 11
0.6129792088943003
 21
1.255287935371059
 31
0.0
  0
LINE
  5
7DE1B343D9D7E30
330
7DE1B343D9D7EB6
100
AcDbEntity
  8
TEXT
100
AcDbLine
 10
0.8034511009141525
 20
1.154415939257939
 30
0.0
 11
0.7448207798822147
 21
1.255287935371059
 31
0.0
  0
LINE
  5
7DE1B343D9D7E31
330
7DE1B343D9D7EB6
100
AcDbEntity
  8
TEXT
100
AcDbLine
 10
0.8621996637200179
 20
1.255287935371059
 30
0.0
 11
0.8034511009141525
 21
1.154415939257939
 31
0.0
  0
LINE
  5
7DE1B343D9D7E32
330
7DE1B343D9D7EB6
100
AcDbEntity
  8
TEXT
100
AcDbLine
 10
0.9591302890797592
 20
1.071202740485547
 30
0.0
 11
0.9591302890797592
 21
1.32329941310987
 31
0.0
  0
LINE
  5
7DE1B343D9D7E33
330
7DE1B343D9D7EB6
100
AcDbEntity
  8
TEXT
100
AcDbLine
 10
0.9914421432174194
 20
1.255287935371059
 30
0.0
 11
0.9914421432174194
 21
1.054423728638651
 31
0.0
  0
LINE
  5
7DE1B343D9D7E34
330
7DE1B343D9D7EB6
100
AcDbEntity
  8
TEXT
100
AcDbLine
 10
0.9914421432174194
 20
1.054423728638651
 30
0.0
 11
0.974448506332818
 21
1.054423728638651
 31
0.0
  0
LINE
  5
7DE1B343D9D7E35
330
7DE1B343D9D7EB6
100
AcDbEntity
  8
TEXT
100
AcDbLine
 10
0.960269862575954
 20
0.9888149023825487
 30
0.0
 11
1.058273196275388
 21
0.9888149023825487
 31
0.0
  0
LINE
  5
7DE1B343D9D7E36
330
7DE1B343D9D7EB6
100
AcDbEntity
  8
TEXT
100
AcDbLine
 10
0.7938508639171982
 20
1.008773408487561
 30
0.0
 11
0.8911505700106427
 21
1.173123619422829
 31
0.0
  0
ARC
  5
7DE1B343D9D7E37
330
7DE1B343D9D7EB6
100
AcDbEntity
  8
TEXT
100
AcDbCircle
 10
0.7598073040049842
 20
1.028362624656244
 30
0.0
 40
0.0392772371940762
100
AcDbArc
 50
270.1604552698595
 51
330.0831797321295
  0
LINE
  5
7DE1B343D9D7E38
330
7DE1B343D9D7EB6
100
AcDbEntity
  8
TEXT
100
AcDbLine
 10
0.663277047619113
 20
0.9888149023825487
 30
0.0
 11
0.7599172986941074
 21
0.989085541480831
 31
0.0
  0
LWPOLYLINE
  5
7DE1B343D9D7E39
330
7DE1B343D9D7EB6
100
AcDbEntity
  8
TEXT
100
AcDbPolyline
 90
        6
 70
     1
 43
0.0
 10
0.7058008511942627
 20
1.191011240714294
 10
0.6754842569740545
 20
1.191011240714294
 10
0.6754842569740545
 20
1.067900242659399
 42
0.407328721240804
 10
0.6870279081355309
 20
1.056081327983013
 10
0.7476496071802617
 20
1.056081327983013
 10
0.7651149475875796
 20
1.088893557026493
  0
LINE
  5
7DE1B343D9D7E41
330
7DE1B343D9D7EB6
100
AcDbEntity
  8
TEXT
100
AcDbLine
 10
0.8911505700106427
 20
1.173123619422829
 30
0.0
 11
0.8911505700106427
 21
1.040366244597473
 31
0.0
  0
ARC
  5
7DE1B343D9D7E42
330
7DE1B343D9D7EB6
100
AcDbEntity
  8
TEXT
100
AcDbCircle
 10
0.9744485063328163
 20
1.069805534882076
 30
0.0
 40
0.0153818062434269
100
AcDbArc
 50
174.7883570302258
 51
270.0
  0
LWPOLYLINE
  5
7DE1B343D9D7E43
330
7DE1B343D9D7EB6
100
AcDbEntity
  8
TEXT
100
AcDbPolyline
 90
        2
 70
     0
 43
0.0
 10
0.891150570010641
 20
1.040366244597477
 42
0.3318488747599744
 10
0.960269862575954
 20
0.9888149023825487
 42
-6.868794160588311
  0
LINE
  5
7DE1B343D9D7E47
330
7DE1B343D9D7EB6
100
AcDbEntity
  8
TEXT
100
AcDbLine
 10
1.115662265264649
 20
0.9888149023825487
 30
0.0
 11
1.182720312046489
 21
0.9888149023825487
 31
0.0
  0
LINE
  5
7DE1B343D9D7E48
330
7DE1B343D9D7EB6
100
AcDbEntity
  8
TEXT
100
AcDbLine
 10
1.115662265264649
 20
1.183457451548184
 30
0.0
 11
1.115662265264649
 21
0.9888149023825487
 31
0.0
  0
LINE
  5
7DE1B343D9D7E49
330
7DE1B343D9D7EB6
100
AcDbEntity
  8
TEXT
100
AcDbLine
 10
1.058273196275388
 20
1.191011240714294
 30
0.0
 11
1.108108476098536
 21
1.191011240714294
 31
0.0
  0
LINE
  5
7DE1B343D9D7E4A
330
7DE1B343D9D7EB6
100
AcDbEntity
  8
TEXT
100
AcDbLine
 10
1.058273196275388
 20
0.9888149023825487
 30
0.0
 11
1.058273196275388
 21
1.191011240714294
 31
0.0
  0
LWPOLYLINE
  5
7DE1B343D9D7E4B
330
7DE1B343D9D7EB6
100
AcDbEntity
  8
TEXT
100
AcDbPolyline
 90
        2
 70
     0
 43
0.0
 10
1.108108476098534
 20
1.191011240714294
 42
-0.4142135623731017
 10
1.115662265264647
 20
1.183457451548184
 42
-0.9999999999999998
  0
LINE
  5
7DE1B343D9D7E4F
330
7DE1B343D9D7EB6
100
AcDbEntity
  8
TEXT
100
AcDbLine
 10
1.313918476876219
 20
1.191011240714294
 30
0.0
 11
1.313918476876219
 21
1.115958834640087
 31
0.0
  0
LINE
  5
7DE1B343D9D7E50
330
7DE1B343D9D7EB6
100
AcDbEntity
  8
TEXT
100
AcDbLine
 10
1.182720312046489
 20
1.191011240714294
 30
0.0
 11
1.236853908967439
 21
1.191011240714294
 31
0.0
  0
LINE
  5
7DE1B343D9D7E51
330
7DE1B343D9D7EB6
100
AcDbEntity
  8
TEXT
100
AcDbLine
 10
1.182720312046489
 20
0.9888149023825487
 30
0.0
 11
1.182720312046489
 21
1.191011240714294
 31
0.0
  0
LWPOLYLINE
  5
7DE1B343D9D7E52
330
7DE1B343D9D7EB6
100
AcDbEntity
  8
TEXT
100
AcDbPolyline
 90
        2
 70
     0
 43
0.0
 10
1.236853908967438
 20
1.191011240714294
 42
-0.4142135623731017
 10
1.244407698133551
 20
1.183457451548184
 42
-0.9999999999999998
  0
LWPOLYLINE
  5
7DE1B343D9D7E56
330
7DE1B343D9D7EB6
100
AcDbEntity
  8
TEXT
100
AcDbPolyline
 90
        4
 70
     0
 43
0.0
 10
1.244407698133551
 20
1.183457451548184
 10
1.244407698133551
 20
0.9888149023825487
 10
1.312885981421409
 20
0.9888149023825487
 10
1.312885981421409
 20
1.032305847332986
 42
-1.714843617202739
  0
LINE
  5
7DE1B343D9D7E5C
330
7DE1B343D9D7EB6
100
AcDbEntity
  8
TEXT
100
AcDbLine
 10
0.6730218137383073
 20
1.255287935371059
 30
0.0
 11
0.6730218137383073
 21
1.289675852965197
 31
0.0
  0
LINE
  5
7DE1B343D9D7E5D
330
7DE1B343D9D7EB6
100
AcDbEntity
  8
TEXT
100
AcDbLine
 10
0.7448207798822147
 20
1.255287935371059
 30
0.0
 11
0.6730218137383073
 21
1.255287935371059
 31
0.0
  0
LINE
  5
7DE1B343D9D7E5E
330
7DE1B343D9D7EB6
100
AcDbEntity
  8
TEXT
100
AcDbLine
 10
0.8923215765133942
 20
1.255287935371059
 30
0.0
 11
0.8621996637200179
 21
1.255287935371059
 31
0.0
  0
LINE
  5
7DE1B343D9D7E5F
330
7DE1B343D9D7EB6
100
AcDbEntity
  8
TEXT
100
AcDbLine
 10
0.8923215765133942
 20
1.32329941310987
 30
0.0
 11
0.8923215765133942
 21
1.255287935371059
 31
0.0
  0
LINE
  5
7DE1B343D9D7E60
330
7DE1B343D9D7EB6
100
AcDbEntity
  8
TEXT
100
AcDbLine
 10
0.9591302890797592
 20
1.32329941310987
 30
0.0
 11
0.8923215765133942
 21
1.32329941310987
 31
0.0
  0
LWPOLYLINE
  5
7DE1B343D9D7E61
330
7DE1B343D9D7EB6
100
AcDbEntity
  8
TEXT
100
AcDbPolyline
 90
        3
 70
     0
 43
0.0
 10
1.279542048677761
 20
1.255287935371063
 10
1.161241889861717
 20
1.255287935371063
 10
1.161241889861717
 20
1.228120438610167
 42
-1.960274751411753
  0
LINE
  5
7DE1B343D9D7E66
330
7DE1B343D9D7EB6
100
AcDbEntity
  8
TEXT
100
AcDbLine
 10
1.125460199148555
 20
1.255287935371059
 30
0.0
 11
0.9914421432174194
 21
1.255287935371059
 31
0.0
  0
LWPOLYLINE
  5
7DE1B343D9D7E67
330
7DE1B343D9D7EB6
100
AcDbEntity
  8
TEXT
100
AcDbPolyline
 90
        2
 70
     0
 43
0.0
 10
1.125460199148555
 20
1.255287935371063
 42
-0.3328679258950098
 10
1.161241889861717
 20
1.228120438610167
 42
6.772930709997214
  0
LINE
  5
7DE1B343D9D7E6B
330
7DE1B343D9D7EB6
100
AcDbEntity
  8
TEXT
100
AcDbLine
 10
1.315323739390928
 20
1.255287935371059
 30
0.0
 11
1.315323739390928
 21
1.226965389601415
 31
0.0
  0
LWPOLYLINE
  5
7DE1B343D9D7E6C
330
7DE1B343D9D7EB6
100
AcDbEntity
  8
TEXT
100
AcDbPolyline
 90
        2
 70
     0
 43
0.0
 10
1.279542048677761
 20
1.255287935371063
 42
-0.3277054968067132
 10
1.315323739390926
 20
1.226965389601419
 42
6.667889725900311
  0
LINE
  5
7DE1B343D9D7E70
330
7DE1B343D9D7EB6
100
AcDbEntity
  8
TEXT
100
AcDbLine
 10
1.529115587483028
 20
1.150075956817632
 30
0.0
 11
1.485364816301126
 21
1.232326232813777
 31
0.0
  0
LINE
  5
7DE1B343D9D7E71
330
7DE1B343D9D7EB6
100
AcDbEntity
  8
TEXT
100
AcDbLine
 10
1.529115587483028
 20
1.255287935371059
 30
0.0
 11
1.529115587483028
 21
1.150075956817632
 31
0.0
  0
LINE
  5
7DE1B343D9D7E72
330
7DE1B343D9D7EB6
100
AcDbEntity
  8
TEXT
100
AcDbLine
 10
1.756799326421397
 20
1.179422608959521
 30
0.0
 11
1.756799326421397
 21
1.32075214113866
 31
0.0
  0
LINE
  5
7DE1B343D9D7E73
330
7DE1B343D9D7EB6
100
AcDbEntity
  8
TEXT
100
AcDbLine
 10
1.803897484977381
 20
1.255287935371059
 30
0.0
 11
1.756799326421397
 21
1.179422608959521
 31
0.0
  0
LINE
  5
7DE1B343D9D7E74
330
7DE1B343D9D7EB6
100
AcDbEntity
  8
TEXT
100
AcDbLine
 10
1.814332201741304
 20
1.145394692430086
 30
0.0
 11
1.87888931770701
 21
1.255287935371059
 31
0.0
  0
LINE
  5
7DE1B343D9D7E75
330
7DE1B343D9D7EB6
100
AcDbEntity
  8
TEXT
100
AcDbLine
 10
1.692964335198624
 20
0.9888149023825487
 30
0.0
 11
1.757342519517244
 21
0.9888149023825487
 31
0.0
  0
LWPOLYLINE
  5
7DE1B343D9D7E76
330
7DE1B343D9D7EB6
100
AcDbEntity
  8
TEXT
100
AcDbPolyline
 90
        2
 70
     0
 43
0.0
 10
1.533055264788066
 20
1.032305847332986
 42
-0.2901071551932486
 10
1.489979331920421
 20
0.9888149023825487
 42
-5.328517124445184
  0
ARC
  5
7DE1B343D9D7E7A
330
7DE1B343D9D7EB6
100
AcDbEntity
  8
TEXT
100
AcDbCircle
 10
1.421124750263507
 20
1.162651865714297
 30
0.0
 40
0.028359375
100
AcDbArc
 50
25.78218179591245
 51
90.0
  0
LINE
  5
7DE1B343D9D7E7B
330
7DE1B343D9D7EB6
100
AcDbEntity
  8
TEXT
100
AcDbLine
 10
1.45692582556763
 20
1.153736267252162
 30
0.0
 11
1.446661065154065
 21
1.174986806824856
 31
0.0
  0
LINE
  5
7DE1B343D9D7E7C
330
7DE1B343D9D7EB6
100
AcDbEntity
  8
TEXT
100
AcDbLine
 10
1.374637835784247
 20
1.153736267252162
 30
0.0
 11
1.45692582556763
 21
1.153736267252162
 31
0.0
  0
LWPOLYLINE
  5
7DE1B343D9D7E7D
330
7DE1B343D9D7EB6
100
AcDbEntity
  8
TEXT
100
AcDbPolyline
 90
        4
 70
     1
 43
0.0
 10
1.469856866850529
 20
1.091778880366574
 10
1.38119654819067
 20
1.091778880366574
 42
0.9999999999999998
 10
1.38119654819067
 20
1.049380339862713
 10
1.469856866850529
 20
1.049380339862713
 42
1.0
  0
LWPOLYLINE
  5
7DE1B343D9D7E83
330
7DE1B343D9D7EB6
100
AcDbEntity
  8
TEXT
100
AcDbPolyline
 90
        2
 70
     0
 43
0.0
 10
1.355961914289045
 20
0.9888149023825487
 10
1.489979331920421
 20
0.9888149023825487
 42
0.9999999999999998
  0
LINE
  5
7DE1B343D9D7E87
330
7DE1B343D9D7EB6
100
AcDbEntity
  8
TEXT
100
AcDbLine
 10
1.616316353906061
 20
1.191011240714294
 30
0.0
 11
1.692964335198618
 21
1.191011240714294
 31
0.0
  0
LINE
  5
7DE1B343D9D7E88
330
7DE1B343D9D7EB6
100
AcDbEntity
  8
TEXT
100
AcDbLine
 10
1.692964335198618
 20
1.191011240714294
 30
0.0
 11
1.692964335198624
 21
0.9888149023825487
 31
0.0
  0
ARC
  5
7DE1B343D9D7E89
330
7DE1B343D9D7EB6
100
AcDbEntity
  8
TEXT
100
AcDbCircle
 10
1.616316353906059
 20
1.166105365431631
 30
0.0
 40
0.0249058752826653
100
AcDbArc
 50
89.99971217465335
 51
179.9999999999985
  0
LINE
  5
7DE1B343D9D7E8A
330
7DE1B343D9D7EB6
100
AcDbEntity
  8
TEXT
100
AcDbLine
 10
1.591410478623402
 20
0.9888149023825487
 30
0.0
 11
1.591410478623396
 21
1.166105407814017
 31
0.0
  0
LWPOLYLINE
  5
7DE1B343D9D7E8B
330
7DE1B343D9D7EB6
100
AcDbEntity
  8
TEXT
100
AcDbPolyline
 90
        2
 70
     0
 43
0.0
 10
1.533055264788066
 20
0.9888149023825487
 10
1.5914104786234
 20
0.9888149023825487
  0
LWPOLYLINE
  5
7DE1B343D9D7E8F
330
7DE1B343D9D7EB6
100
AcDbEntity
  8
TEXT
100
AcDbPolyline
 90
        2
 70
     0
 43
0.0
 10
1.533055264788066
 20
1.032305847332986
 10
1.533055264788066
 20
0.9888149023825487
  0
LINE
  5
7DE1B343D9D7E93
330
7DE1B343D9D7EB6
100
AcDbEntity
  8
TEXT
100
AcDbLine
 10
1.909824425104915
 20
0.9888149023825487
 30
0.0
 11
1.814332201741304
 21
1.145394692430086
 31
0.0
  0
LINE
  5
7DE1B343D9D7E94
330
7DE1B343D9D7EB6
100
AcDbEntity
  8
TEXT
100
AcDbLine
 10
1.833246052728709
 20
0.9888149023825487
 30
0.0
 11
1.909824425104915
 21
0.9888149023825487
 31
0.0
  0
LINE
  5
7DE1B343D9D7E95
330
7DE1B343D9D7EB6
100
AcDbEntity
  8
TEXT
100
AcDbLine
 10
1.757342519517244
 20
1.120394470858729
 30
0.0
 11
1.833246052728709
 21
0.9888149023825487
 31
0.0
  0
LINE
  5
7DE1B343D9D7E96
330
7DE1B343D9D7EB6
100
AcDbEntity
  8
TEXT
100
AcDbLine
 10
1.757342519517244
 20
0.9888149023825487
 30
0.0
 11
1.757342519517244
 21
1.120394470858729
 31
0.0
  0
LINE
  5
7DE1B343D9D7E97
330
7DE1B343D9D7EB6
100
AcDbEntity
  8
TEXT
100
AcDbLine
 10
1.756799326421397
 20
1.32075214113866
 30
0.0
 11
1.688484447872124
 21
1.32075214113866
 31
0.0
  0
ARC
  5
7DE1B343D9D7E98
330
7DE1B343D9D7EB6
100
AcDbEntity
  8
TEXT
100
AcDbCircle
 10
1.448128708830918
 20
1.213704368250157
 30
0.0
 40
0.0416329381542859
100
AcDbArc
 50
26.56974201007528
 51
87.20939649401342
  0
LINE
  5
7DE1B343D9D7E99
330
7DE1B343D9D7EB6
100
AcDbEntity
  8
TEXT
100
AcDbLine
 10
1.593012493782529
 20
1.255287935371059
 30
0.0
 11
1.529115587483028
 21
1.255287935371059
 31
0.0
  0
LINE
  5
7DE1B343D9D7E9A
330
7DE1B343D9D7EB6
100
AcDbEntity
  8
TEXT
100
AcDbLine
 10
1.593012493782529
 20
1.227740285510185
 30
0.0
 11
1.593012493782529
 21
1.255287935371059
 31
0.0
  0
ARC
  5
7DE1B343D9D7E9B
330
7DE1B343D9D7EB6
100
AcDbEntity
  8
TEXT
100
AcDbCircle
 10
1.624205310845637
 20
1.224042208088794
 30
0.0
 40
0.0314112657011332
100
AcDbArc
 50
95.88484768694724
 51
173.2388340632136
  0
LINE
  5
7DE1B343D9D7E9C
330
7DE1B343D9D7EB6
100
AcDbEntity
  8
TEXT
100
AcDbLine
 10
1.688484447872118
 20
1.255287935371059
 30
0.0
 11
1.620984730222602
 21
1.255287935371059
 31
0.0
  0
LINE
  5
7DE1B343D9D7E9D
330
7DE1B343D9D7EB6
100
AcDbEntity
  8
TEXT
100
AcDbLine
 10
1.688484447872124
 20
1.32075214113866
 30
0.0
 11
1.688484447872118
 21
1.255287935371059
 31
0.0
  0
LINE
  5
7DE1B343D9D7E9E
330
7DE1B343D9D7EB6
100
AcDbEntity
  8
TEXT
100
AcDbLine
 10
1.87888931770701
 20
1.255287935371059
 30
0.0
 11
1.803897484977383
 21
1.255287935371059
 31
0.0
  0
ENDSEC
  0
SECTION
  2
OBJECTS
  0
DICTIONARY
  5
7DE1B343D9D7EAA
330
0
100
AcDbDictionary
  3
ACAD_GROUP
350
7DE1B343D9D7EAB
  3
ACAD_LAYOUT
350
7DE1B343D9D7ED0
  3
ACAD_MLINESTYLE
350
7DE1B343D9D7EAC
  3
ACAD_PLOTSETTINGS
350
7DE1B343D9D7ED1
  3
ACAD_PLOTSTYLENAME
350
7DE1B343D9D7ECE
  3
ACDBHEADERROUNDTRIPXREC
350
7DE1B343D9D7EDB
  3
ACDBVARIABLEDICTIONARY
350
7DE1B343D9D7ED8
  0
DICTIONARY
  5
7DE1B343D9D7EFD
330
7DE1B343D9D7EB6
100
AcDbDictionary
280
     1
  3
ACAD_LAYOUTSELFREF
360
7DE1B343D9D7EFE
  0
DICTIONARY
  5
7DE1B343D9D7EFB
330
7DE1B343D9D7EB3
100
AcDbDictionary
280
     1
  3
ACAD_LAYOUTSELFREF
360
7DE1B343D9D7EFC
  0
DICTIONARY
  5
7DE1B343D9D7EAB
102
{ACAD_REACTORS
330
7DE1B343D9D7EAA
102
}
330
7DE1B343D9D7EAA
100
AcDbDictionary
  0
DICTIONARY
  5
7DE1B343D9D7ED0
102
{ACAD_REACTORS
330
7DE1B343D9D7EAA
102
}
330
7DE1B343D9D7EAA
100
AcDbDictionary
  0
DICTIONARY
  5
7DE1B343D9D7EAC
102
{ACAD_REACTORS
330
7DE1B343D9D7EAA
102
}
330
7DE1B343D9D7EAA
100
AcDbDictionary
  3
STANDARD
350
7DE1B343D9D7EB9
  0
DICTIONARY
  5
7DE1B343D9D7ED1
102
{ACAD_REACTORS
330
7DE1B343D9D7EAA
102
}
330
7DE1B343D9D7EAA
100
AcDbDictionary
  0
ACDBDICTIONARYWDFLT
  5
7DE1B343D9D7ECE
102
{ACAD_REACTORS
330
7DE1B343D9D7EAA
102
}
330
7DE1B343D9D7EAA
100
AcDbDictionary
281
     1
  3
Normal
350
7DE1B343D9D7ECF
100
AcDbDictionaryWithDefault
340
7DE1B343D9D7ECF
  0
DICTIONARY
  5
7DE1B343D9D7EDB
102
{ACAD_REACTORS
330
7DE1B343D9D7EAA
102
}
330
7DE1B343D9D7EAA
100
AcDbDictionary
  3
CEPSNTYPE
350
7DE1B343D9D7EE5
  3
FINGERPRINTGUID
350
7DE1B343D9D7EE6
  3
HYPERLINKBASE
350
7DE1B343D9D7EDE
  3
INSUNITS
350
7DE1B343D9D7EE4
  3
LAYOUTDICT
350
7DE1B343D9D7EE0
  3
LWETCUNION
350
7DE1B343D9D7EE3
  3
PLOTSETDICT
350
7DE1B343D9D7EE1
  3
PLOTSTYLNAMDICT
350
7DE1B343D9D7EE2
  3
PSVPSCALE
350
7DE1B343D9D7EE8
  3
PUCSBASE
350
7DE1B343D9D7EEB
  3
PUCSORGBACK
350
7DE1B343D9D7EF1
  3
PUCSORGBOTTOM
350
7DE1B343D9D7EED
  3
PUCSORGFRONT
350
7DE1B343D9D7EF0
  3
PUCSORGLEFT
350
7DE1B343D9D7EEE
  3
PUCSORGRIGHT
350
7DE1B343D9D7EEF
  3
PUCSORGTOP
350
7DE1B343D9D7EEC
  3
PUCSORTHOREF
350
7DE1B343D9D7EE9
  3
PUCSORTHOVIEW
350
7DE1B343D9D7EEA
  3
STYLESHEET
350
7DE1B343D9D7EDF
  3
TSTACKALIGN
350
7DE1B343D9D7EDC
  3
TSTACKSIZE
350
7DE1B343D9D7EDD
  3
UCSBASE
350
7DE1B343D9D7EF4
  3
UCSORGBACK
350
7DE1B343D9D7EFA
  3
UCSORGBOTTOM
350
7DE1B343D9D7EF6
  3
UCSORGFRONT
350
7DE1B343D9D7EF9
  3
UCSORGLEFT
350
7DE1B343D9D7EF7
  3
UCSORGRIGHT
350
7DE1B343D9D7EF8
  3
UCSORGTOP
350
7DE1B343D9D7EF5
  3
UCSORTHOREF
350
7DE1B343D9D7EF2
  3
UCSORTHOVIEW
350
7DE1B343D9D7EF3
  3
VERSIONGUID
350
7DE1B343D9D7EE7
  0
DICTIONARY
  5
7DE1B343D9D7ED8
102
{ACAD_REACTORS
330
7DE1B343D9D7EAA
102
}
330
7DE1B343D9D7EAA
100
AcDbDictionary
  3
DIMASSOC
350
7DE1B343D9D7ED9
  0
XRECORD
  5
7DE1B343D9D7EFE
102
{ACAD_REACTORS
330
7DE1B343D9D7EFD
102
}
330
7DE1B343D9D7EFD
100
AcDbXrecord
340
7DE1B343D9D7EB6
  0
XRECORD
  5
7DE1B343D9D7EFC
102
{ACAD_REACTORS
330
7DE1B343D9D7EFB
102
}
330
7DE1B343D9D7EFB
100
AcDbXrecord
340
7DE1B343D9D7EB3
  0
MLINESTYLE
  5
7DE1B343D9D7EB9
102
{ACAD_REACTORS
330
7DE1B343D9D7EAC
102
}
330
7DE1B343D9D7EAC
100
AcDbMlineStyle
  2
STANDARD
 70
     0
  3

 62
     0
 51
90.0
 52
90.0
 71
     2
 49
0.5
 62
   256
  6
BYLAYER
 49
-0.5
 62
   256
  6
BYLAYER
  0
ACDBPLACEHOLDER
  5
7DE1B343D9D7ECF
102
{ACAD_REACTORS
330
7DE1B343D9D7ECE
102
}
330
7DE1B343D9D7ECE
100
AcDbPlaceHolder
280
     0
  0
XRECORD
  5
7DE1B343D9D7EE5
102
{ACAD_REACTORS
330
7DE1B343D9D7EDB
102
}
330
7DE1B343D9D7EDB
100
AcDbXrecord
 90
        0
  0
XRECORD
  5
7DE1B343D9D7EE6
102
{ACAD_REACTORS
330
7DE1B343D9D7EDB
102
}
330
7DE1B343D9D7EDB
100
AcDbXrecord
  1
{E10F3E10-8DB4-11D6-88E6-0090279574E7}
  0
XRECORD
  5
7DE1B343D9D7EDE
102
{ACAD_REACTORS
330
7DE1B343D9D7EDB
102
}
330
7DE1B343D9D7EDB
100
AcDbXrecord
  1

  0
XRECORD
  5
7DE1B343D9D7EE4
102
{ACAD_REACTORS
330
7DE1B343D9D7EDB
102
}
330
7DE1B343D9D7EDB
100
AcDbXrecord
 90
        0
  0
XRECORD
  5
7DE1B343D9D7EE0
102
{ACAD_REACTORS
330
7DE1B343D9D7EDB
102
}
330
7DE1B343D9D7EDB
100
AcDbXrecord
340
7DE1B343D9D7ED0
  0
XRECORD
  5
7DE1B343D9D7EE3
102
{ACAD_REACTORS
330
7DE1B343D9D7EDB
102
}
330
7DE1B343D9D7EDB
100
AcDbXrecord
 90
    14877
  0
XRECORD
  5
7DE1B343D9D7EE1
102
{ACAD_REACTORS
330
7DE1B343D9D7EDB
102
}
330
7DE1B343D9D7EDB
100
AcDbXrecord
340
7DE1B343D9D7ED1
  0
XRECORD
  5
7DE1B343D9D7EE2
102
{ACAD_REACTORS
330
7DE1B343D9D7EDB
102
}
330
7DE1B343D9D7EDB
100
AcDbXrecord
340
7DE1B343D9D7ECE
  0
XRECORD
  5
7DE1B343D9D7EE8
102
{ACAD_REACTORS
330
7DE1B343D9D7EDB
102
}
330
7DE1B343D9D7EDB
100
AcDbXrecord
 40
0.0
  0
XRECORD
  5
7DE1B343D9D7EEB
102
{ACAD_REACTORS
330
7DE1B343D9D7EDB
102
}
330
7DE1B343D9D7EDB
100
AcDbXrecord
340
0
  0
XRECORD
  5
7DE1B343D9D7EF1
102
{ACAD_REACTORS
330
7DE1B343D9D7EDB
102
}
330
7DE1B343D9D7EDB
100
AcDbXrecord
 10
0.0
 20
0.0
 30
0.0
  0
XRECORD
  5
7DE1B343D9D7EED
102
{ACAD_REACTORS
330
7DE1B343D9D7EDB
102
}
330
7DE1B343D9D7EDB
100
AcDbXrecord
 10
0.0
 20
0.0
 30
0.0
  0
XRECORD
  5
7DE1B343D9D7EF0
102
{ACAD_REACTORS
330
7DE1B343D9D7EDB
102
}
330
7DE1B343D9D7EDB
100
AcDbXrecord
 10
0.0
 20
0.0
 30
0.0
  0
XRECORD
  5
7DE1B343D9D7EEE
102
{ACAD_REACTORS
330
7DE1B343D9D7EDB
102
}
330
7DE1B343D9D7EDB
100
AcDbXrecord
 10
0.0
 20
0.0
 30
0.0
  0
XRECORD
  5
7DE1B343D9D7EEF
102
{ACAD_REACTORS
330
7DE1B343D9D7EDB
102
}
330
7DE1B343D9D7EDB
100
AcDbXrecord
 10
0.0
 20
0.0
 30
0.0
  0
XRECORD
  5
7DE1B343D9D7EEC
102
{ACAD_REACTORS
330
7DE1B343D9D7EDB
102
}
330
7DE1B343D9D7EDB
100
AcDbXrecord
 10
0.0
 20
0.0
 30
0.0
  0
XRECORD
  5
7DE1B343D9D7EE9
102
{ACAD_REACTORS
330
7DE1B343D9D7EDB
102
}
330
7DE1B343D9D7EDB
100
AcDbXrecord
340
0
  0
XRECORD
  5
7DE1B343D9D7EEA
102
{ACAD_REACTORS
330
7DE1B343D9D7EDB
102
}
330
7DE1B343D9D7EDB
100
AcDbXrecord
 70
     0
  0
XRECORD
  5
7DE1B343D9D7EDF
102
{ACAD_REACTORS
330
7DE1B343D9D7EDB
102
}
330
7DE1B343D9D7EDB
100
AcDbXrecord
  1

  0
XRECORD
  5
7DE1B343D9D7EDC
102
{ACAD_REACTORS
330
7DE1B343D9D7EDB
102
}
330
7DE1B343D9D7EDB
100
AcDbXrecord
 90
        1
  0
XRECORD
  5
7DE1B343D9D7EDD
102
{ACAD_REACTORS
330
7DE1B343D9D7EDB
102
}
330
7DE1B343D9D7EDB
100
AcDbXrecord
 90
       70
  0
XRECORD
  5
7DE1B343D9D7EF4
102
{ACAD_REACTORS
330
7DE1B343D9D7EDB
102
}
330
7DE1B343D9D7EDB
100
AcDbXrecord
340
0
  0
XRECORD
  5
7DE1B343D9D7EFA
102
{ACAD_REACTORS
330
7DE1B343D9D7EDB
102
}
330
7DE1B343D9D7EDB
100
AcDbXrecord
 10
0.0
 20
0.0
 30
0.0
  0
XRECORD
  5
7DE1B343D9D7EF6
102
{ACAD_REACTORS
330
7DE1B343D9D7EDB
102
}
330
7DE1B343D9D7EDB
100
AcDbXrecord
 10
0.0
 20
0.0
 30
0.0
  0
XRECORD
  5
7DE1B343D9D7EF9
102
{ACAD_REACTORS
330
7DE1B343D9D7EDB
102
}
330
7DE1B343D9D7EDB
100
AcDbXrecord
 10
0.0
 20
0.0
 30
0.0
  0
XRECORD
  5
7DE1B343D9D7EF7
102
{ACAD_REACTORS
330
7DE1B343D9D7EDB
102
}
330
7DE1B343D9D7EDB
100
AcDbXrecord
 10
0.0
 20
0.0
 30
0.0
  0
XRECORD
  5
7DE1B343D9D7EF8
102
{ACAD_REACTORS
330
7DE1B343D9D7EDB
102
}
330
7DE1B343D9D7EDB
100
AcDbXrecord
 10
0.0
 20
0.0
 30
0.0
  0
XRECORD
  5
7DE1B343D9D7EF5
102
{ACAD_REACTORS
330
7DE1B343D9D7EDB
102
}
330
7DE1B343D9D7EDB
100
AcDbXrecord
 10
0.0
 20
0.0
 30
0.0
  0
XRECORD
  5
7DE1B343D9D7EF2
102
{ACAD_REACTORS
330
7DE1B343D9D7EDB
102
}
330
7DE1B343D9D7EDB
100
AcDbXrecord
340
0
  0
XRECORD
  5
7DE1B343D9D7EF3
102
{ACAD_REACTORS
330
7DE1B343D9D7EDB
102
}
330
7DE1B343D9D7EDB
100
AcDbXrecord
 70
     0
  0
XRECORD
  5
7DE1B343D9D7EE7
102
{ACAD_REACTORS
330
7DE1B343D9D7EDB
102
}
330
7DE1B343D9D7EDB
100
AcDbXrecord
  1
{E10F3E12-8DB4-11D6-88E6-0090279574E7}
  0
DICTIONARYVAR
  5
7DE1B343D9D7ED9
102
{ACAD_REACTORS
330
7DE1B343D9D7ED8
102
}
330
7DE1B343D9D7ED8
100
DictionaryVariables
280
     0
  1
1
  0
ENDSEC
  0
EOF
