  0
SECTION
  2
HEADER
  9
$ACADVER
  1
AC1014
  9
$ACADMAINTVER
 70
     9
  9
$DWGCODEPAGE
  3
ANSI_1252
  9
$INSBASE
 10
2.549226462231431
 20
2.326852238398208
 30
0.0
  9
$EXTMIN
 10
0.7749948830042886
 20
-0.3733387944749017
 30
0.0
  9
$EXTMAX
 10
4.260214204751417
 20
2.389352238398208
 30
0.0
  9
$LIMMIN
 10
0.0
 20
0.0
  9
$LIMMAX
 10
18.0
 20
12.0
  9
$ORTHOMODE
 70
     1
  9
$REGENMODE
 70
     1
  9
$FILLMODE
 70
     1
  9
$QTEXTMODE
 70
     0
  9
$MIRRTEXT
 70
     0
  9
$DRAGMODE
 70
     2
  9
$LTSCALE
 40
1.0
  9
$OSMODE
 70
    39
  9
$ATTMODE
 70
     1
  9
$TEXTSIZE
 40
0.125
  9
$TRACEWID
 40
0.05
  9
$TEXTSTYLE
  7
ROMANS
  9
$CLAYER
  8
0
  9
$CELTYPE
  6
BYLAYER
  9
$CECOLOR
 62
   256
  9
$CELTSCALE
 40
1.0
  9
$DELOBJ
 70
     1
  9
$DISPSILH
 70
     1
  9
$DIMSCALE
 40
1.0
  9
$DIMASZ
 40
0.125
  9
$DIMEXO
 40
0.125
  9
$DIMDLI
 40
0.375
  9
$DIMRND
 40
0.0
  9
$DIMDLE
 40
0.0
  9
$DIMEXE
 40
0.125
  9
$DIMTP
 40
0.0
  9
$DIMTM
 40
0.0
  9
$DIMTXT
 40
0.125
  9
$DIMCEN
 40
-0.125
  9
$DIMTSZ
 40
0.0
  9
$DIMTOL
 70
     0
  9
$DIMLIM
 70
     0
  9
$DIMTIH
 70
     1
  9
$DIMTOH
 70
     1
  9
$DIMSE1
 70
     0
  9
$DIMSE2
 70
     0
  9
$DIMTAD
 70
     0
  9
$DIMZIN
 70
     4
  9
$DIMBLK
  1

  9
$DIMASO
 70
     1
  9
$DIMSHO
 70
     1
  9
$DIMPOST
  1

  9
$DIMAPOST
  1

  9
$DIMALT
 70
     0
  9
$DIMALTD
 70
     2
  9
$DIMALTF
 40
25.4
  9
$DIMLFAC
 40
1.0
  9
$DIMTOFL
 70
     0
  9
$DIMTVP
 40
0.0
  9
$DIMTIX
 70
     1
  9
$DIMSOXD
 70
     0
  9
$DIMSAH
 70
     0
  9
$DIMBLK1
  1

  9
$DIMBLK2
  1

  9
$DIMSTYLE
  2
STANDARD
  9
$DIMCLRD
 70
     0
  9
$DIMCLRE
 70
     0
  9
$DIMCLRT
 70
     0
  9
$DIMTFAC
 40
1.0
  9
$DIMGAP
 40
0.09
  9
$DIMJUST
 70
     0
  9
$DIMSD1
 70
     0
  9
$DIMSD2
 70
     0
  9
$DIMTOLJ
 70
     1
  9
$DIMTZIN
 70
     4
  9
$DIMALTZ
 70
     0
  9
$DIMALTTZ
 70
     0
  9
$DIMFIT
 70
     3
  9
$DIMUPT
 70
     0
  9
$DIMUNIT
 70
     2
  9
$DIMDEC
 70
     3
  9
$DIMTDEC
 70
     3
  9
$DIMALTU
 70
     2
  9
$DIMALTTD
 70
     2
  9
$DIMTXSTY
  7
ROMANS
  9
$DIMAUNIT
 70
     0
  9
$LUNITS
 70
     2
  9
$LUPREC
 70
     3
  9
$SKETCHINC
 40
0.1
  9
$FILLETRAD
 40
0.03125
  9
$AUNITS
 70
     0
  9
$AUPREC
 70
     0
  9
$MENU
  1
ACAD
  9
$ELEVATION
 40
0.0
  9
$PELEVATION
 40
0.0
  9
$THICKNESS
 40
0.0
  9
$LIMCHECK
 70
     0
  9
$BLIPMODE
 70
     0
  9
$CHAMFERA
 40
0.0
  9
$CHAMFERB
 40
0.0
  9
$CHAMFERC
 40
0.0
  9
$CHAMFERD
 40
0.0
  9
$SKPOLY
 70
     0
  9
$TDCREATE
 40
2448994.380913310
  9
$TDUPDATE
 40
2452458.299800856
  9
$TDINDWG
 40
0.0005203241
  9
$TDUSRTIMER
 40
0.0005203241
  9
$USRTIMER
 70
     1
  9
$ANGBASE
 50
0.0
  9
$ANGDIR
 70
     0
  9
$PDMODE
 70
     0
  9
$PDSIZE
 40
0.0
  9
$PLINEWID
 40
0.0
  9
$COORDS
 70
     2
  9
$SPLFRAME
 70
     0
  9
$SPLINETYPE
 70
     6
  9
$SPLINESEGS
 70
     8
  9
$ATTDIA
 70
     0
  9
$ATTREQ
 70
     1
  9
$HANDLING
 70
 22529
  9
$HANDSEED
  5
7DE1B343D9D796E
  9
$SURFTAB1
 70
     6
  9
$SURFTAB2
 70
     6
  9
$SURFTYPE
 70
     6
  9
$SURFU
 70
     6
  9
$SURFV
 70
     6
  9
$UCSNAME
  2

  9
$UCSORG
 10
0.0
 20
0.0
 30
0.0
  9
$UCSXDIR
 10
1.0
 20
0.0
 30
0.0
  9
$UCSYDIR
 10
0.0
 20
1.0
 30
0.0
  9
$PUCSNAME
  2

  9
$PUCSORG
 10
0.0
 20
0.0
 30
0.0
  9
$PUCSXDIR
 10
1.0
 20
0.0
 30
0.0
  9
$PUCSYDIR
 10
0.0
 20
1.0
 30
0.0
  9
$USERI1
 70
     0
  9
$USERI2
 70
     0
  9
$USERI3
 70
     0
  9
$USERI4
 70
     0
  9
$USERI5
 70
     0
  9
$USERR1
 40
0.0
  9
$USERR2
 40
0.0
  9
$USERR3
 40
0.0
  9
$USERR4
 40
0.0
  9
$USERR5
 40
0.0
  9
$WORLDVIEW
 70
     1
  9
$SHADEDGE
 70
     3
  9
$SHADEDIF
 70
    70
  9
$TILEMODE
 70
     1
  9
$MAXACTVP
 70
    16
  9
$PINSBASE
 10
0.3077191387237553
 20
50.00000000000001
 30
2.856707330502818
  9
$PLIMCHECK
 70
     0
  9
$PEXTMIN
 10
1.000000000000000E+20
 20
1.000000000000000E+20
 30
1.000000000000000E+20
  9
$PEXTMAX
 10
-1.000000000000000E+20
 20
-1.000000000000000E+20
 30
-1.000000000000000E+20
  9
$PLIMMIN
 10
0.0
 20
0.0
  9
$PLIMMAX
 10
12.0
 20
9.0
  9
$UNITMODE
 70
     0
  9
$VISRETAIN
 70
     0
  9
$PLINEGEN
 70
     1
  9
$PSLTSCALE
 70
     0
  9
$TREEDEPTH
 70
  3020
  9
$PICKSTYLE
 70
     1
  9
$CMLSTYLE
  2
STANDARD
  9
$CMLJUST
 70
     0
  9
$CMLSCALE
 40
1.0
  9
$PROXYGRAPHICS
 70
     1
  9
$MEASUREMENT
 70
     0
  0
ENDSEC
  0
SECTION
  2
CLASSES
  0
CLASS
  1
LWPOLYLINE
  2
AcDbPolyline
  3
AutoCAD 2000
 90
        0
280
     0
281
     1
  0
CLASS
  1
ACDBDICTIONARYWDFLT
  2
AcDbDictionaryWithDefault
  3
AutoCAD 2000
 90
        0
280
     0
281
     0
  0
CLASS
  1
ACDBPLACEHOLDER
  2
AcDbPlaceHolder
  3
AutoCAD 2000
 90
        0
280
     0
281
     0
  0
CLASS
  1
LAYOUT
  2
AcDbLayout
  3
AutoCAD 2000
 90
        0
280
     0
281
     0
  0
CLASS
  1
DICTIONARYVAR
  2
AcDbDictionaryVar
  3
AutoCAD 2000
 90
        0
280
     0
281
     0
  0
CLASS
  1
LONG_TRANSACTION
  2
AcDbLongTransaction
  3
AutoCAD 2000
 90
        0
280
     0
281
     0
  0
CLASS
  1
LWPOLYLINE
  2
AcDbPolyline
  3
AutoCAD 2000
 90
        0
280
     0
281
     1
  0
CLASS
  1
HATCH
  2
AcDbHatch
  3
AutoCAD 2000
 90
        0
280
     0
281
     1
  0
CLASS
  1
XRECORD
  2
AcDbXrecord
  3
AutoCAD 2000
 90
        0
280
     0
281
     0
  0
ENDSEC
  0
SECTION
  2
TABLES
  0
TABLE
  2
VPORT
  5
7DE1B343D9D7915
330
0
100
AcDbSymbolTable
 70
     2
  0
VPORT
  5
7DE1B343D9D7949
330
7DE1B343D9D7915
100
AcDbSymbolTableRecord
100
AcDbViewportTableRecord
  2
*ACTIVE
 70
     0
 10
0.0
 20
0.0
 11
1.0
 21
1.0
 12
6.584737678263324
 22
1.007843478968297
 13
0.0
 23
0.0
 14
0.015625
 24
0.015625
 15
0.0
 25
0.0
 16
0.0
 26
0.0
 36
1.0
 17
0.0
 27
0.0
 37
0.0
 40
3.119386468258196
 41
4.320930232558139
 42
50.0
 43
0.0
 44
0.0
 50
0.0
 51
0.0
 71
     0
 72
  2000
 73
     1
 74
     0
 75
     0
 76
     0
 77
     0
 78
     0
  0
ENDTAB
  0
TABLE
  2
LTYPE
  5
7DE1B343D9D7912
330
0
100
AcDbSymbolTable
 70
     1
  0
LTYPE
  5
7DE1B343D9D791F
330
7DE1B343D9D7912
100
AcDbSymbolTableRecord
100
AcDbLinetypeTableRecord
  2
BYBLOCK
 70
     0
  3

 72
    65
 73
     0
 40
0.0
  0
LTYPE
  5
7DE1B343D9D7920
330
7DE1B343D9D7912
100
AcDbSymbolTableRecord
100
AcDbLinetypeTableRecord
  2
BYLAYER
 70
     0
  3

 72
    65
 73
     0
 40
0.0
  0
LTYPE
  5
7DE1B343D9D7921
330
7DE1B343D9D7912
100
AcDbSymbolTableRecord
100
AcDbLinetypeTableRecord
  2
CONTINUOUS
 70
     0
  3
Solid line
 72
    65
 73
     0
 40
0.0
  0
ENDTAB
  0
TABLE
  2
LAYER
  5
7DE1B343D9D790F
330
0
100
AcDbSymbolTable
 70
     2
  0
LAYER
  5
7DE1B343D9D791C
330
7DE1B343D9D790F
100
AcDbSymbolTableRecord
100
AcDbLayerTableRecord
  2
0
 70
     0
 62
     7
  6
CONTINUOUS
  0
LAYER
  5
7DE1B343D9D792C
330
7DE1B343D9D790F
100
AcDbSymbolTableRecord
100
AcDbLayerTableRecord
  2
TEXT
 70
     0
 62
     3
  6
CONTINUOUS
  0
ENDTAB
  0
TABLE
  2
STYLE
  5
7DE1B343D9D7910
330
0
100
AcDbSymbolTable
 70
     3
  0
STYLE
  5
7DE1B343D9D791D
330
7DE1B343D9D7910
100
AcDbSymbolTableRecord
100
AcDbTextStyleTableRecord
  2
STANDARD
 70
     0
 40
0.0
 41
1.0
 50
0.0
 71
     0
 42
0.3125
  3
txt
  4

  0
STYLE
  5
7DE1B343D9D7929
330
7DE1B343D9D7910
100
AcDbSymbolTableRecord
100
AcDbTextStyleTableRecord
  2
ITALICC
 70
     0
 40
0.0
 41
1.0
 50
0.0
 71
     0
 42
0.125
  3
italicc
  4

  0
STYLE
  5
7DE1B343D9D7939
330
7DE1B343D9D7910
100
AcDbSymbolTableRecord
100
AcDbTextStyleTableRecord
  2
ROMANS
 70
     0
 40
0.0
 41
1.0
 50
0.0
 71
     0
 42
0.125
  3
romans.shx
  4

  0
ENDTAB
  0
TABLE
  2
VIEW
  5
7DE1B343D9D7913
330
0
100
AcDbSymbolTable
 70
     0
  0
ENDTAB
  0
TABLE
  2
UCS
  5
7DE1B343D9D7914
330
0
100
AcDbSymbolTable
 70
     0
  0
ENDTAB
  0
TABLE
  2
APPID
  5
7DE1B343D9D7916
330
0
100
AcDbSymbolTable
 70
     1
  0
APPID
  5
7DE1B343D9D791E
330
7DE1B343D9D7916
100
AcDbSymbolTableRecord
100
AcDbRegAppTableRecord
  2
ACAD
 70
     0
  0
ENDTAB
  0
TABLE
  2
DIMSTYLE
  5
7DE1B343D9D7917
330
0
100
AcDbSymbolTable
 70
     1
  0
DIMSTYLE
105
7DE1B343D9D7931
330
7DE1B343D9D7917
100
AcDbSymbolTableRecord
100
AcDbDimStyleTableRecord
  2
STANDARD
 70
     0
  3

  4

  5

  6

  7

 40
1.0
 41
0.125
 42
0.125
 43
0.375
 44
0.125
 45
0.0
 46
0.0
 47
0.0
 48
0.0
140
0.125
141
-0.125
142
0.0
143
25.4
144
1.0
145
0.0
146
1.0
147
0.09
 71
     0
 72
     0
 73
     1
 74
     1
 75
     0
 76
     0
 77
     0
 78
     4
170
     0
171
     2
172
     0
173
     0
174
     1
175
     0
176
     0
177
     0
178
     0
270
     2
271
     3
272
     3
273
     2
274
     2
340
7DE1B343D9D7939
275
     0
280
     0
281
     0
282
     0
283
     1
284
     4
285
     0
286
     0
287
     3
288
     0
  0
ENDTAB
  0
TABLE
  2
BLOCK_RECORD
  5
7DE1B343D9D790E
330
0
100
AcDbSymbolTable
 70
     0
  0
BLOCK_RECORD
  5
7DE1B343D9D7925
102
{ACAD_XDICTIONARY
360
7DE1B343D9D796C
102
}
330
7DE1B343D9D790E
100
AcDbSymbolTableRecord
100
AcDbBlockTableRecord
  2
*MODEL_SPACE
  0
BLOCK_RECORD
  5
7DE1B343D9D7922
102
{ACAD_XDICTIONARY
360
7DE1B343D9D796A
102
}
330
7DE1B343D9D790E
100
AcDbSymbolTableRecord
100
AcDbBlockTableRecord
  2
*PAPER_SPACE
  0
ENDTAB
  0
ENDSEC
  0
SECTION
  2
BLOCKS
  0
BLOCK
  5
7DE1B343D9D792F
330
7DE1B343D9D7925
100
AcDbEntity
  8
0
100
AcDbBlockBegin
  2
*MODEL_SPACE
 70
     0
 10
0.0
 20
0.0
 30
0.0
  3
*MODEL_SPACE
  1

  0
ENDBLK
  5
7DE1B343D9D7930
330
7DE1B343D9D7925
100
AcDbEntity
  8
0
100
AcDbBlockEnd
  0
BLOCK
  5
7DE1B343D9D792D
330
7DE1B343D9D7922
100
AcDbEntity
 67
     1
  8
0
100
AcDbBlockBegin
  2
*PAPER_SPACE
 70
     0
 10
0.0
 20
0.0
 30
0.0
  3
*PAPER_SPACE
  1

  0
ENDBLK
  5
7DE1B343D9D792E
330
7DE1B343D9D7922
100
AcDbEntity
 67
     1
  8
0
100
AcDbBlockEnd
  0
ENDSEC
  0
SECTION
  2
ENTITIES
  0
LWPOLYLINE
  5
7DE1B343D9D636A
330
7DE1B343D9D7925
100
AcDbEntity
  8
0
100
AcDbPolyline
 90
       20
 70
     1
 43
0.0
 10
2.486726462231431
 20
1.045602238398208
 10
2.205476462231431
 20
1.045602238398208
 10
2.205476462231431
 20
0.9831022383982082
 10
2.486726462231431
 20
0.9831022383982082
 10
2.486726462231431
 20
0.3893522383982082
 10
2.549226462231431
 20
0.3893522383982082
 10
2.549226462231431
 20
2.326852238398208
 10
2.705476462231431
 20
2.326852238398207
 10
2.705476462231431
 20
2.389352238398208
 10
2.335476462231431
 20
2.389352238398208
 10
2.335476462231431
 20
2.326852238398208
 10
2.486726462231431
 20
2.326852238398208
 10
2.486726462231431
 20
1.936227238398208
 10
2.335476462231431
 20
1.936227238398208
 10
2.335476462231431
 20
1.873727238398208
 10
2.486726462231431
 20
1.873727238398208
 10
2.486726462231431
 20
1.498727238398208
 10
2.205476462231431
 20
1.498727238398208
 10
2.205476462231431
 20
1.436227238398208
 10
2.486726462231431
 20
1.436227238398208
  0
TEXT
  5
7DE1B343D9D77D0
330
7DE1B343D9D7925
100
AcDbEntity
  8
TEXT
100
AcDbText
 10
1.76202408127905
 20
0.0846798096076798
 30
0.0
 40
0.125
  1
PART #110195
  7
ITALICC
 72
     1
 11
2.517976462231431
 21
0.0846798096076798
 31
0.0
100
AcDbText
  0
TEXT
  5
7DE1B343D9D77D1
330
7DE1B343D9D7925
100
AcDbEntity
  8
TEXT
100
AcDbText
 10
2.931281620481752
 20
-0.3622428330646954
 30
0.0
 40
0.0522247191011236
  1
Phone  1-800-328-2495
 41
1.272321428571429
 72
     5
 11
4.260214204751416
 21
-0.3622428330646954
 31
0.0
100
AcDbText
  0
TEXT
  5
7DE1B343D9D77D2
330
7DE1B343D9D7925
100
AcDbEntity
  8
TEXT
100
AcDbText
 10
2.931281620481752
 20
-0.0824675521658189
 30
0.0
 40
0.0522247191011236
  1
Stylmark  Incorporated
 41
1.221428571428573
 72
     5
 11
4.260214204751416
 21
-0.0824675521658189
 31
0.0
100
AcDbText
  0
TEXT
  5
7DE1B343D9D77D3
330
7DE1B343D9D7925
100
AcDbEntity
  8
TEXT
100
AcDbText
 10
2.931281620481752
 20
-0.175725979132111
 30
0.0
 40
0.0522247191011236
  1
6536 Main St. N.E. * P.O. Box 32008
 41
0.8388932496075366
 72
     5
 11
4.260214204751416
 21
-0.175725979132111
 31
0.0
100
AcDbText
  0
TEXT
  5
7DE1B343D9D77D4
330
7DE1B343D9D7925
100
AcDbEntity
  8
TEXT
100
AcDbText
 10
2.931281620481752
 20
-0.2689844060984032
 30
0.0
 40
0.0522247191011236
  1
Minneapolis, MN 55432-0008
 41
1.11444212721585
 72
     5
 11
4.260214204751416
 21
-0.2689844060984032
 31
0.0
100
AcDbText
  0
LWPOLYLINE
  5
7DE1B343D9D77D5
330
7DE1B343D9D7925
100
AcDbEntity
  8
TEXT
100
AcDbPolyline
 90
        3
 70
     0
 43
0.0006660908203125
 10
0.7753279284144448
 20
-0.2485980704272605
 10
0.7753279284144448
 20
-0.3618335098803882
 10
0.888563367867567
 20
-0.3618335098803882
  0
LWPOLYLINE
  5
7DE1B343D9D77DA
330
7DE1B343D9D7925
100
AcDbEntity
  8
TEXT
100
AcDbPolyline
 90
        3
 70
     0
 43
0.0006660908203125
 10
0.8019715612269422
 20
-0.2485980704272605
 10
0.8019715612269422
 20
-0.3351898770678871
 10
0.888563367867567
 20
-0.3351898770678871
  0
LWPOLYLINE
  5
7DE1B343D9D77DF
330
7DE1B343D9D7925
100
AcDbEntity
  8
TEXT
100
AcDbPolyline
 90
        2
 70
     0
 43
0.0001332181640625
 10
0.848597918648819
 20
-0.2386067081225753
 10
0.7753279284144448
 20
-0.2485980704272605
  0
LWPOLYLINE
  5
7DE1B343D9D77E3
330
7DE1B343D9D7925
100
AcDbEntity
  8
TEXT
100
AcDbPolyline
 90
        2
 70
     0
 43
0.0001332181640625
 10
0.8019715612269422
 20
-0.2485980704272605
 10
0.8619197350550695
 20
-0.2386067081225753
  0
LWPOLYLINE
  5
7DE1B343D9D77E7
330
7DE1B343D9D7925
100
AcDbEntity
  8
TEXT
100
AcDbPolyline
 90
        2
 70
     0
 43
0.0001332181640625
 10
0.8019715612269422
 20
-0.3351898770678871
 10
0.8619197350550695
 20
-0.2752417032397616
  0
LWPOLYLINE
  5
7DE1B343D9D77EB
330
7DE1B343D9D7925
100
AcDbEntity
  8
TEXT
100
AcDbPolyline
 90
        3
 70
     0
 43
0.0006660908203125
 10
0.888563367867567
 20
-0.0953971817553849
 10
0.7753279284144448
 20
-0.0953971817553849
 10
0.7753279284144448
 20
-0.2086326212085125
  0
LWPOLYLINE
  5
7DE1B343D9D77F0
330
7DE1B343D9D7925
100
AcDbEntity
  8
TEXT
100
AcDbPolyline
 90
        3
 70
     0
 43
0.0006660908203125
 10
0.888563367867567
 20
-0.1220408145678859
 10
0.8019715612269422
 20
-0.1220408145678859
 10
0.8019715612269422
 20
-0.2086326212085125
  0
LWPOLYLINE
  5
7DE1B343D9D77F5
330
7DE1B343D9D7925
100
AcDbEntity
  8
TEXT
100
AcDbPolyline
 90
        2
 70
     0
 43
0.0001332181640625
 10
0.8019715612269422
 20
-0.1220408145678859
 10
0.8619197350550678
 20
-0.1819889883960115
  0
LWPOLYLINE
  5
7DE1B343D9D77F9
330
7DE1B343D9D7925
100
AcDbEntity
  8
TEXT
100
AcDbPolyline
 90
        2
 70
     0
 43
0.0001332181640625
 10
0.8019715612269422
 20
-0.2086326212085125
 10
0.8619197350550678
 20
-0.2186239835132013
  0
LWPOLYLINE
  5
7DE1B343D9D77FD
330
7DE1B343D9D7925
100
AcDbEntity
  8
TEXT
100
AcDbPolyline
 90
        2
 70
     0
 43
0.0001332181640625
 10
0.7753279284144448
 20
-0.2086326212085125
 10
0.848597918648819
 20
-0.2186239835132013
  0
LWPOLYLINE
  5
7DE1B343D9D7801
330
7DE1B343D9D7925
100
AcDbEntity
  8
TEXT
100
AcDbPolyline
 90
        2
 70
     0
 43
0.0006660908203125
 10
0.8019715612269422
 20
-0.2485980704272605
 10
0.7753279284144448
 20
-0.2485980704272605
  0
LWPOLYLINE
  5
7DE1B343D9D7805
330
7DE1B343D9D7925
100
AcDbEntity
  8
TEXT
100
AcDbPolyline
 90
        2
 70
     0
 43
0.0006660908203125
 10
0.8019715612269422
 20
-0.2086326212085125
 10
0.7753279284144448
 20
-0.2086326212085125
  0
LINE
  5
7DE1B343D9D7809
330
7DE1B343D9D7925
100
AcDbEntity
  8
TEXT
100
AcDbLine
 10
2.290518357540942
 20
-0.1596738764121539
 30
0.0
 11
2.183312084153652
 21
-0.1596738764121539
 31
0.0
  0
LINE
  5
7DE1B343D9D780A
330
7DE1B343D9D7925
100
AcDbEntity
  8
TEXT
100
AcDbLine
 10
2.31954925588542
 20
-0.0953971817553884
 30
0.0
 11
2.184717346668361
 21
-0.0953971817553884
 31
0.0
  0
ARC
  5
7DE1B343D9D780B
330
7DE1B343D9D7925
100
AcDbEntity
  8
TEXT
100
AcDbCircle
 10
2.244031443061678
 20
-0.2646344310184047
 30
0.0
 40
0.0676855811441166
100
AcDbArc
 50
90.0
 51
153.7768192527749
  0
LWPOLYLINE
  5
7DE1B343D9D780C
330
7DE1B343D9D7925
100
AcDbEntity
  8
TEXT
100
AcDbPolyline
 90
        2
 70
     0
 43
0.0
 10
2.182279588698842
 20
-0.3183792697934613
 42
0.2901071551932823
 10
2.225355521566478
 20
-0.3618702147438994
 42
5.328517124445801
  0
ARC
  5
7DE1B343D9D7810
330
7DE1B343D9D7925
100
AcDbEntity
  8
TEXT
100
AcDbCircle
 10
1.538900065390192
 20
-0.3020778234058496
 30
0.0
 40
0.0601160179737537
100
AcDbArc
 50
180.0000000000003
 51
264.0521544866073
  0
LINE
  5
7DE1B343D9D7811
330
7DE1B343D9D7925
100
AcDbEntity
  8
TEXT
100
AcDbLine
 10
1.54241542101574
 20
-0.0610092641612503
 30
0.0
 11
1.482372816171733
 21
-0.0610092641612503
 31
0.0
  0
ARC
  5
7DE1B343D9D7812
330
7DE1B343D9D7925
100
AcDbEntity
  8
TEXT
100
AcDbCircle
 10
1.306641063273222
 20
-0.1774846412018902
 30
0.0
 40
0.0820874594465043
100
AcDbArc
 50
90.0
 51
270.0
  0
LWPOLYLINE
  5
7DE1B343D9D7813
330
7DE1B343D9D7925
100
AcDbEntity
  8
TEXT
100
AcDbPolyline
 90
        2
 70
     0
 43
0.0001332181640625
 10
0.8985547301722576
 20
-0.1686671719897645
 10
0.888563367867567
 20
-0.0953971817553849
  0
LWPOLYLINE
  5
7DE1B343D9D7817
330
7DE1B343D9D7925
100
AcDbEntity
  8
TEXT
100
AcDbPolyline
 90
        2
 70
     0
 43
0.0001332181640625
 10
0.888563367867567
 20
-0.1220408145678859
 10
0.8985547301722576
 20
-0.1819889883960115
  0
LWPOLYLINE
  5
7DE1B343D9D781B
330
7DE1B343D9D7925
100
AcDbEntity
  8
TEXT
100
AcDbPolyline
 90
        3
 70
     0
 43
0.0006660908203125
 10
1.041764256539444
 20
-0.2086326212085125
 10
1.041764256539444
 20
-0.0953971817553849
 10
0.9285288170863186
 20
-0.0953971817553849
  0
LWPOLYLINE
  5
7DE1B343D9D7820
330
7DE1B343D9D7925
100
AcDbEntity
  8
TEXT
100
AcDbPolyline
 90
        3
 70
     0
 43
0.0006660908203125
 10
1.015120623726943
 20
-0.2086326212085125
 10
1.015120623726943
 20
-0.1220408145678859
 10
0.9285288170863186
 20
-0.1220408145678859
  0
LWPOLYLINE
  5
7DE1B343D9D7825
330
7DE1B343D9D7925
100
AcDbEntity
  8
TEXT
100
AcDbPolyline
 90
        2
 70
     0
 43
0.0001332181640625
 10
1.015120623726943
 20
-0.1220408145678859
 10
0.9551724498988196
 20
-0.1819889883960115
  0
LWPOLYLINE
  5
7DE1B343D9D7829
330
7DE1B343D9D7925
100
AcDbEntity
  8
TEXT
100
AcDbPolyline
 90
        2
 70
     0
 43
0.0001332181640625
 10
0.9285288170863186
 20
-0.1220408145678859
 10
0.9185374547816298
 20
-0.1819889883960115
  0
LWPOLYLINE
  5
7DE1B343D9D782D
330
7DE1B343D9D7925
100
AcDbEntity
  8
TEXT
100
AcDbPolyline
 90
        2
 70
     0
 43
0.0001332181640625
 10
0.9285288170863186
 20
-0.0953971817553849
 10
0.9185374547816298
 20
-0.1686671719897645
  0
LWPOLYLINE
  5
7DE1B343D9D7831
330
7DE1B343D9D7925
100
AcDbEntity
  8
TEXT
100
AcDbPolyline
 90
        2
 70
     0
 43
0.0001332181640625
 10
0.9684942663050684
 20
-0.2186239835132013
 10
1.041764256539444
 20
-0.2086326212085125
  0
LWPOLYLINE
  5
7DE1B343D9D7835
330
7DE1B343D9D7925
100
AcDbEntity
  8
TEXT
100
AcDbPolyline
 90
        2
 70
     0
 43
0.0001332181640625
 10
1.015120623726943
 20
-0.2086326212085125
 10
0.9551724498988196
 20
-0.2186239835132013
  0
LWPOLYLINE
  5
7DE1B343D9D7839
330
7DE1B343D9D7925
100
AcDbEntity
  8
TEXT
100
AcDbPolyline
 90
        2
 70
     0
 43
0.0001332181640625
 10
1.041764256539444
 20
-0.2485980704272605
 10
0.9684942663050684
 20
-0.2386067081225753
  0
LWPOLYLINE
  5
7DE1B343D9D783D
330
7DE1B343D9D7925
100
AcDbEntity
  8
TEXT
100
AcDbPolyline
 90
        2
 70
     0
 43
0.0001332181640625
 10
1.015120623726943
 20
-0.2485980704272605
 10
0.9551724498988196
 20
-0.2386067081225753
  0
LWPOLYLINE
  5
7DE1B343D9D7841
330
7DE1B343D9D7925
100
AcDbEntity
  8
TEXT
100
AcDbPolyline
 90
        2
 70
     0
 43
0.0001332181640625
 10
1.015120623726943
 20
-0.3351898770678871
 10
0.9551724498988196
 20
-0.2752417032397616
  0
LWPOLYLINE
  5
7DE1B343D9D7845
330
7DE1B343D9D7925
100
AcDbEntity
  8
TEXT
100
AcDbPolyline
 90
        3
 70
     0
 43
0.0006660908203125
 10
0.9285288170863186
 20
-0.3351898770678871
 10
1.015120623726943
 20
-0.3351898770678871
 10
1.015120623726943
 20
-0.2485980704272605
  0
LWPOLYLINE
  5
7DE1B343D9D784A
330
7DE1B343D9D7925
100
AcDbEntity
  8
TEXT
100
AcDbPolyline
 90
        3
 70
     0
 43
0.0006660908203125
 10
0.9285288170863186
 20
-0.3618335098803882
 10
1.041764256539444
 20
-0.3618335098803882
 10
1.041764256539444
 20
-0.2485980704272605
  0
LWPOLYLINE
  5
7DE1B343D9D784F
330
7DE1B343D9D7925
100
AcDbEntity
  8
TEXT
100
AcDbPolyline
 90
        5
 70
     0
 43
0.0001332181640625
 10
0.8985547301722576
 20
-0.2885635196460121
 10
0.8985547301722576
 20
-0.2752417032397616
 10
0.8619197350550695
 20
-0.2752417032397616
 10
0.8619197350550695
 20
-0.2386067081225753
 10
0.848597918648819
 20
-0.2386067081225753
  0
LWPOLYLINE
  5
7DE1B343D9D7856
330
7DE1B343D9D7925
100
AcDbEntity
  8
TEXT
100
AcDbPolyline
 90
        2
 70
     0
 43
0.0006660908203125
 10
0.888563367867567
 20
-0.3351898770678871
 10
0.888563367867567
 20
-0.3618335098803882
  0
LWPOLYLINE
  5
7DE1B343D9D785A
330
7DE1B343D9D7925
100
AcDbEntity
  8
TEXT
100
AcDbPolyline
 90
        2
 70
     0
 43
0.0001332181640625
 10
0.888563367867567
 20
-0.3351898770678871
 10
0.8985547301722576
 20
-0.2752417032397616
  0
LWPOLYLINE
  5
7DE1B343D9D785E
330
7DE1B343D9D7925
100
AcDbEntity
  8
TEXT
100
AcDbPolyline
 90
        2
 70
     0
 43
0.0001332181640625
 10
0.888563367867567
 20
-0.3618335098803882
 10
0.8985547301722576
 20
-0.2885635196460121
  0
LWPOLYLINE
  5
7DE1B343D9D7862
330
7DE1B343D9D7925
100
AcDbEntity
  8
TEXT
100
AcDbPolyline
 90
        5
 70
     0
 43
0.0001332181640625
 10
0.848597918648819
 20
-0.2186239835132013
 10
0.8619197350550678
 20
-0.2186239835132013
 10
0.8619197350550678
 20
-0.1819889883960115
 10
0.8985547301722576
 20
-0.1819889883960115
 10
0.8985547301722576
 20
-0.1686671719897645
  0
LWPOLYLINE
  5
7DE1B343D9D7869
330
7DE1B343D9D7925
100
AcDbEntity
  8
TEXT
100
AcDbPolyline
 90
        5
 70
     0
 43
0.0001332181640625
 10
0.9185374547816298
 20
-0.1686671719897645
 10
0.9185374547816298
 20
-0.1819889883960115
 10
0.9551724498988196
 20
-0.1819889883960115
 10
0.9551724498988196
 20
-0.2186239835132013
 10
0.9684942663050684
 20
-0.2186239835132013
  0
LWPOLYLINE
  5
7DE1B343D9D7870
330
7DE1B343D9D7925
100
AcDbEntity
  8
TEXT
100
AcDbPolyline
 90
        2
 70
     0
 43
0.0001332181640625
 10
0.9285288170863186
 20
-0.3351898770678871
 10
0.9185374547816298
 20
-0.2752417032397616
  0
LWPOLYLINE
  5
7DE1B343D9D7874
330
7DE1B343D9D7925
100
AcDbEntity
  8
TEXT
100
AcDbPolyline
 90
        2
 70
     0
 43
0.0001332181640625
 10
0.9185374547816298
 20
-0.2885635196460121
 10
0.9285288170863186
 20
-0.3618335098803882
  0
LWPOLYLINE
  5
7DE1B343D9D7878
330
7DE1B343D9D7925
100
AcDbEntity
  8
TEXT
100
AcDbPolyline
 90
        2
 70
     0
 43
0.0006660908203125
 10
0.9285288170863186
 20
-0.3351898770678871
 10
0.9285288170863186
 20
-0.3618335098803882
  0
LWPOLYLINE
  5
7DE1B343D9D787C
330
7DE1B343D9D7925
100
AcDbEntity
  8
TEXT
100
AcDbPolyline
 90
        5
 70
     0
 43
0.0001332181640625
 10
0.9684942663050684
 20
-0.2386067081225753
 10
0.9551724498988196
 20
-0.2386067081225753
 10
0.9551724498988196
 20
-0.2752417032397616
 10
0.9185374547816298
 20
-0.2752417032397616
 10
0.9185374547816298
 20
-0.2885635196460121
  0
LWPOLYLINE
  5
7DE1B343D9D7883
330
7DE1B343D9D7925
100
AcDbEntity
  8
TEXT
100
AcDbPolyline
 90
        2
 70
     0
 43
0.0006660908203125
 10
1.015120623726943
 20
-0.2086326212085125
 10
1.041764256539444
 20
-0.2086326212085125
  0
LWPOLYLINE
  5
7DE1B343D9D7887
330
7DE1B343D9D7925
100
AcDbEntity
  8
TEXT
100
AcDbPolyline
 90
        2
 70
     0
 43
0.0006660908203125
 10
1.015120623726943
 20
-0.2485980704272605
 10
1.041764256539444
 20
-0.2485980704272605
  0
LINE
  5
7DE1B343D9D788B
330
7DE1B343D9D7925
100
AcDbEntity
  8
TEXT
100
AcDbLine
 10
1.311878393387469
 20
-0.1596738764121539
 30
0.0
 11
1.47878404741644
 21
-0.1596738764121539
 31
0.0
  0
LINE
  5
7DE1B343D9D788C
330
7DE1B343D9D7925
100
AcDbEntity
  8
TEXT
100
AcDbLine
 10
1.37747852963177
 20
-0.1954785980227817
 30
0.0
 11
1.311878393387469
 21
-0.1954785980227817
 31
0.0
  0
LINE
  5
7DE1B343D9D788D
330
7DE1B343D9D7925
100
AcDbEntity
  8
TEXT
100
AcDbLine
 10
1.224553603826717
 20
-0.3618702147438994
 30
0.0
 11
1.37747852963177
 21
-0.3618702147438994
 31
0.0
  0
LINE
  5
7DE1B343D9D788E
330
7DE1B343D9D7925
100
AcDbEntity
  8
TEXT
100
AcDbLine
 10
1.38241890353805
 20
-0.2935132084104601
 30
0.0
 11
1.224553603826715
 21
-0.2935132084104601
 31
0.0
  0
LINE
  5
7DE1B343D9D788F
330
7DE1B343D9D7925
100
AcDbEntity
  8
TEXT
100
AcDbLine
 10
1.306641063273221
 20
-0.2595721006483955
 30
0.0
 11
1.38241890353805
 21
-0.2595721006483955
 31
0.0
  0
ARC
  5
7DE1B343D9D7890
330
7DE1B343D9D7925
100
AcDbEntity
  8
TEXT
100
AcDbCircle
 10
1.31187839338747
 20
-0.177576237217466
 30
0.0
 40
0.017902360805315
100
AcDbArc
 50
90.0
 51
270.0
  0
LINE
  5
7DE1B343D9D7891
330
7DE1B343D9D7925
100
AcDbEntity
  8
TEXT
100
AcDbLine
 10
1.224553603826715
 20
-0.2935132084104601
 30
0.0
 11
1.224553603826717
 21
-0.3618702147438994
 31
0.0
  0
LINE
  5
7DE1B343D9D7892
330
7DE1B343D9D7925
100
AcDbEntity
  8
TEXT
100
AcDbLine
 10
1.47878404741644
 20
-0.1596738764121539
 30
0.0
 11
1.47878404741644
 21
-0.3020778234058496
 31
0.0
  0
ARC
  5
7DE1B343D9D7893
330
7DE1B343D9D7925
100
AcDbEntity
  8
TEXT
100
AcDbCircle
 10
1.377478529631771
 20
-0.2786744063833423
 30
0.0
 40
0.0831958083605586
100
AcDbArc
 50
270.0
 51
90.0
  0
ARC
  5
7DE1B343D9D7894
330
7DE1B343D9D7925
100
AcDbEntity
  8
TEXT
100
AcDbCircle
 10
1.38241890353805
 20
-0.276542654529426
 30
0.0
 40
0.0169705538810321
100
AcDbArc
 50
270.0
 51
90.0
  0
LWPOLYLINE
  5
7DE1B343D9D7895
330
7DE1B343D9D7925
100
AcDbEntity
  8
TEXT
100
AcDbPolyline
 90
        2
 70
     0
 43
0.0006660908203125
 10
0.888563367867567
 20
-0.1220408145678859
 10
0.888563367867567
 20
-0.0953971817553849
  0
LWPOLYLINE
  5
7DE1B343D9D7899
330
7DE1B343D9D7925
100
AcDbEntity
  8
TEXT
100
AcDbPolyline
 90
        2
 70
     0
 43
0.0006660908203125
 10
0.9285288170863186
 20
-0.1220408145678859
 10
0.9285288170863186
 20
-0.0953971817553849
  0
LINE
  5
7DE1B343D9D789D
330
7DE1B343D9D7925
100
AcDbEntity
  8
TEXT
100
AcDbLine
 10
1.482372816171733
 20
-0.0953971817553884
 30
0.0
 11
1.306641063273221
 21
-0.0953971817553884
 31
0.0
  0
LINE
  5
7DE1B343D9D789E
330
7DE1B343D9D7925
100
AcDbEntity
  8
TEXT
100
AcDbLine
 10
1.482372816171733
 20
-0.0610092641612503
 30
0.0
 11
1.482372816171733
 21
-0.0953971817553884
 31
0.0
  0
LINE
  5
7DE1B343D9D789F
330
7DE1B343D9D7925
100
AcDbEntity
  8
TEXT
100
AcDbLine
 10
1.672844708191585
 20
-0.196269177868509
 30
0.0
 11
1.614214387159647
 21
-0.0953971817553884
 31
0.0
  0
LINE
  5
7DE1B343D9D78A0
330
7DE1B343D9D7925
100
AcDbEntity
  8
TEXT
100
AcDbLine
 10
1.731593270997451
 20
-0.0953971817553884
 30
0.0
 11
1.672844708191585
 21
-0.196269177868509
 31
0.0
  0
LINE
  5
7DE1B343D9D78A1
330
7DE1B343D9D7925
100
AcDbEntity
  8
TEXT
100
AcDbLine
 10
1.828523896357192
 20
-0.2794823766409002
 30
0.0
 11
1.828523896357192
 21
-0.0273857040165779
 31
0.0
  0
LINE
  5
7DE1B343D9D78A2
330
7DE1B343D9D7925
100
AcDbEntity
  8
TEXT
100
AcDbLine
 10
1.860835750494852
 20
-0.0953971817553884
 30
0.0
 11
1.860835750494852
 21
-0.2962613884877967
 31
0.0
  0
LINE
  5
7DE1B343D9D78A3
330
7DE1B343D9D7925
100
AcDbEntity
  8
TEXT
100
AcDbLine
 10
1.860835750494852
 20
-0.2962613884877967
 30
0.0
 11
1.843842113610251
 21
-0.2962613884877967
 31
0.0
  0
LINE
  5
7DE1B343D9D78A4
330
7DE1B343D9D7925
100
AcDbEntity
  8
TEXT
100
AcDbLine
 10
1.829663469853387
 20
-0.3618702147438994
 30
0.0
 11
1.927666803552821
 21
-0.3618702147438994
 31
0.0
  0
LINE
  5
7DE1B343D9D78A5
330
7DE1B343D9D7925
100
AcDbEntity
  8
TEXT
100
AcDbLine
 10
1.663244471194631
 20
-0.3419117086388865
 30
0.0
 11
1.760544177288076
 21
-0.1775614977036183
 31
0.0
  0
ARC
  5
7DE1B343D9D78A6
330
7DE1B343D9D7925
100
AcDbEntity
  8
TEXT
100
AcDbCircle
 10
1.629200911282417
 20
-0.3223224924702037
 30
0.0
 40
0.0392772371940762
100
AcDbArc
 50
270.1604552698595
 51
330.0831797321295
  0
LINE
  5
7DE1B343D9D78A7
330
7DE1B343D9D7925
100
AcDbEntity
  8
TEXT
100
AcDbLine
 10
1.532670654896546
 20
-0.3618702147438994
 30
0.0
 11
1.62931090597154
 21
-0.3615995756456171
 31
0.0
  0
LWPOLYLINE
  5
7DE1B343D9D78A8
330
7DE1B343D9D7925
100
AcDbEntity
  8
TEXT
100
AcDbPolyline
 90
        6
 70
     1
 43
0.0
 10
1.575194458471695
 20
-0.1596738764121539
 10
1.544877864251487
 20
-0.1596738764121539
 10
1.544877864251487
 20
-0.2827848744670482
 42
0.407328721240804
 10
1.556421515412964
 20
-0.2946037891434343
 10
1.617043214457694
 20
-0.2946037891434343
 10
1.634508554865012
 20
-0.2617915600999551
  0
LINE
  5
7DE1B343D9D78B0
330
7DE1B343D9D7925
100
AcDbEntity
  8
TEXT
100
AcDbLine
 10
1.760544177288076
 20
-0.1775614977036183
 30
0.0
 11
1.760544177288076
 21
-0.3103188725289747
 31
0.0
  0
ARC
  5
7DE1B343D9D78B1
330
7DE1B343D9D7925
100
AcDbEntity
  8
TEXT
100
AcDbCircle
 10
1.843842113610249
 20
-0.2808795822443712
 30
0.0
 40
0.0153818062434269
100
AcDbArc
 50
174.7883570302258
 51
270.0
  0
LWPOLYLINE
  5
7DE1B343D9D78B2
330
7DE1B343D9D7925
100
AcDbEntity
  8
TEXT
100
AcDbPolyline
 90
        2
 70
     0
 43
0.0
 10
1.760544177288074
 20
-0.3103188725289711
 42
0.3318488747599744
 10
1.829663469853387
 20
-0.3618702147438994
 42
-6.868794160588311
  0
LINE
  5
7DE1B343D9D78B6
330
7DE1B343D9D7925
100
AcDbEntity
  8
TEXT
100
AcDbLine
 10
1.985055872542083
 20
-0.3618702147438994
 30
0.0
 11
2.052113919323923
 21
-0.3618702147438994
 31
0.0
  0
LINE
  5
7DE1B343D9D78B7
330
7DE1B343D9D7925
100
AcDbEntity
  8
TEXT
100
AcDbLine
 10
1.985055872542083
 20
-0.1672276655782638
 30
0.0
 11
1.985055872542083
 21
-0.3618702147438994
 31
0.0
  0
LINE
  5
7DE1B343D9D78B8
330
7DE1B343D9D7925
100
AcDbEntity
  8
TEXT
100
AcDbLine
 10
1.927666803552821
 20
-0.1596738764121539
 30
0.0
 11
1.977502083375969
 21
-0.1596738764121539
 31
0.0
  0
LINE
  5
7DE1B343D9D78B9
330
7DE1B343D9D7925
100
AcDbEntity
  8
TEXT
100
AcDbLine
 10
1.927666803552821
 20
-0.3618702147438994
 30
0.0
 11
1.927666803552821
 21
-0.1596738764121539
 31
0.0
  0
LWPOLYLINE
  5
7DE1B343D9D78BA
330
7DE1B343D9D7925
100
AcDbEntity
  8
TEXT
100
AcDbPolyline
 90
        2
 70
     0
 43
0.0
 10
1.977502083375967
 20
-0.1596738764121539
 42
-0.4142135623731017
 10
1.985055872542081
 20
-0.1672276655782638
 42
-0.9999999999999998
  0
LINE
  5
7DE1B343D9D78BE
330
7DE1B343D9D7925
100
AcDbEntity
  8
TEXT
100
AcDbLine
 10
2.183312084153652
 20
-0.1596738764121539
 30
0.0
 11
2.183312084153652
 21
-0.2347262824863605
 31
0.0
  0
LINE
  5
7DE1B343D9D78BF
330
7DE1B343D9D7925
100
AcDbEntity
  8
TEXT
100
AcDbLine
 10
2.052113919323923
 20
-0.1596738764121539
 30
0.0
 11
2.106247516244873
 21
-0.1596738764121539
 31
0.0
  0
LINE
  5
7DE1B343D9D78C0
330
7DE1B343D9D7925
100
AcDbEntity
  8
TEXT
100
AcDbLine
 10
2.052113919323923
 20
-0.3618702147438994
 30
0.0
 11
2.052113919323923
 21
-0.1596738764121539
 31
0.0
  0
LWPOLYLINE
  5
7DE1B343D9D78C1
330
7DE1B343D9D7925
100
AcDbEntity
  8
TEXT
100
AcDbPolyline
 90
        2
 70
     0
 43
0.0
 10
2.106247516244871
 20
-0.1596738764121539
 42
-0.4142135623731017
 10
2.113801305410984
 20
-0.1672276655782638
 42
-0.9999999999999998
  0
LWPOLYLINE
  5
7DE1B343D9D78C5
330
7DE1B343D9D7925
100
AcDbEntity
  8
TEXT
100
AcDbPolyline
 90
        4
 70
     0
 43
0.0
 10
2.113801305410984
 20
-0.1672276655782638
 10
2.113801305410984
 20
-0.3618702147438994
 10
2.182279588698842
 20
-0.3618702147438994
 10
2.182279588698842
 20
-0.3183792697934613
 42
-1.714843617202739
  0
LINE
  5
7DE1B343D9D78CB
330
7DE1B343D9D7925
100
AcDbEntity
  8
TEXT
100
AcDbLine
 10
1.54241542101574
 20
-0.0953971817553884
 30
0.0
 11
1.54241542101574
 21
-0.0610092641612503
 31
0.0
  0
LINE
  5
7DE1B343D9D78CC
330
7DE1B343D9D7925
100
AcDbEntity
  8
TEXT
100
AcDbLine
 10
1.614214387159647
 20
-0.0953971817553884
 30
0.0
 11
1.54241542101574
 21
-0.0953971817553884
 31
0.0
  0
LINE
  5
7DE1B343D9D78CD
330
7DE1B343D9D7925
100
AcDbEntity
  8
TEXT
100
AcDbLine
 10
1.761715183790827
 20
-0.0953971817553884
 30
0.0
 11
1.731593270997451
 21
-0.0953971817553884
 31
0.0
  0
LINE
  5
7DE1B343D9D78CE
330
7DE1B343D9D7925
100
AcDbEntity
  8
TEXT
100
AcDbLine
 10
1.761715183790827
 20
-0.0273857040165779
 30
0.0
 11
1.761715183790827
 21
-0.0953971817553884
 31
0.0
  0
LINE
  5
7DE1B343D9D78CF
330
7DE1B343D9D7925
100
AcDbEntity
  8
TEXT
100
AcDbLine
 10
1.828523896357192
 20
-0.0273857040165779
 30
0.0
 11
1.761715183790827
 21
-0.0273857040165779
 31
0.0
  0
LWPOLYLINE
  5
7DE1B343D9D78D0
330
7DE1B343D9D7925
100
AcDbEntity
  8
TEXT
100
AcDbPolyline
 90
        3
 70
     0
 43
0.0
 10
2.148935655955194
 20
-0.0953971817553849
 10
2.03063549713915
 20
-0.0953971817553849
 10
2.03063549713915
 20
-0.1225646785162808
 42
-1.960274751411753
  0
LINE
  5
7DE1B343D9D78D5
330
7DE1B343D9D7925
100
AcDbEntity
  8
TEXT
100
AcDbLine
 10
1.994853806425989
 20
-0.0953971817553884
 30
0.0
 11
1.860835750494852
 21
-0.0953971817553884
 31
0.0
  0
LWPOLYLINE
  5
7DE1B343D9D78D6
330
7DE1B343D9D7925
100
AcDbEntity
  8
TEXT
100
AcDbPolyline
 90
        2
 70
     0
 43
0.0
 10
1.994853806425989
 20
-0.0953971817553849
 42
-0.3328679258950098
 10
2.03063549713915
 20
-0.1225646785162808
 42
6.772930709997214
  0
LINE
  5
7DE1B343D9D78DA
330
7DE1B343D9D7925
100
AcDbEntity
  8
TEXT
100
AcDbLine
 10
2.184717346668361
 20
-0.0953971817553884
 30
0.0
 11
2.184717346668361
 21
-0.1237197275250323
 31
0.0
  0
LWPOLYLINE
  5
7DE1B343D9D78DB
330
7DE1B343D9D7925
100
AcDbEntity
  8
TEXT
100
AcDbPolyline
 90
        2
 70
     0
 43
0.0
 10
2.148935655955194
 20
-0.0953971817553849
 42
-0.3277054968067132
 10
2.184717346668359
 20
-0.1237197275250287
 42
6.667889725900311
  0
LINE
  5
7DE1B343D9D78DF
330
7DE1B343D9D7925
100
AcDbEntity
  8
TEXT
100
AcDbLine
 10
2.398509194760461
 20
-0.2006091603088158
 30
0.0
 11
2.35475842357856
 21
-0.1183588843126706
 31
0.0
  0
LINE
  5
7DE1B343D9D78E0
330
7DE1B343D9D7925
100
AcDbEntity
  8
TEXT
100
AcDbLine
 10
2.398509194760461
 20
-0.0953971817553884
 30
0.0
 11
2.398509194760461
 21
-0.2006091603088158
 31
0.0
  0
LINE
  5
7DE1B343D9D78E1
330
7DE1B343D9D7925
100
AcDbEntity
  8
TEXT
100
AcDbLine
 10
2.62619293369883
 20
-0.1712625081669265
 30
0.0
 11
2.62619293369883
 21
-0.0299329759877877
 31
0.0
  0
LINE
  5
7DE1B343D9D78E2
330
7DE1B343D9D7925
100
AcDbEntity
  8
TEXT
100
AcDbLine
 10
2.673291092254815
 20
-0.0953971817553884
 30
0.0
 11
2.62619293369883
 21
-0.1712625081669265
 31
0.0
  0
LINE
  5
7DE1B343D9D78E3
330
7DE1B343D9D7925
100
AcDbEntity
  8
TEXT
100
AcDbLine
 10
2.683725809018738
 20
-0.205290424696362
 30
0.0
 11
2.748282924984443
 21
-0.0953971817553884
 31
0.0
  0
LINE
  5
7DE1B343D9D78E4
330
7DE1B343D9D7925
100
AcDbEntity
  8
TEXT
100
AcDbLine
 10
2.562357942476057
 20
-0.3618702147438994
 30
0.0
 11
2.626736126794678
 21
-0.3618702147438994
 31
0.0
  0
LWPOLYLINE
  5
7DE1B343D9D78E5
330
7DE1B343D9D7925
100
AcDbEntity
  8
TEXT
100
AcDbPolyline
 90
        2
 70
     0
 43
0.0
 10
2.402448872065499
 20
-0.3183792697934613
 42
-0.2901071551932486
 10
2.359372939197855
 20
-0.3618702147438994
 42
-5.328517124445184
  0
ARC
  5
7DE1B343D9D78E9
330
7DE1B343D9D7925
100
AcDbEntity
  8
TEXT
100
AcDbCircle
 10
2.29051835754094
 20
-0.1880332514121512
 30
0.0
 40
0.028359375
100
AcDbArc
 50
25.78218179591245
 51
90.0
  0
LINE
  5
7DE1B343D9D78EA
330
7DE1B343D9D7925
100
AcDbEntity
  8
TEXT
100
AcDbLine
 10
2.326319432845063
 20
-0.1969488498742861
 30
0.0
 11
2.316054672431499
 21
-0.1756983103015918
 31
0.0
  0
LINE
  5
7DE1B343D9D78EB
330
7DE1B343D9D7925
100
AcDbEntity
  8
TEXT
100
AcDbLine
 10
2.24403144306168
 20
-0.1969488498742861
 30
0.0
 11
2.326319432845063
 21
-0.1969488498742861
 31
0.0
  0
LWPOLYLINE
  5
7DE1B343D9D78EC
330
7DE1B343D9D7925
100
AcDbEntity
  8
TEXT
100
AcDbPolyline
 90
        4
 70
     1
 43
0.0
 10
2.339250474127962
 20
-0.2589062367598742
 10
2.250590155468104
 20
-0.2589062367598742
 42
0.9999999999999998
 10
2.250590155468104
 20
-0.3013047772637349
 10
2.339250474127962
 20
-0.3013047772637349
 42
1.0
  0
LWPOLYLINE
  5
7DE1B343D9D78F2
330
7DE1B343D9D7925
100
AcDbEntity
  8
TEXT
100
AcDbPolyline
 90
        2
 70
     0
 43
0.0
 10
2.225355521566478
 20
-0.3618702147438994
 10
2.359372939197855
 20
-0.3618702147438994
 42
0.9999999999999998
  0
LINE
  5
7DE1B343D9D78F6
330
7DE1B343D9D7925
100
AcDbEntity
  8
TEXT
100
AcDbLine
 10
2.485709961183494
 20
-0.1596738764121539
 30
0.0
 11
2.562357942476052
 21
-0.1596738764121539
 31
0.0
  0
LINE
  5
7DE1B343D9D78F7
330
7DE1B343D9D7925
100
AcDbEntity
  8
TEXT
100
AcDbLine
 10
2.562357942476052
 20
-0.1596738764121539
 30
0.0
 11
2.562357942476057
 21
-0.3618702147438994
 31
0.0
  0
ARC
  5
7DE1B343D9D78F8
330
7DE1B343D9D7925
100
AcDbEntity
  8
TEXT
100
AcDbCircle
 10
2.485709961183492
 20
-0.1845797516948166
 30
0.0
 40
0.0249058752826653
100
AcDbArc
 50
89.99971217465335
 51
179.9999999999985
  0
LINE
  5
7DE1B343D9D78F9
330
7DE1B343D9D7925
100
AcDbEntity
  8
TEXT
100
AcDbLine
 10
2.460804085900835
 20
-0.3618702147438994
 30
0.0
 11
2.460804085900829
 21
-0.184579709312431
 31
0.0
  0
LWPOLYLINE
  5
7DE1B343D9D78FA
330
7DE1B343D9D7925
100
AcDbEntity
  8
TEXT
100
AcDbPolyline
 90
        2
 70
     0
 43
0.0
 10
2.402448872065499
 20
-0.3618702147438994
 10
2.460804085900833
 20
-0.3618702147438994
  0
LWPOLYLINE
  5
7DE1B343D9D78FE
330
7DE1B343D9D7925
100
AcDbEntity
  8
TEXT
100
AcDbPolyline
 90
        2
 70
     0
 43
0.0
 10
2.402448872065499
 20
-0.3183792697934613
 10
2.402448872065499
 20
-0.3618702147438994
  0
LINE
  5
7DE1B343D9D7902
330
7DE1B343D9D7925
100
AcDbEntity
  8
TEXT
100
AcDbLine
 10
2.779218032382348
 20
-0.3618702147438994
 30
0.0
 11
2.683725809018738
 21
-0.205290424696362
 31
0.0
  0
LINE
  5
7DE1B343D9D7903
330
7DE1B343D9D7925
100
AcDbEntity
  8
TEXT
100
AcDbLine
 10
2.702639660006142
 20
-0.3618702147438994
 30
0.0
 11
2.779218032382348
 21
-0.3618702147438994
 31
0.0
  0
LINE
  5
7DE1B343D9D7904
330
7DE1B343D9D7925
100
AcDbEntity
  8
TEXT
100
AcDbLine
 10
2.626736126794678
 20
-0.2302906462677192
 30
0.0
 11
2.702639660006142
 21
-0.3618702147438994
 31
0.0
  0
LINE
  5
7DE1B343D9D7905
330
7DE1B343D9D7925
100
AcDbEntity
  8
TEXT
100
AcDbLine
 10
2.626736126794678
 20
-0.3618702147438994
 30
0.0
 11
2.626736126794678
 21
-0.2302906462677192
 31
0.0
  0
LINE
  5
7DE1B343D9D7906
330
7DE1B343D9D7925
100
AcDbEntity
  8
TEXT
100
AcDbLine
 10
2.62619293369883
 20
-0.0299329759877877
 30
0.0
 11
2.557878055149557
 21
-0.0299329759877877
 31
0.0
  0
ARC
  5
7DE1B343D9D7907
330
7DE1B343D9D7925
100
AcDbEntity
  8
TEXT
100
AcDbCircle
 10
2.317522316108351
 20
-0.1369807488762908
 30
0.0
 40
0.0416329381542859
100
AcDbArc
 50
26.56974201007528
 51
87.20939649401342
  0
LINE
  5
7DE1B343D9D7908
330
7DE1B343D9D7925
100
AcDbEntity
  8
TEXT
100
AcDbLine
 10
2.462406101059962
 20
-0.0953971817553884
 30
0.0
 11
2.398509194760461
 21
-0.0953971817553884
 31
0.0
  0
LINE
  5
7DE1B343D9D7909
330
7DE1B343D9D7925
100
AcDbEntity
  8
TEXT
100
AcDbLine
 10
2.462406101059962
 20
-0.1229448316162631
 30
0.0
 11
2.462406101059962
 21
-0.0953971817553884
 31
0.0
  0
ARC
  5
7DE1B343D9D790A
330
7DE1B343D9D7925
100
AcDbEntity
  8
TEXT
100
AcDbCircle
 10
2.49359891812307
 20
-0.1266429090376532
 30
0.0
 40
0.0314112657011332
100
AcDbArc
 50
95.88484768694724
 51
173.2388340632136
  0
LINE
  5
7DE1B343D9D790B
330
7DE1B343D9D7925
100
AcDbEntity
  8
TEXT
100
AcDbLine
 10
2.557878055149552
 20
-0.0953971817553884
 30
0.0
 11
2.490378337500035
 21
-0.0953971817553884
 31
0.0
  0
LINE
  5
7DE1B343D9D790C
330
7DE1B343D9D7925
100
AcDbEntity
  8
TEXT
100
AcDbLine
 10
2.557878055149557
 20
-0.0299329759877877
 30
0.0
 11
2.557878055149552
 21
-0.0953971817553884
 31
0.0
  0
LINE
  5
7DE1B343D9D790D
330
7DE1B343D9D7925
100
AcDbEntity
  8
TEXT
100
AcDbLine
 10
2.748282924984443
 20
-0.0953971817553884
 30
0.0
 11
2.673291092254816
 21
-0.0953971817553884
 31
0.0
  0
ENDSEC
  0
SECTION
  2
OBJECTS
  0
DICTIONARY
  5
7DE1B343D9D7919
330
0
100
AcDbDictionary
  3
ACAD_GROUP
350
7DE1B343D9D791A
  3
ACAD_LAYOUT
350
7DE1B343D9D793F
  3
ACAD_MLINESTYLE
350
7DE1B343D9D791B
  3
ACAD_PLOTSETTINGS
350
7DE1B343D9D7940
  3
ACAD_PLOTSTYLENAME
350
7DE1B343D9D793D
  3
ACDBHEADERROUNDTRIPXREC
350
7DE1B343D9D794A
  3
ACDBVARIABLEDICTIONARY
350
7DE1B343D9D7947
  0
DICTIONARY
  5
7DE1B343D9D796C
330
7DE1B343D9D7925
100
AcDbDictionary
280
     1
  3
ACAD_LAYOUTSELFREF
360
7DE1B343D9D796D
  0
DICTIONARY
  5
7DE1B343D9D796A
330
7DE1B343D9D7922
100
AcDbDictionary
280
     1
  3
ACAD_LAYOUTSELFREF
360
7DE1B343D9D796B
  0
DICTIONARY
  5
7DE1B343D9D791A
102
{ACAD_REACTORS
330
7DE1B343D9D7919
102
}
330
7DE1B343D9D7919
100
AcDbDictionary
  0
DICTIONARY
  5
7DE1B343D9D793F
102
{ACAD_REACTORS
330
7DE1B343D9D7919
102
}
330
7DE1B343D9D7919
100
AcDbDictionary
  0
DICTIONARY
  5
7DE1B343D9D791B
102
{ACAD_REACTORS
330
7DE1B343D9D7919
102
}
330
7DE1B343D9D7919
100
AcDbDictionary
  3
STANDARD
350
7DE1B343D9D7928
  0
DICTIONARY
  5
7DE1B343D9D7940
102
{ACAD_REACTORS
330
7DE1B343D9D7919
102
}
330
7DE1B343D9D7919
100
AcDbDictionary
  0
ACDBDICTIONARYWDFLT
  5
7DE1B343D9D793D
102
{ACAD_REACTORS
330
7DE1B343D9D7919
102
}
330
7DE1B343D9D7919
100
AcDbDictionary
281
     1
  3
Normal
350
7DE1B343D9D793E
100
AcDbDictionaryWithDefault
340
7DE1B343D9D793E
  0
DICTIONARY
  5
7DE1B343D9D794A
102
{ACAD_REACTORS
330
7DE1B343D9D7919
102
}
330
7DE1B343D9D7919
100
AcDbDictionary
  3
CEPSNTYPE
350
7DE1B343D9D7954
  3
FINGERPRINTGUID
350
7DE1B343D9D7955
  3
HYPERLINKBASE
350
7DE1B343D9D794D
  3
INSUNITS
350
7DE1B343D9D7953
  3
LAYOUTDICT
350
7DE1B343D9D794F
  3
LWETCUNION
350
7DE1B343D9D7952
  3
PLOTSETDICT
350
7DE1B343D9D7950
  3
PLOTSTYLNAMDICT
350
7DE1B343D9D7951
  3
PSVPSCALE
350
7DE1B343D9D7957
  3
PUCSBASE
350
7DE1B343D9D795A
  3
PUCSORGBACK
350
7DE1B343D9D7960
  3
PUCSORGBOTTOM
350
7DE1B343D9D795C
  3
PUCSORGFRONT
350
7DE1B343D9D795F
  3
PUCSORGLEFT
350
7DE1B343D9D795D
  3
PUCSORGRIGHT
350
7DE1B343D9D795E
  3
PUCSORGTOP
350
7DE1B343D9D795B
  3
PUCSORTHOREF
350
7DE1B343D9D7958
  3
PUCSORTHOVIEW
350
7DE1B343D9D7959
  3
STYLESHEET
350
7DE1B343D9D794E
  3
TSTACKALIGN
350
7DE1B343D9D794B
  3
TSTACKSIZE
350
7DE1B343D9D794C
  3
UCSBASE
350
7DE1B343D9D7963
  3
UCSORGBACK
350
7DE1B343D9D7969
  3
UCSORGBOTTOM
350
7DE1B343D9D7965
  3
UCSORGFRONT
350
7DE1B343D9D7968
  3
UCSORGLEFT
350
7DE1B343D9D7966
  3
UCSORGRIGHT
350
7DE1B343D9D7967
  3
UCSORGTOP
350
7DE1B343D9D7964
  3
UCSORTHOREF
350
7DE1B343D9D7961
  3
UCSORTHOVIEW
350
7DE1B343D9D7962
  3
VERSIONGUID
350
7DE1B343D9D7956
  0
DICTIONARY
  5
7DE1B343D9D7947
102
{ACAD_REACTORS
330
7DE1B343D9D7919
102
}
330
7DE1B343D9D7919
100
AcDbDictionary
  3
DIMASSOC
350
7DE1B343D9D7948
  0
XRECORD
  5
7DE1B343D9D796D
102
{ACAD_REACTORS
330
7DE1B343D9D796C
102
}
330
7DE1B343D9D796C
100
AcDbXrecord
340
7DE1B343D9D7925
  0
XRECORD
  5
7DE1B343D9D796B
102
{ACAD_REACTORS
330
7DE1B343D9D796A
102
}
330
7DE1B343D9D796A
100
AcDbXrecord
340
7DE1B343D9D7922
  0
MLINESTYLE
  5
7DE1B343D9D7928
102
{ACAD_REACTORS
330
7DE1B343D9D791B
102
}
330
7DE1B343D9D791B
100
AcDbMlineStyle
  2
STANDARD
 70
     0
  3

 62
     0
 51
90.0
 52
90.0
 71
     2
 49
0.5
 62
   256
  6
BYLAYER
 49
-0.5
 62
   256
  6
BYLAYER
  0
ACDBPLACEHOLDER
  5
7DE1B343D9D793E
102
{ACAD_REACTORS
330
7DE1B343D9D793D
102
}
330
7DE1B343D9D793D
100
AcDbPlaceHolder
280
     0
  0
XRECORD
  5
7DE1B343D9D7954
102
{ACAD_REACTORS
330
7DE1B343D9D794A
102
}
330
7DE1B343D9D794A
100
AcDbXrecord
 90
        0
  0
XRECORD
  5
7DE1B343D9D7955
102
{ACAD_REACTORS
330
7DE1B343D9D794A
102
}
330
7DE1B343D9D794A
100
AcDbXrecord
  1
{DD6E2C10-8DB4-11D6-88E6-0090279574E7}
  0
XRECORD
  5
7DE1B343D9D794D
102
{ACAD_REACTORS
330
7DE1B343D9D794A
102
}
330
7DE1B343D9D794A
100
AcDbXrecord
  1

  0
XRECORD
  5
7DE1B343D9D7953
102
{ACAD_REACTORS
330
7DE1B343D9D794A
102
}
330
7DE1B343D9D794A
100
AcDbXrecord
 90
        0
  0
XRECORD
  5
7DE1B343D9D794F
102
{ACAD_REACTORS
330
7DE1B343D9D794A
102
}
330
7DE1B343D9D794A
100
AcDbXrecord
340
7DE1B343D9D793F
  0
XRECORD
  5
7DE1B343D9D7952
102
{ACAD_REACTORS
330
7DE1B343D9D794A
102
}
330
7DE1B343D9D794A
100
AcDbXrecord
 90
    14877
  0
XRECORD
  5
7DE1B343D9D7950
102
{ACAD_REACTORS
330
7DE1B343D9D794A
102
}
330
7DE1B343D9D794A
100
AcDbXrecord
340
7DE1B343D9D7940
  0
XRECORD
  5
7DE1B343D9D7951
102
{ACAD_REACTORS
330
7DE1B343D9D794A
102
}
330
7DE1B343D9D794A
100
AcDbXrecord
340
7DE1B343D9D793D
  0
XRECORD
  5
7DE1B343D9D7957
102
{ACAD_REACTORS
330
7DE1B343D9D794A
102
}
330
7DE1B343D9D794A
100
AcDbXrecord
 40
0.0
  0
XRECORD
  5
7DE1B343D9D795A
102
{ACAD_REACTORS
330
7DE1B343D9D794A
102
}
330
7DE1B343D9D794A
100
AcDbXrecord
340
0
  0
XRECORD
  5
7DE1B343D9D7960
102
{ACAD_REACTORS
330
7DE1B343D9D794A
102
}
330
7DE1B343D9D794A
100
AcDbXrecord
 10
0.0
 20
0.0
 30
0.0
  0
XRECORD
  5
7DE1B343D9D795C
102
{ACAD_REACTORS
330
7DE1B343D9D794A
102
}
330
7DE1B343D9D794A
100
AcDbXrecord
 10
0.0
 20
0.0
 30
0.0
  0
XRECORD
  5
7DE1B343D9D795F
102
{ACAD_REACTORS
330
7DE1B343D9D794A
102
}
330
7DE1B343D9D794A
100
AcDbXrecord
 10
0.0
 20
0.0
 30
0.0
  0
XRECORD
  5
7DE1B343D9D795D
102
{ACAD_REACTORS
330
7DE1B343D9D794A
102
}
330
7DE1B343D9D794A
100
AcDbXrecord
 10
0.0
 20
0.0
 30
0.0
  0
XRECORD
  5
7DE1B343D9D795E
102
{ACAD_REACTORS
330
7DE1B343D9D794A
102
}
330
7DE1B343D9D794A
100
AcDbXrecord
 10
0.0
 20
0.0
 30
0.0
  0
XRECORD
  5
7DE1B343D9D795B
102
{ACAD_REACTORS
330
7DE1B343D9D794A
102
}
330
7DE1B343D9D794A
100
AcDbXrecord
 10
0.0
 20
0.0
 30
0.0
  0
XRECORD
  5
7DE1B343D9D7958
102
{ACAD_REACTORS
330
7DE1B343D9D794A
102
}
330
7DE1B343D9D794A
100
AcDbXrecord
340
0
  0
XRECORD
  5
7DE1B343D9D7959
102
{ACAD_REACTORS
330
7DE1B343D9D794A
102
}
330
7DE1B343D9D794A
100
AcDbXrecord
 70
     0
  0
XRECORD
  5
7DE1B343D9D794E
102
{ACAD_REACTORS
330
7DE1B343D9D794A
102
}
330
7DE1B343D9D794A
100
AcDbXrecord
  1

  0
XRECORD
  5
7DE1B343D9D794B
102
{ACAD_REACTORS
330
7DE1B343D9D794A
102
}
330
7DE1B343D9D794A
100
AcDbXrecord
 90
        1
  0
XRECORD
  5
7DE1B343D9D794C
102
{ACAD_REACTORS
330
7DE1B343D9D794A
102
}
330
7DE1B343D9D794A
100
AcDbXrecord
 90
       70
  0
XRECORD
  5
7DE1B343D9D7963
102
{ACAD_REACTORS
330
7DE1B343D9D794A
102
}
330
7DE1B343D9D794A
100
AcDbXrecord
340
0
  0
XRECORD
  5
7DE1B343D9D7969
102
{ACAD_REACTORS
330
7DE1B343D9D794A
102
}
330
7DE1B343D9D794A
100
AcDbXrecord
 10
0.0
 20
0.0
 30
0.0
  0
XRECORD
  5
7DE1B343D9D7965
102
{ACAD_REACTORS
330
7DE1B343D9D794A
102
}
330
7DE1B343D9D794A
100
AcDbXrecord
 10
0.0
 20
0.0
 30
0.0
  0
XRECORD
  5
7DE1B343D9D7968
102
{ACAD_REACTORS
330
7DE1B343D9D794A
102
}
330
7DE1B343D9D794A
100
AcDbXrecord
 10
0.0
 20
0.0
 30
0.0
  0
XRECORD
  5
7DE1B343D9D7966
102
{ACAD_REACTORS
330
7DE1B343D9D794A
102
}
330
7DE1B343D9D794A
100
AcDbXrecord
 10
0.0
 20
0.0
 30
0.0
  0
XRECORD
  5
7DE1B343D9D7967
102
{ACAD_REACTORS
330
7DE1B343D9D794A
102
}
330
7DE1B343D9D794A
100
AcDbXrecord
 10
0.0
 20
0.0
 30
0.0
  0
XRECORD
  5
7DE1B343D9D7964
102
{ACAD_REACTORS
330
7DE1B343D9D794A
102
}
330
7DE1B343D9D794A
100
AcDbXrecord
 10
0.0
 20
0.0
 30
0.0
  0
XRECORD
  5
7DE1B343D9D7961
102
{ACAD_REACTORS
330
7DE1B343D9D794A
102
}
330
7DE1B343D9D794A
100
AcDbXrecord
340
0
  0
XRECORD
  5
7DE1B343D9D7962
102
{ACAD_REACTORS
330
7DE1B343D9D794A
102
}
330
7DE1B343D9D794A
100
AcDbXrecord
 70
     0
  0
XRECORD
  5
7DE1B343D9D7956
102
{ACAD_REACTORS
330
7DE1B343D9D794A
102
}
330
7DE1B343D9D794A
100
AcDbXrecord
  1
{DD6E2C12-8DB4-11D6-88E6-0090279574E7}
  0
DICTIONARYVAR
  5
7DE1B343D9D7948
102
{ACAD_REACTORS
330
7DE1B343D9D7947
102
}
330
7DE1B343D9D7947
100
DictionaryVariables
280
     0
  1
1
  0
ENDSEC
  0
EOF
