  0
SECTION
  2
HEADER
  9
$ACADVER
  1
AC1014
  9
$ACADMAINTVER
 70
     9
  9
$DWGCODEPAGE
  3
ANSI_1252
  9
$INSBASE
 10
2.416920728833764
 20
1.95127638375703
 30
0.0
  9
$EXTMIN
 10
0.6739391496066214
 20
0.9814081158469502
 30
0.0
  9
$EXTMAX
 10
4.15915847135375
 20
1.95127638375703
 30
0.0
  9
$LIMMIN
 10
0.0
 20
0.0
  9
$LIMMAX
 10
18.0
 20
12.0
  9
$ORTHOMODE
 70
     1
  9
$REGENMODE
 70
     1
  9
$FILLMODE
 70
     1
  9
$QTEXTMODE
 70
     0
  9
$MIRRTEXT
 70
     0
  9
$DRAGMODE
 70
     2
  9
$LTSCALE
 40
1.0
  9
$OSMODE
 70
    39
  9
$ATTMODE
 70
     1
  9
$TEXTSIZE
 40
0.125
  9
$TRACEWID
 40
0.05
  9
$TEXTSTYLE
  7
ROMANS
  9
$CLAYER
  8
0
  9
$CELTYPE
  6
BYLAYER
  9
$CECOLOR
 62
   256
  9
$CELTSCALE
 40
1.0
  9
$DELOBJ
 70
     1
  9
$DISPSILH
 70
     1
  9
$DIMSCALE
 40
1.0
  9
$DIMASZ
 40
0.125
  9
$DIMEXO
 40
0.125
  9
$DIMDLI
 40
0.375
  9
$DIMRND
 40
0.0
  9
$DIMDLE
 40
0.0
  9
$DIMEXE
 40
0.125
  9
$DIMTP
 40
0.0
  9
$DIMTM
 40
0.0
  9
$DIMTXT
 40
0.125
  9
$DIMCEN
 40
-0.125
  9
$DIMTSZ
 40
0.0
  9
$DIMTOL
 70
     0
  9
$DIMLIM
 70
     0
  9
$DIMTIH
 70
     1
  9
$DIMTOH
 70
     1
  9
$DIMSE1
 70
     0
  9
$DIMSE2
 70
     0
  9
$DIMTAD
 70
     0
  9
$DIMZIN
 70
     4
  9
$DIMBLK
  1

  9
$DIMASO
 70
     1
  9
$DIMSHO
 70
     1
  9
$DIMPOST
  1

  9
$DIMAPOST
  1

  9
$DIMALT
 70
     0
  9
$DIMALTD
 70
     2
  9
$DIMALTF
 40
25.4
  9
$DIMLFAC
 40
1.0
  9
$DIMTOFL
 70
     0
  9
$DIMTVP
 40
0.0
  9
$DIMTIX
 70
     1
  9
$DIMSOXD
 70
     0
  9
$DIMSAH
 70
     0
  9
$DIMBLK1
  1

  9
$DIMBLK2
  1

  9
$DIMSTYLE
  2
STANDARD
  9
$DIMCLRD
 70
     0
  9
$DIMCLRE
 70
     0
  9
$DIMCLRT
 70
     0
  9
$DIMTFAC
 40
1.0
  9
$DIMGAP
 40
0.09
  9
$DIMJUST
 70
     0
  9
$DIMSD1
 70
     0
  9
$DIMSD2
 70
     0
  9
$DIMTOLJ
 70
     1
  9
$DIMTZIN
 70
     4
  9
$DIMALTZ
 70
     0
  9
$DIMALTTZ
 70
     0
  9
$DIMFIT
 70
     3
  9
$DIMUPT
 70
     0
  9
$DIMUNIT
 70
     2
  9
$DIMDEC
 70
     3
  9
$DIMTDEC
 70
     3
  9
$DIMALTU
 70
     2
  9
$DIMALTTD
 70
     2
  9
$DIMTXSTY
  7
ROMANS
  9
$DIMAUNIT
 70
     0
  9
$LUNITS
 70
     2
  9
$LUPREC
 70
     3
  9
$SKETCHINC
 40
0.1
  9
$FILLETRAD
 40
0.03125
  9
$AUNITS
 70
     0
  9
$AUPREC
 70
     0
  9
$MENU
  1
ACAD
  9
$ELEVATION
 40
0.0
  9
$PELEVATION
 40
0.0
  9
$THICKNESS
 40
0.0
  9
$LIMCHECK
 70
     0
  9
$BLIPMODE
 70
     0
  9
$CHAMFERA
 40
0.0
  9
$CHAMFERB
 40
0.0
  9
$CHAMFERC
 40
0.0
  9
$CHAMFERD
 40
0.0
  9
$SKPOLY
 70
     0
  9
$TDCREATE
 40
2448994.380070949
  9
$TDUPDATE
 40
2452458.299716007
  9
$TDINDWG
 40
0.0006781944
  9
$TDUSRTIMER
 40
0.0006781944
  9
$USRTIMER
 70
     1
  9
$ANGBASE
 50
0.0
  9
$ANGDIR
 70
     0
  9
$PDMODE
 70
     0
  9
$PDSIZE
 40
0.0
  9
$PLINEWID
 40
0.0
  9
$COORDS
 70
     2
  9
$SPLFRAME
 70
     0
  9
$SPLINETYPE
 70
     6
  9
$SPLINESEGS
 70
     8
  9
$ATTDIA
 70
     0
  9
$ATTREQ
 70
     1
  9
$HANDLING
 70
 22529
  9
$HANDSEED
  5
7DE1B343D9D7552
  9
$SURFTAB1
 70
     6
  9
$SURFTAB2
 70
     6
  9
$SURFTYPE
 70
     6
  9
$SURFU
 70
     6
  9
$SURFV
 70
     6
  9
$UCSNAME
  2

  9
$UCSORG
 10
0.0
 20
0.0
 30
0.0
  9
$UCSXDIR
 10
1.0
 20
0.0
 30
0.0
  9
$UCSYDIR
 10
0.0
 20
1.0
 30
0.0
  9
$PUCSNAME
  2

  9
$PUCSORG
 10
0.0
 20
0.0
 30
0.0
  9
$PUCSXDIR
 10
1.0
 20
0.0
 30
0.0
  9
$PUCSYDIR
 10
0.0
 20
1.0
 30
0.0
  9
$USERI1
 70
     0
  9
$USERI2
 70
     0
  9
$USERI3
 70
     0
  9
$USERI4
 70
     0
  9
$USERI5
 70
     0
  9
$USERR1
 40
0.0
  9
$USERR2
 40
0.0
  9
$USERR3
 40
0.0
  9
$USERR4
 40
0.0
  9
$USERR5
 40
0.0
  9
$WORLDVIEW
 70
     1
  9
$SHADEDGE
 70
     3
  9
$SHADEDIF
 70
    70
  9
$TILEMODE
 70
     1
  9
$MAXACTVP
 70
    16
  9
$PINSBASE
 10
1.063306728750327
 20
50.00000000000001
 30
1.423780498794337
  9
$PLIMCHECK
 70
     0
  9
$PEXTMIN
 10
1.000000000000000E+20
 20
1.000000000000000E+20
 30
1.000000000000000E+20
  9
$PEXTMAX
 10
-1.000000000000000E+20
 20
-1.000000000000000E+20
 30
-1.000000000000000E+20
  9
$PLIMMIN
 10
0.0
 20
0.0
  9
$PLIMMAX
 10
12.0
 20
9.0
  9
$UNITMODE
 70
     0
  9
$VISRETAIN
 70
     0
  9
$PLINEGEN
 70
     1
  9
$PSLTSCALE
 70
     0
  9
$TREEDEPTH
 70
  3020
  9
$PICKSTYLE
 70
     1
  9
$CMLSTYLE
  2
STANDARD
  9
$CMLJUST
 70
     0
  9
$CMLSCALE
 40
1.0
  9
$PROXYGRAPHICS
 70
     1
  9
$MEASUREMENT
 70
     0
  0
ENDSEC
  0
SECTION
  2
CLASSES
  0
CLASS
  1
LWPOLYLINE
  2
AcDbPolyline
  3
AutoCAD 2000
 90
        0
280
     0
281
     1
  0
CLASS
  1
ACDBDICTIONARYWDFLT
  2
AcDbDictionaryWithDefault
  3
AutoCAD 2000
 90
        0
280
     0
281
     0
  0
CLASS
  1
ACDBPLACEHOLDER
  2
AcDbPlaceHolder
  3
AutoCAD 2000
 90
        0
280
     0
281
     0
  0
CLASS
  1
LAYOUT
  2
AcDbLayout
  3
AutoCAD 2000
 90
        0
280
     0
281
     0
  0
CLASS
  1
DICTIONARYVAR
  2
AcDbDictionaryVar
  3
AutoCAD 2000
 90
        0
280
     0
281
     0
  0
CLASS
  1
LONG_TRANSACTION
  2
AcDbLongTransaction
  3
AutoCAD 2000
 90
        0
280
     0
281
     0
  0
CLASS
  1
LWPOLYLINE
  2
AcDbPolyline
  3
AutoCAD 2000
 90
        0
280
     0
281
     1
  0
CLASS
  1
HATCH
  2
AcDbHatch
  3
AutoCAD 2000
 90
        0
280
     0
281
     1
  0
CLASS
  1
XRECORD
  2
AcDbXrecord
  3
AutoCAD 2000
 90
        0
280
     0
281
     0
  0
ENDSEC
  0
SECTION
  2
TABLES
  0
TABLE
  2
VPORT
  5
7DE1B343D9D74F9
330
0
100
AcDbSymbolTable
 70
     2
  0
VPORT
  5
7DE1B343D9D752D
330
7DE1B343D9D74F9
100
AcDbSymbolTableRecord
100
AcDbViewportTableRecord
  2
*ACTIVE
 70
     0
 10
0.0
 20
0.0
 11
1.0
 21
1.0
 12
5.393465839886215
 22
1.466308616411765
 13
0.0
 23
0.0
 14
0.015625
 24
0.015625
 15
0.0
 25
0.0
 16
0.0
 26
0.0
 36
1.0
 17
0.0
 27
0.0
 37
0.0
 40
2.282647215150728
 41
4.320930232558139
 42
50.0
 43
0.0
 44
0.0
 50
0.0
 51
0.0
 71
     0
 72
  2000
 73
     1
 74
     0
 75
     0
 76
     0
 77
     0
 78
     0
  0
ENDTAB
  0
TABLE
  2
LTYPE
  5
7DE1B343D9D74F6
330
0
100
AcDbSymbolTable
 70
     1
  0
LTYPE
  5
7DE1B343D9D7503
330
7DE1B343D9D74F6
100
AcDbSymbolTableRecord
100
AcDbLinetypeTableRecord
  2
BYBLOCK
 70
     0
  3

 72
    65
 73
     0
 40
0.0
  0
LTYPE
  5
7DE1B343D9D7504
330
7DE1B343D9D74F6
100
AcDbSymbolTableRecord
100
AcDbLinetypeTableRecord
  2
BYLAYER
 70
     0
  3

 72
    65
 73
     0
 40
0.0
  0
LTYPE
  5
7DE1B343D9D7505
330
7DE1B343D9D74F6
100
AcDbSymbolTableRecord
100
AcDbLinetypeTableRecord
  2
CONTINUOUS
 70
     0
  3
Solid line
 72
    65
 73
     0
 40
0.0
  0
ENDTAB
  0
TABLE
  2
LAYER
  5
7DE1B343D9D74F3
330
0
100
AcDbSymbolTable
 70
     2
  0
LAYER
  5
7DE1B343D9D7500
330
7DE1B343D9D74F3
100
AcDbSymbolTableRecord
100
AcDbLayerTableRecord
  2
0
 70
     0
 62
     7
  6
CONTINUOUS
  0
LAYER
  5
7DE1B343D9D7510
330
7DE1B343D9D74F3
100
AcDbSymbolTableRecord
100
AcDbLayerTableRecord
  2
TEXT
 70
     0
 62
     3
  6
CONTINUOUS
  0
ENDTAB
  0
TABLE
  2
STYLE
  5
7DE1B343D9D74F4
330
0
100
AcDbSymbolTable
 70
     3
  0
STYLE
  5
7DE1B343D9D7501
330
7DE1B343D9D74F4
100
AcDbSymbolTableRecord
100
AcDbTextStyleTableRecord
  2
STANDARD
 70
     0
 40
0.0
 41
1.0
 50
0.0
 71
     0
 42
0.3125
  3
txt
  4

  0
STYLE
  5
7DE1B343D9D750D
330
7DE1B343D9D74F4
100
AcDbSymbolTableRecord
100
AcDbTextStyleTableRecord
  2
ITALICC
 70
     0
 40
0.0
 41
1.0
 50
0.0
 71
     0
 42
0.125
  3
italicc
  4

  0
STYLE
  5
7DE1B343D9D751D
330
7DE1B343D9D74F4
100
AcDbSymbolTableRecord
100
AcDbTextStyleTableRecord
  2
ROMANS
 70
     0
 40
0.0
 41
1.0
 50
0.0
 71
     0
 42
0.125
  3
romans.shx
  4

  0
ENDTAB
  0
TABLE
  2
VIEW
  5
7DE1B343D9D74F7
330
0
100
AcDbSymbolTable
 70
     0
  0
ENDTAB
  0
TABLE
  2
UCS
  5
7DE1B343D9D74F8
330
0
100
AcDbSymbolTable
 70
     0
  0
ENDTAB
  0
TABLE
  2
APPID
  5
7DE1B343D9D74FA
330
0
100
AcDbSymbolTable
 70
     1
  0
APPID
  5
7DE1B343D9D7502
330
7DE1B343D9D74FA
100
AcDbSymbolTableRecord
100
AcDbRegAppTableRecord
  2
ACAD
 70
     0
  0
ENDTAB
  0
TABLE
  2
DIMSTYLE
  5
7DE1B343D9D74FB
330
0
100
AcDbSymbolTable
 70
     1
  0
DIMSTYLE
105
7DE1B343D9D7515
330
7DE1B343D9D74FB
100
AcDbSymbolTableRecord
100
AcDbDimStyleTableRecord
  2
STANDARD
 70
     0
  3

  4

  5

  6

  7

 40
1.0
 41
0.125
 42
0.125
 43
0.375
 44
0.125
 45
0.0
 46
0.0
 47
0.0
 48
0.0
140
0.125
141
-0.125
142
0.0
143
25.4
144
1.0
145
0.0
146
1.0
147
0.09
 71
     0
 72
     0
 73
     1
 74
     1
 75
     0
 76
     0
 77
     0
 78
     4
170
     0
171
     2
172
     0
173
     0
174
     1
175
     0
176
     0
177
     0
178
     0
270
     2
271
     3
272
     3
273
     2
274
     2
340
7DE1B343D9D751D
275
     0
280
     0
281
     0
282
     0
283
     1
284
     4
285
     0
286
     0
287
     3
288
     0
  0
ENDTAB
  0
TABLE
  2
BLOCK_RECORD
  5
7DE1B343D9D74F2
330
0
100
AcDbSymbolTable
 70
     0
  0
BLOCK_RECORD
  5
7DE1B343D9D7509
102
{ACAD_XDICTIONARY
360
7DE1B343D9D7550
102
}
330
7DE1B343D9D74F2
100
AcDbSymbolTableRecord
100
AcDbBlockTableRecord
  2
*MODEL_SPACE
  0
BLOCK_RECORD
  5
7DE1B343D9D7506
102
{ACAD_XDICTIONARY
360
7DE1B343D9D754E
102
}
330
7DE1B343D9D74F2
100
AcDbSymbolTableRecord
100
AcDbBlockTableRecord
  2
*PAPER_SPACE
  0
ENDTAB
  0
ENDSEC
  0
SECTION
  2
BLOCKS
  0
BLOCK
  5
7DE1B343D9D7513
330
7DE1B343D9D7509
100
AcDbEntity
  8
0
100
AcDbBlockBegin
  2
*MODEL_SPACE
 70
     0
 10
0.0
 20
0.0
 30
0.0
  3
*MODEL_SPACE
  1

  0
ENDBLK
  5
7DE1B343D9D7514
330
7DE1B343D9D7509
100
AcDbEntity
  8
0
100
AcDbBlockEnd
  0
BLOCK
  5
7DE1B343D9D7511
330
7DE1B343D9D7506
100
AcDbEntity
 67
     1
  8
0
100
AcDbBlockBegin
  2
*PAPER_SPACE
 70
     0
 10
0.0
 20
0.0
 30
0.0
  3
*PAPER_SPACE
  1

  0
ENDBLK
  5
7DE1B343D9D7512
330
7DE1B343D9D7506
100
AcDbEntity
 67
     1
  8
0
100
AcDbBlockEnd
  0
ENDSEC
  0
SECTION
  2
ENTITIES
  0
LWPOLYLINE
  5
7DE1B343D9D6109
330
7DE1B343D9D7509
100
AcDbEntity
  8
0
100
AcDbPolyline
 90
       15
 70
     1
 43
0.0
 10
2.416920728833764
 20
1.836276383757031
 10
2.426920728833764
 20
1.826276383757031
 10
2.654420728833764
 20
1.826276383757031
 10
2.654420728833764
 20
1.70127638375703
 10
2.948170728833764
 20
1.70127638375703
 10
2.948170728833764
 20
1.82627638375703
 10
2.779420728833764
 20
1.82627638375703
 10
2.779420728833764
 20
1.95127638375703
 10
2.054420728833764
 20
1.95127638375703
 10
2.054420728833764
 20
1.82627638375703
 10
1.885670728833764
 20
1.82627638375703
 10
1.885670728833764
 20
1.70127638375703
 10
2.179420728833764
 20
1.70127638375703
 10
2.179420728833764
 20
1.826276383757031
 10
2.406920728833764
 20
1.826276383757031
  0
TEXT
  5
7DE1B343D9D73B4
330
7DE1B343D9D7509
100
AcDbEntity
  8
TEXT
100
AcDbText
 10
1.663944538357573
 20
1.439426719929531
 30
0.0
 40
0.125
  1
PART #110194
  7
ITALICC
 72
     1
 11
2.416920728833764
 21
1.439426719929531
 31
0.0
100
AcDbText
  0
TEXT
  5
7DE1B343D9D73B5
330
7DE1B343D9D7509
100
AcDbEntity
  8
TEXT
100
AcDbText
 10
2.830225887084085
 20
0.9925040772571566
 30
0.0
 40
0.0522247191011236
  1
Phone  1-800-328-2495
 41
1.272321428571429
 72
     5
 11
4.159158471353748
 21
0.9925040772571566
 31
0.0
100
AcDbText
  0
TEXT
  5
7DE1B343D9D73B6
330
7DE1B343D9D7509
100
AcDbEntity
  8
TEXT
100
AcDbText
 10
2.830225887084085
 20
1.272279358156033
 30
0.0
 40
0.0522247191011236
  1
Stylmark  Incorporated
 41
1.221428571428572
 72
     5
 11
4.159158471353748
 21
1.272279358156033
 31
0.0
100
AcDbText
  0
TEXT
  5
7DE1B343D9D73B7
330
7DE1B343D9D7509
100
AcDbEntity
  8
TEXT
100
AcDbText
 10
2.830225887084085
 20
1.179020931189741
 30
0.0
 40
0.0522247191011236
  1
6536 Main St. N.E. * P.O. Box 32008
 41
0.8388932496075362
 72
     5
 11
4.159158471353748
 21
1.179020931189741
 31
0.0
100
AcDbText
  0
TEXT
  5
7DE1B343D9D73B8
330
7DE1B343D9D7509
100
AcDbEntity
  8
TEXT
100
AcDbText
 10
2.830225887084085
 20
1.085762504223448
 30
0.0
 40
0.0522247191011236
  1
Minneapolis, MN 55432-0008
 41
1.11444212721585
 72
     5
 11
4.159158471353748
 21
1.085762504223448
 31
0.0
100
AcDbText
  0
LWPOLYLINE
  5
7DE1B343D9D73B9
330
7DE1B343D9D7509
100
AcDbEntity
  8
TEXT
100
AcDbPolyline
 90
        3
 70
     0
 43
0.0006660908203125
 10
0.6742721950167776
 20
1.106148839894591
 10
0.6742721950167776
 20
0.9929134004414638
 10
0.7875076344698999
 20
0.9929134004414638
  0
LWPOLYLINE
  5
7DE1B343D9D73BE
330
7DE1B343D9D7509
100
AcDbEntity
  8
TEXT
100
AcDbPolyline
 90
        3
 70
     0
 43
0.0006660908203125
 10
0.7009158278292751
 20
1.106148839894591
 10
0.7009158278292751
 20
1.019557033253964
 10
0.7875076344698999
 20
1.019557033253964
  0
LWPOLYLINE
  5
7DE1B343D9D73C3
330
7DE1B343D9D7509
100
AcDbEntity
  8
TEXT
100
AcDbPolyline
 90
        2
 70
     0
 43
0.0001332181640625
 10
0.7475421852511519
 20
1.116140202199276
 10
0.6742721950167776
 20
1.106148839894591
  0
LWPOLYLINE
  5
7DE1B343D9D73C7
330
7DE1B343D9D7509
100
AcDbEntity
  8
TEXT
100
AcDbPolyline
 90
        2
 70
     0
 43
0.0001332181640625
 10
0.7009158278292751
 20
1.106148839894591
 10
0.7608640016574025
 20
1.116140202199276
  0
LWPOLYLINE
  5
7DE1B343D9D73CB
330
7DE1B343D9D7509
100
AcDbEntity
  8
TEXT
100
AcDbPolyline
 90
        2
 70
     0
 43
0.0001332181640625
 10
0.7009158278292751
 20
1.019557033253964
 10
0.7608640016574025
 20
1.07950520708209
  0
LWPOLYLINE
  5
7DE1B343D9D73CF
330
7DE1B343D9D7509
100
AcDbEntity
  8
TEXT
100
AcDbPolyline
 90
        3
 70
     0
 43
0.0006660908203125
 10
0.7875076344698999
 20
1.259349728566467
 10
0.6742721950167776
 20
1.259349728566467
 10
0.6742721950167776
 20
1.146114289113339
  0
LWPOLYLINE
  5
7DE1B343D9D73D4
330
7DE1B343D9D7509
100
AcDbEntity
  8
TEXT
100
AcDbPolyline
 90
        3
 70
     0
 43
0.0006660908203125
 10
0.7875076344698999
 20
1.232706095753966
 10
0.7009158278292751
 20
1.232706095753966
 10
0.7009158278292751
 20
1.146114289113339
  0
LWPOLYLINE
  5
7DE1B343D9D73D9
330
7DE1B343D9D7509
100
AcDbEntity
  8
TEXT
100
AcDbPolyline
 90
        2
 70
     0
 43
0.0001332181640625
 10
0.7009158278292751
 20
1.232706095753966
 10
0.7608640016574007
 20
1.17275792192584
  0
LWPOLYLINE
  5
7DE1B343D9D73DD
330
7DE1B343D9D7509
100
AcDbEntity
  8
TEXT
100
AcDbPolyline
 90
        2
 70
     0
 43
0.0001332181640625
 10
0.7009158278292751
 20
1.146114289113339
 10
0.7608640016574007
 20
1.13612292680865
  0
LWPOLYLINE
  5
7DE1B343D9D73E1
330
7DE1B343D9D7509
100
AcDbEntity
  8
TEXT
100
AcDbPolyline
 90
        2
 70
     0
 43
0.0001332181640625
 10
0.6742721950167776
 20
1.146114289113339
 10
0.7475421852511519
 20
1.13612292680865
  0
LWPOLYLINE
  5
7DE1B343D9D73E5
330
7DE1B343D9D7509
100
AcDbEntity
  8
TEXT
100
AcDbPolyline
 90
        2
 70
     0
 43
0.0006660908203125
 10
0.7009158278292751
 20
1.106148839894591
 10
0.6742721950167776
 20
1.106148839894591
  0
LWPOLYLINE
  5
7DE1B343D9D73E9
330
7DE1B343D9D7509
100
AcDbEntity
  8
TEXT
100
AcDbPolyline
 90
        2
 70
     0
 43
0.0006660908203125
 10
0.7009158278292751
 20
1.146114289113339
 10
0.6742721950167776
 20
1.146114289113339
  0
LINE
  5
7DE1B343D9D73ED
330
7DE1B343D9D7509
100
AcDbEntity
  8
TEXT
100
AcDbLine
 10
2.189462624143275
 20
1.195073033909698
 30
0.0
 11
2.082256350755985
 21
1.195073033909698
 31
0.0
  0
LINE
  5
7DE1B343D9D73EE
330
7DE1B343D9D7509
100
AcDbEntity
  8
TEXT
100
AcDbLine
 10
2.218493522487753
 20
1.259349728566463
 30
0.0
 11
2.083661613270694
 21
1.259349728566463
 31
0.0
  0
ARC
  5
7DE1B343D9D73EF
330
7DE1B343D9D7509
100
AcDbEntity
  8
TEXT
100
AcDbCircle
 10
2.142975709664011
 20
1.090112479303447
 30
0.0
 40
0.0676855811441166
100
AcDbArc
 50
90.0
 51
153.7768192527749
  0
LWPOLYLINE
  5
7DE1B343D9D73F0
330
7DE1B343D9D7509
100
AcDbEntity
  8
TEXT
100
AcDbPolyline
 90
        2
 70
     0
 43
0.0
 10
2.081223855301175
 20
1.03636764052839
 42
0.2901071551932823
 10
2.124299788168811
 20
0.9928766955779526
 42
5.328517124445801
  0
ARC
  5
7DE1B343D9D73F4
330
7DE1B343D9D7509
100
AcDbEntity
  8
TEXT
100
AcDbCircle
 10
1.437844331992525
 20
1.052669086916002
 30
0.0
 40
0.0601160179737537
100
AcDbArc
 50
180.0000000000003
 51
264.0521544866073
  0
LINE
  5
7DE1B343D9D73F5
330
7DE1B343D9D7509
100
AcDbEntity
  8
TEXT
100
AcDbLine
 10
1.441359687618073
 20
1.293737646160601
 30
0.0
 11
1.381317082774066
 21
1.293737646160601
 31
0.0
  0
ARC
  5
7DE1B343D9D73F6
330
7DE1B343D9D7509
100
AcDbEntity
  8
TEXT
100
AcDbCircle
 10
1.205585329875555
 20
1.177262269119961
 30
0.0
 40
0.0820874594465043
100
AcDbArc
 50
90.0
 51
270.0
  0
LWPOLYLINE
  5
7DE1B343D9D73F7
330
7DE1B343D9D7509
100
AcDbEntity
  8
TEXT
100
AcDbPolyline
 90
        2
 70
     0
 43
0.0001332181640625
 10
0.7974989967745905
 20
1.186079738332087
 10
0.7875076344698999
 20
1.259349728566467
  0
LWPOLYLINE
  5
7DE1B343D9D73FB
330
7DE1B343D9D7509
100
AcDbEntity
  8
TEXT
100
AcDbPolyline
 90
        2
 70
     0
 43
0.0001332181640625
 10
0.7875076344698999
 20
1.232706095753966
 10
0.7974989967745905
 20
1.17275792192584
  0
LWPOLYLINE
  5
7DE1B343D9D73FF
330
7DE1B343D9D7509
100
AcDbEntity
  8
TEXT
100
AcDbPolyline
 90
        3
 70
     0
 43
0.0006660908203125
 10
0.9407085231417774
 20
1.146114289113339
 10
0.9407085231417774
 20
1.259349728566467
 10
0.8274730836886515
 20
1.259349728566467
  0
LWPOLYLINE
  5
7DE1B343D9D7404
330
7DE1B343D9D7509
100
AcDbEntity
  8
TEXT
100
AcDbPolyline
 90
        3
 70
     0
 43
0.0006660908203125
 10
0.9140648903292763
 20
1.146114289113339
 10
0.9140648903292763
 20
1.232706095753966
 10
0.8274730836886515
 20
1.232706095753966
  0
LWPOLYLINE
  5
7DE1B343D9D7409
330
7DE1B343D9D7509
100
AcDbEntity
  8
TEXT
100
AcDbPolyline
 90
        2
 70
     0
 43
0.0001332181640625
 10
0.9140648903292763
 20
1.232706095753966
 10
0.8541167165011525
 20
1.17275792192584
  0
LWPOLYLINE
  5
7DE1B343D9D740D
330
7DE1B343D9D7509
100
AcDbEntity
  8
TEXT
100
AcDbPolyline
 90
        2
 70
     0
 43
0.0001332181640625
 10
0.8274730836886515
 20
1.232706095753966
 10
0.8174817213839627
 20
1.17275792192584
  0
LWPOLYLINE
  5
7DE1B343D9D7411
330
7DE1B343D9D7509
100
AcDbEntity
  8
TEXT
100
AcDbPolyline
 90
        2
 70
     0
 43
0.0001332181640625
 10
0.8274730836886515
 20
1.259349728566467
 10
0.8174817213839627
 20
1.186079738332087
  0
LWPOLYLINE
  5
7DE1B343D9D7415
330
7DE1B343D9D7509
100
AcDbEntity
  8
TEXT
100
AcDbPolyline
 90
        2
 70
     0
 43
0.0001332181640625
 10
0.8674385329074013
 20
1.13612292680865
 10
0.9407085231417774
 20
1.146114289113339
  0
LWPOLYLINE
  5
7DE1B343D9D7419
330
7DE1B343D9D7509
100
AcDbEntity
  8
TEXT
100
AcDbPolyline
 90
        2
 70
     0
 43
0.0001332181640625
 10
0.9140648903292763
 20
1.146114289113339
 10
0.8541167165011525
 20
1.13612292680865
  0
LWPOLYLINE
  5
7DE1B343D9D741D
330
7DE1B343D9D7509
100
AcDbEntity
  8
TEXT
100
AcDbPolyline
 90
        2
 70
     0
 43
0.0001332181640625
 10
0.9407085231417774
 20
1.106148839894591
 10
0.8674385329074013
 20
1.116140202199276
  0
LWPOLYLINE
  5
7DE1B343D9D7421
330
7DE1B343D9D7509
100
AcDbEntity
  8
TEXT
100
AcDbPolyline
 90
        2
 70
     0
 43
0.0001332181640625
 10
0.9140648903292763
 20
1.106148839894591
 10
0.8541167165011525
 20
1.116140202199276
  0
LWPOLYLINE
  5
7DE1B343D9D7425
330
7DE1B343D9D7509
100
AcDbEntity
  8
TEXT
100
AcDbPolyline
 90
        2
 70
     0
 43
0.0001332181640625
 10
0.9140648903292763
 20
1.019557033253964
 10
0.8541167165011525
 20
1.07950520708209
  0
LWPOLYLINE
  5
7DE1B343D9D7429
330
7DE1B343D9D7509
100
AcDbEntity
  8
TEXT
100
AcDbPolyline
 90
        3
 70
     0
 43
0.0006660908203125
 10
0.8274730836886515
 20
1.019557033253964
 10
0.9140648903292763
 20
1.019557033253964
 10
0.9140648903292763
 20
1.106148839894591
  0
LWPOLYLINE
  5
7DE1B343D9D742E
330
7DE1B343D9D7509
100
AcDbEntity
  8
TEXT
100
AcDbPolyline
 90
        3
 70
     0
 43
0.0006660908203125
 10
0.8274730836886515
 20
0.9929134004414638
 10
0.9407085231417774
 20
0.9929134004414638
 10
0.9407085231417774
 20
1.106148839894591
  0
LWPOLYLINE
  5
7DE1B343D9D7433
330
7DE1B343D9D7509
100
AcDbEntity
  8
TEXT
100
AcDbPolyline
 90
        5
 70
     0
 43
0.0001332181640625
 10
0.7974989967745905
 20
1.06618339067584
 10
0.7974989967745905
 20
1.07950520708209
 10
0.7608640016574025
 20
1.07950520708209
 10
0.7608640016574025
 20
1.116140202199276
 10
0.7475421852511519
 20
1.116140202199276
  0
LWPOLYLINE
  5
7DE1B343D9D743A
330
7DE1B343D9D7509
100
AcDbEntity
  8
TEXT
100
AcDbPolyline
 90
        2
 70
     0
 43
0.0006660908203125
 10
0.7875076344698999
 20
1.019557033253964
 10
0.7875076344698999
 20
0.9929134004414638
  0
LWPOLYLINE
  5
7DE1B343D9D743E
330
7DE1B343D9D7509
100
AcDbEntity
  8
TEXT
100
AcDbPolyline
 90
        2
 70
     0
 43
0.0001332181640625
 10
0.7875076344698999
 20
1.019557033253964
 10
0.7974989967745905
 20
1.07950520708209
  0
LWPOLYLINE
  5
7DE1B343D9D7442
330
7DE1B343D9D7509
100
AcDbEntity
  8
TEXT
100
AcDbPolyline
 90
        2
 70
     0
 43
0.0001332181640625
 10
0.7875076344698999
 20
0.9929134004414638
 10
0.7974989967745905
 20
1.06618339067584
  0
LWPOLYLINE
  5
7DE1B343D9D7446
330
7DE1B343D9D7509
100
AcDbEntity
  8
TEXT
100
AcDbPolyline
 90
        5
 70
     0
 43
0.0001332181640625
 10
0.7475421852511519
 20
1.13612292680865
 10
0.7608640016574007
 20
1.13612292680865
 10
0.7608640016574007
 20
1.17275792192584
 10
0.7974989967745905
 20
1.17275792192584
 10
0.7974989967745905
 20
1.186079738332087
  0
LWPOLYLINE
  5
7DE1B343D9D744D
330
7DE1B343D9D7509
100
AcDbEntity
  8
TEXT
100
AcDbPolyline
 90
        5
 70
     0
 43
0.0001332181640625
 10
0.8174817213839627
 20
1.186079738332087
 10
0.8174817213839627
 20
1.17275792192584
 10
0.8541167165011525
 20
1.17275792192584
 10
0.8541167165011525
 20
1.13612292680865
 10
0.8674385329074013
 20
1.13612292680865
  0
LWPOLYLINE
  5
7DE1B343D9D7454
330
7DE1B343D9D7509
100
AcDbEntity
  8
TEXT
100
AcDbPolyline
 90
        2
 70
     0
 43
0.0001332181640625
 10
0.8274730836886515
 20
1.019557033253964
 10
0.8174817213839627
 20
1.07950520708209
  0
LWPOLYLINE
  5
7DE1B343D9D7458
330
7DE1B343D9D7509
100
AcDbEntity
  8
TEXT
100
AcDbPolyline
 90
        2
 70
     0
 43
0.0001332181640625
 10
0.8174817213839627
 20
1.06618339067584
 10
0.8274730836886515
 20
0.9929134004414638
  0
LWPOLYLINE
  5
7DE1B343D9D745C
330
7DE1B343D9D7509
100
AcDbEntity
  8
TEXT
100
AcDbPolyline
 90
        2
 70
     0
 43
0.0006660908203125
 10
0.8274730836886515
 20
1.019557033253964
 10
0.8274730836886515
 20
0.9929134004414638
  0
LWPOLYLINE
  5
7DE1B343D9D7460
330
7DE1B343D9D7509
100
AcDbEntity
  8
TEXT
100
AcDbPolyline
 90
        5
 70
     0
 43
0.0001332181640625
 10
0.8674385329074013
 20
1.116140202199276
 10
0.8541167165011525
 20
1.116140202199276
 10
0.8541167165011525
 20
1.07950520708209
 10
0.8174817213839627
 20
1.07950520708209
 10
0.8174817213839627
 20
1.06618339067584
  0
LWPOLYLINE
  5
7DE1B343D9D7467
330
7DE1B343D9D7509
100
AcDbEntity
  8
TEXT
100
AcDbPolyline
 90
        2
 70
     0
 43
0.0006660908203125
 10
0.9140648903292763
 20
1.146114289113339
 10
0.9407085231417774
 20
1.146114289113339
  0
LWPOLYLINE
  5
7DE1B343D9D746B
330
7DE1B343D9D7509
100
AcDbEntity
  8
TEXT
100
AcDbPolyline
 90
        2
 70
     0
 43
0.0006660908203125
 10
0.9140648903292763
 20
1.106148839894591
 10
0.9407085231417774
 20
1.106148839894591
  0
LINE
  5
7DE1B343D9D746F
330
7DE1B343D9D7509
100
AcDbEntity
  8
TEXT
100
AcDbLine
 10
1.210822659989802
 20
1.195073033909698
 30
0.0
 11
1.377728314018773
 21
1.195073033909698
 31
0.0
  0
LINE
  5
7DE1B343D9D7470
330
7DE1B343D9D7509
100
AcDbEntity
  8
TEXT
100
AcDbLine
 10
1.276422796234103
 20
1.15926831229907
 30
0.0
 11
1.210822659989802
 21
1.15926831229907
 31
0.0
  0
LINE
  5
7DE1B343D9D7471
330
7DE1B343D9D7509
100
AcDbEntity
  8
TEXT
100
AcDbLine
 10
1.12349787042905
 20
0.9928766955779526
 30
0.0
 11
1.276422796234103
 21
0.9928766955779526
 31
0.0
  0
LINE
  5
7DE1B343D9D7472
330
7DE1B343D9D7509
100
AcDbEntity
  8
TEXT
100
AcDbLine
 10
1.281363170140382
 20
1.061233701911391
 30
0.0
 11
1.123497870429048
 21
1.061233701911391
 31
0.0
  0
LINE
  5
7DE1B343D9D7473
330
7DE1B343D9D7509
100
AcDbEntity
  8
TEXT
100
AcDbLine
 10
1.205585329875554
 20
1.095174809673456
 30
0.0
 11
1.281363170140382
 21
1.095174809673456
 31
0.0
  0
ARC
  5
7DE1B343D9D7474
330
7DE1B343D9D7509
100
AcDbEntity
  8
TEXT
100
AcDbCircle
 10
1.210822659989803
 20
1.177170673104386
 30
0.0
 40
0.017902360805315
100
AcDbArc
 50
90.0
 51
270.0
  0
LINE
  5
7DE1B343D9D7475
330
7DE1B343D9D7509
100
AcDbEntity
  8
TEXT
100
AcDbLine
 10
1.123497870429048
 20
1.061233701911391
 30
0.0
 11
1.12349787042905
 21
0.9928766955779526
 31
0.0
  0
LINE
  5
7DE1B343D9D7476
330
7DE1B343D9D7509
100
AcDbEntity
  8
TEXT
100
AcDbLine
 10
1.377728314018773
 20
1.195073033909698
 30
0.0
 11
1.377728314018773
 21
1.052669086916002
 31
0.0
  0
ARC
  5
7DE1B343D9D7477
330
7DE1B343D9D7509
100
AcDbEntity
  8
TEXT
100
AcDbCircle
 10
1.276422796234104
 20
1.076072503938509
 30
0.0
 40
0.0831958083605586
100
AcDbArc
 50
270.0
 51
90.0
  0
ARC
  5
7DE1B343D9D7478
330
7DE1B343D9D7509
100
AcDbEntity
  8
TEXT
100
AcDbCircle
 10
1.281363170140383
 20
1.078204255792426
 30
0.0
 40
0.0169705538810321
100
AcDbArc
 50
270.0
 51
90.0
  0
LWPOLYLINE
  5
7DE1B343D9D7479
330
7DE1B343D9D7509
100
AcDbEntity
  8
TEXT
100
AcDbPolyline
 90
        2
 70
     0
 43
0.0006660908203125
 10
0.7875076344698999
 20
1.232706095753966
 10
0.7875076344698999
 20
1.259349728566467
  0
LWPOLYLINE
  5
7DE1B343D9D747D
330
7DE1B343D9D7509
100
AcDbEntity
  8
TEXT
100
AcDbPolyline
 90
        2
 70
     0
 43
0.0006660908203125
 10
0.8274730836886515
 20
1.232706095753966
 10
0.8274730836886515
 20
1.259349728566467
  0
LINE
  5
7DE1B343D9D7481
330
7DE1B343D9D7509
100
AcDbEntity
  8
TEXT
100
AcDbLine
 10
1.381317082774066
 20
1.259349728566463
 30
0.0
 11
1.205585329875554
 21
1.259349728566463
 31
0.0
  0
LINE
  5
7DE1B343D9D7482
330
7DE1B343D9D7509
100
AcDbEntity
  8
TEXT
100
AcDbLine
 10
1.381317082774066
 20
1.293737646160601
 30
0.0
 11
1.381317082774066
 21
1.259349728566463
 31
0.0
  0
LINE
  5
7DE1B343D9D7483
330
7DE1B343D9D7509
100
AcDbEntity
  8
TEXT
100
AcDbLine
 10
1.571788974793918
 20
1.158477732453343
 30
0.0
 11
1.51315865376198
 21
1.259349728566463
 31
0.0
  0
LINE
  5
7DE1B343D9D7484
330
7DE1B343D9D7509
100
AcDbEntity
  8
TEXT
100
AcDbLine
 10
1.630537537599784
 20
1.259349728566463
 30
0.0
 11
1.571788974793918
 21
1.158477732453343
 31
0.0
  0
LINE
  5
7DE1B343D9D7485
330
7DE1B343D9D7509
100
AcDbEntity
  8
TEXT
100
AcDbLine
 10
1.727468162959525
 20
1.075264533680951
 30
0.0
 11
1.727468162959525
 21
1.327361206305274
 31
0.0
  0
LINE
  5
7DE1B343D9D7486
330
7DE1B343D9D7509
100
AcDbEntity
  8
TEXT
100
AcDbLine
 10
1.759780017097185
 20
1.259349728566463
 30
0.0
 11
1.759780017097185
 21
1.058485521834055
 31
0.0
  0
LINE
  5
7DE1B343D9D7487
330
7DE1B343D9D7509
100
AcDbEntity
  8
TEXT
100
AcDbLine
 10
1.759780017097185
 20
1.058485521834055
 30
0.0
 11
1.742786380212584
 21
1.058485521834055
 31
0.0
  0
LINE
  5
7DE1B343D9D7488
330
7DE1B343D9D7509
100
AcDbEntity
  8
TEXT
100
AcDbLine
 10
1.72860773645572
 20
0.9928766955779526
 30
0.0
 11
1.826611070155154
 21
0.9928766955779526
 31
0.0
  0
LINE
  5
7DE1B343D9D7489
330
7DE1B343D9D7509
100
AcDbEntity
  8
TEXT
100
AcDbLine
 10
1.562188737796964
 20
1.012835201682965
 30
0.0
 11
1.659488443890408
 21
1.177185412618233
 31
0.0
  0
ARC
  5
7DE1B343D9D748A
330
7DE1B343D9D7509
100
AcDbEntity
  8
TEXT
100
AcDbCircle
 10
1.52814517788475
 20
1.032424417851648
 30
0.0
 40
0.0392772371940762
100
AcDbArc
 50
270.1604552698595
 51
330.0831797321295
  0
LINE
  5
7DE1B343D9D748B
330
7DE1B343D9D7509
100
AcDbEntity
  8
TEXT
100
AcDbLine
 10
1.431614921498879
 20
0.9928766955779526
 30
0.0
 11
1.528255172573873
 21
0.9931473346762349
 31
0.0
  0
LWPOLYLINE
  5
7DE1B343D9D748C
330
7DE1B343D9D7509
100
AcDbEntity
  8
TEXT
100
AcDbPolyline
 90
        6
 70
     1
 43
0.0
 10
1.474138725074028
 20
1.195073033909698
 10
1.44382213085382
 20
1.195073033909698
 10
1.44382213085382
 20
1.071962035854803
 42
0.407328721240804
 10
1.455365782015296
 20
1.060143121178417
 10
1.515987481060027
 20
1.060143121178417
 10
1.533452821467345
 20
1.092955350221896
  0
LINE
  5
7DE1B343D9D7494
330
7DE1B343D9D7509
100
AcDbEntity
  8
TEXT
100
AcDbLine
 10
1.659488443890408
 20
1.177185412618233
 30
0.0
 11
1.659488443890408
 21
1.044428037792877
 31
0.0
  0
ARC
  5
7DE1B343D9D7495
330
7DE1B343D9D7509
100
AcDbEntity
  8
TEXT
100
AcDbCircle
 10
1.742786380212582
 20
1.07386732807748
 30
0.0
 40
0.0153818062434269
100
AcDbArc
 50
174.7883570302258
 51
270.0
  0
LWPOLYLINE
  5
7DE1B343D9D7496
330
7DE1B343D9D7509
100
AcDbEntity
  8
TEXT
100
AcDbPolyline
 90
        2
 70
     0
 43
0.0
 10
1.659488443890407
 20
1.04442803779288
 42
0.3318488747599744
 10
1.72860773645572
 20
0.9928766955779526
 42
-6.868794160588311
  0
LINE
  5
7DE1B343D9D749A
330
7DE1B343D9D7509
100
AcDbEntity
  8
TEXT
100
AcDbLine
 10
1.884000139144415
 20
0.9928766955779526
 30
0.0
 11
1.951058185926255
 21
0.9928766955779526
 31
0.0
  0
LINE
  5
7DE1B343D9D749B
330
7DE1B343D9D7509
100
AcDbEntity
  8
TEXT
100
AcDbLine
 10
1.884000139144415
 20
1.187519244743588
 30
0.0
 11
1.884000139144415
 21
0.9928766955779526
 31
0.0
  0
LINE
  5
7DE1B343D9D749C
330
7DE1B343D9D7509
100
AcDbEntity
  8
TEXT
100
AcDbLine
 10
1.826611070155154
 20
1.195073033909698
 30
0.0
 11
1.876446349978302
 21
1.195073033909698
 31
0.0
  0
LINE
  5
7DE1B343D9D749D
330
7DE1B343D9D7509
100
AcDbEntity
  8
TEXT
100
AcDbLine
 10
1.826611070155154
 20
0.9928766955779526
 30
0.0
 11
1.826611070155154
 21
1.195073033909698
 31
0.0
  0
LWPOLYLINE
  5
7DE1B343D9D749E
330
7DE1B343D9D7509
100
AcDbEntity
  8
TEXT
100
AcDbPolyline
 90
        2
 70
     0
 43
0.0
 10
1.8764463499783
 20
1.195073033909698
 42
-0.4142135623731017
 10
1.884000139144414
 20
1.187519244743588
 42
-0.9999999999999998
  0
LINE
  5
7DE1B343D9D74A2
330
7DE1B343D9D7509
100
AcDbEntity
  8
TEXT
100
AcDbLine
 10
2.082256350755985
 20
1.195073033909698
 30
0.0
 11
2.082256350755985
 21
1.120020627835491
 31
0.0
  0
LINE
  5
7DE1B343D9D74A3
330
7DE1B343D9D7509
100
AcDbEntity
  8
TEXT
100
AcDbLine
 10
1.951058185926255
 20
1.195073033909698
 30
0.0
 11
2.005191782847206
 21
1.195073033909698
 31
0.0
  0
LINE
  5
7DE1B343D9D74A4
330
7DE1B343D9D7509
100
AcDbEntity
  8
TEXT
100
AcDbLine
 10
1.951058185926255
 20
0.9928766955779526
 30
0.0
 11
1.951058185926255
 21
1.195073033909698
 31
0.0
  0
LWPOLYLINE
  5
7DE1B343D9D74A5
330
7DE1B343D9D7509
100
AcDbEntity
  8
TEXT
100
AcDbPolyline
 90
        2
 70
     0
 43
0.0
 10
2.005191782847204
 20
1.195073033909698
 42
-0.4142135623731017
 10
2.012745572013317
 20
1.187519244743588
 42
-0.9999999999999998
  0
LWPOLYLINE
  5
7DE1B343D9D74A9
330
7DE1B343D9D7509
100
AcDbEntity
  8
TEXT
100
AcDbPolyline
 90
        4
 70
     0
 43
0.0
 10
2.012745572013317
 20
1.187519244743588
 10
2.012745572013317
 20
0.9928766955779526
 10
2.081223855301175
 20
0.9928766955779526
 10
2.081223855301175
 20
1.03636764052839
 42
-1.714843617202739
  0
LINE
  5
7DE1B343D9D74AF
330
7DE1B343D9D7509
100
AcDbEntity
  8
TEXT
100
AcDbLine
 10
1.441359687618073
 20
1.259349728566463
 30
0.0
 11
1.441359687618073
 21
1.293737646160601
 31
0.0
  0
LINE
  5
7DE1B343D9D74B0
330
7DE1B343D9D7509
100
AcDbEntity
  8
TEXT
100
AcDbLine
 10
1.51315865376198
 20
1.259349728566463
 30
0.0
 11
1.441359687618073
 21
1.259349728566463
 31
0.0
  0
LINE
  5
7DE1B343D9D74B1
330
7DE1B343D9D7509
100
AcDbEntity
  8
TEXT
100
AcDbLine
 10
1.66065945039316
 20
1.259349728566463
 30
0.0
 11
1.630537537599784
 21
1.259349728566463
 31
0.0
  0
LINE
  5
7DE1B343D9D74B2
330
7DE1B343D9D7509
100
AcDbEntity
  8
TEXT
100
AcDbLine
 10
1.66065945039316
 20
1.327361206305274
 30
0.0
 11
1.66065945039316
 21
1.259349728566463
 31
0.0
  0
LINE
  5
7DE1B343D9D74B3
330
7DE1B343D9D7509
100
AcDbEntity
  8
TEXT
100
AcDbLine
 10
1.727468162959525
 20
1.327361206305274
 30
0.0
 11
1.66065945039316
 21
1.327361206305274
 31
0.0
  0
LWPOLYLINE
  5
7DE1B343D9D74B4
330
7DE1B343D9D7509
100
AcDbEntity
  8
TEXT
100
AcDbPolyline
 90
        3
 70
     0
 43
0.0
 10
2.047879922557527
 20
1.259349728566467
 10
1.929579763741483
 20
1.259349728566467
 10
1.929579763741483
 20
1.232182231805571
 42
-1.960274751411753
  0
LINE
  5
7DE1B343D9D74B9
330
7DE1B343D9D7509
100
AcDbEntity
  8
TEXT
100
AcDbLine
 10
1.893798073028321
 20
1.259349728566463
 30
0.0
 11
1.759780017097185
 21
1.259349728566463
 31
0.0
  0
LWPOLYLINE
  5
7DE1B343D9D74BA
330
7DE1B343D9D7509
100
AcDbEntity
  8
TEXT
100
AcDbPolyline
 90
        2
 70
     0
 43
0.0
 10
1.893798073028321
 20
1.259349728566467
 42
-0.3328679258950098
 10
1.929579763741483
 20
1.232182231805571
 42
6.772930709997214
  0
LINE
  5
7DE1B343D9D74BE
330
7DE1B343D9D7509
100
AcDbEntity
  8
TEXT
100
AcDbLine
 10
2.083661613270694
 20
1.259349728566463
 30
0.0
 11
2.083661613270694
 21
1.231027182796819
 31
0.0
  0
LWPOLYLINE
  5
7DE1B343D9D74BF
330
7DE1B343D9D7509
100
AcDbEntity
  8
TEXT
100
AcDbPolyline
 90
        2
 70
     0
 43
0.0
 10
2.047879922557527
 20
1.259349728566467
 42
-0.3277054968067132
 10
2.083661613270692
 20
1.231027182796823
 42
6.667889725900311
  0
LINE
  5
7DE1B343D9D74C3
330
7DE1B343D9D7509
100
AcDbEntity
  8
TEXT
100
AcDbLine
 10
2.297453461362794
 20
1.154137750013036
 30
0.0
 11
2.253702690180892
 21
1.236388026009181
 31
0.0
  0
LINE
  5
7DE1B343D9D74C4
330
7DE1B343D9D7509
100
AcDbEntity
  8
TEXT
100
AcDbLine
 10
2.297453461362794
 20
1.259349728566463
 30
0.0
 11
2.297453461362794
 21
1.154137750013036
 31
0.0
  0
LINE
  5
7DE1B343D9D74C5
330
7DE1B343D9D7509
100
AcDbEntity
  8
TEXT
100
AcDbLine
 10
2.525137200301163
 20
1.183484402154925
 30
0.0
 11
2.525137200301163
 21
1.324813934334064
 31
0.0
  0
LINE
  5
7DE1B343D9D74C6
330
7DE1B343D9D7509
100
AcDbEntity
  8
TEXT
100
AcDbLine
 10
2.572235358857148
 20
1.259349728566463
 30
0.0
 11
2.525137200301163
 21
1.183484402154925
 31
0.0
  0
LINE
  5
7DE1B343D9D74C7
330
7DE1B343D9D7509
100
AcDbEntity
  8
TEXT
100
AcDbLine
 10
2.58267007562107
 20
1.14945648562549
 30
0.0
 11
2.647227191586776
 21
1.259349728566463
 31
0.0
  0
LINE
  5
7DE1B343D9D74C8
330
7DE1B343D9D7509
100
AcDbEntity
  8
TEXT
100
AcDbLine
 10
2.46130220907839
 20
0.9928766955779526
 30
0.0
 11
2.52568039339701
 21
0.9928766955779526
 31
0.0
  0
LWPOLYLINE
  5
7DE1B343D9D74C9
330
7DE1B343D9D7509
100
AcDbEntity
  8
TEXT
100
AcDbPolyline
 90
        2
 70
     0
 43
0.0
 10
2.301393138667832
 20
1.03636764052839
 42
-0.2901071551932486
 10
2.258317205800187
 20
0.9928766955779526
 42
-5.328517124445184
  0
ARC
  5
7DE1B343D9D74CD
330
7DE1B343D9D7509
100
AcDbEntity
  8
TEXT
100
AcDbCircle
 10
2.189462624143273
 20
1.1667136589097
 30
0.0
 40
0.028359375
100
AcDbArc
 50
25.78218179591245
 51
90.0
  0
LINE
  5
7DE1B343D9D74CE
330
7DE1B343D9D7509
100
AcDbEntity
  8
TEXT
100
AcDbLine
 10
2.225263699447396
 20
1.157798060447565
 30
0.0
 11
2.214998939033832
 21
1.17904860002026
 31
0.0
  0
LINE
  5
7DE1B343D9D74CF
330
7DE1B343D9D7509
100
AcDbEntity
  8
TEXT
100
AcDbLine
 10
2.142975709664013
 20
1.157798060447565
 30
0.0
 11
2.225263699447396
 21
1.157798060447565
 31
0.0
  0
LWPOLYLINE
  5
7DE1B343D9D74D0
330
7DE1B343D9D7509
100
AcDbEntity
  8
TEXT
100
AcDbPolyline
 90
        4
 70
     1
 43
0.0
 10
2.238194740730295
 20
1.095840673561977
 10
2.149534422070436
 20
1.095840673561977
 42
0.9999999999999998
 10
2.149534422070436
 20
1.053442133058117
 10
2.238194740730295
 20
1.053442133058117
 42
1.0
  0
LWPOLYLINE
  5
7DE1B343D9D74D6
330
7DE1B343D9D7509
100
AcDbEntity
  8
TEXT
100
AcDbPolyline
 90
        2
 70
     0
 43
0.0
 10
2.124299788168811
 20
0.9928766955779526
 10
2.258317205800187
 20
0.9928766955779526
 42
0.9999999999999998
  0
LINE
  5
7DE1B343D9D74DA
330
7DE1B343D9D7509
100
AcDbEntity
  8
TEXT
100
AcDbLine
 10
2.384654227785827
 20
1.195073033909698
 30
0.0
 11
2.461302209078385
 21
1.195073033909698
 31
0.0
  0
LINE
  5
7DE1B343D9D74DB
330
7DE1B343D9D7509
100
AcDbEntity
  8
TEXT
100
AcDbLine
 10
2.461302209078385
 20
1.195073033909698
 30
0.0
 11
2.46130220907839
 21
0.9928766955779526
 31
0.0
  0
ARC
  5
7DE1B343D9D74DC
330
7DE1B343D9D7509
100
AcDbEntity
  8
TEXT
100
AcDbCircle
 10
2.384654227785825
 20
1.170167158627035
 30
0.0
 40
0.0249058752826653
100
AcDbArc
 50
89.99971217465335
 51
179.9999999999985
  0
LINE
  5
7DE1B343D9D74DD
330
7DE1B343D9D7509
100
AcDbEntity
  8
TEXT
100
AcDbLine
 10
2.359748352503168
 20
0.9928766955779526
 30
0.0
 11
2.359748352503162
 21
1.170167201009421
 31
0.0
  0
LWPOLYLINE
  5
7DE1B343D9D74DE
330
7DE1B343D9D7509
100
AcDbEntity
  8
TEXT
100
AcDbPolyline
 90
        2
 70
     0
 43
0.0
 10
2.301393138667832
 20
0.9928766955779526
 10
2.359748352503166
 20
0.9928766955779526
  0
LWPOLYLINE
  5
7DE1B343D9D74E2
330
7DE1B343D9D7509
100
AcDbEntity
  8
TEXT
100
AcDbPolyline
 90
        2
 70
     0
 43
0.0
 10
2.301393138667832
 20
1.03636764052839
 10
2.301393138667832
 20
0.9928766955779526
  0
LINE
  5
7DE1B343D9D74E6
330
7DE1B343D9D7509
100
AcDbEntity
  8
TEXT
100
AcDbLine
 10
2.678162298984681
 20
0.9928766955779526
 30
0.0
 11
2.58267007562107
 21
1.14945648562549
 31
0.0
  0
LINE
  5
7DE1B343D9D74E7
330
7DE1B343D9D7509
100
AcDbEntity
  8
TEXT
100
AcDbLine
 10
2.601583926608475
 20
0.9928766955779526
 30
0.0
 11
2.678162298984681
 21
0.9928766955779526
 31
0.0
  0
LINE
  5
7DE1B343D9D74E8
330
7DE1B343D9D7509
100
AcDbEntity
  8
TEXT
100
AcDbLine
 10
2.52568039339701
 20
1.124456264054132
 30
0.0
 11
2.601583926608475
 21
0.9928766955779526
 31
0.0
  0
LINE
  5
7DE1B343D9D74E9
330
7DE1B343D9D7509
100
AcDbEntity
  8
TEXT
100
AcDbLine
 10
2.52568039339701
 20
0.9928766955779526
 30
0.0
 11
2.52568039339701
 21
1.124456264054132
 31
0.0
  0
LINE
  5
7DE1B343D9D74EA
330
7DE1B343D9D7509
100
AcDbEntity
  8
TEXT
100
AcDbLine
 10
2.525137200301163
 20
1.324813934334064
 30
0.0
 11
2.45682232175189
 21
1.324813934334064
 31
0.0
  0
ARC
  5
7DE1B343D9D74EB
330
7DE1B343D9D7509
100
AcDbEntity
  8
TEXT
100
AcDbCircle
 10
2.216466582710684
 20
1.217766161445561
 30
0.0
 40
0.0416329381542859
100
AcDbArc
 50
26.56974201007528
 51
87.20939649401342
  0
LINE
  5
7DE1B343D9D74EC
330
7DE1B343D9D7509
100
AcDbEntity
  8
TEXT
100
AcDbLine
 10
2.361350367662295
 20
1.259349728566463
 30
0.0
 11
2.297453461362794
 21
1.259349728566463
 31
0.0
  0
LINE
  5
7DE1B343D9D74ED
330
7DE1B343D9D7509
100
AcDbEntity
  8
TEXT
100
AcDbLine
 10
2.361350367662295
 20
1.231802078705588
 30
0.0
 11
2.361350367662295
 21
1.259349728566463
 31
0.0
  0
ARC
  5
7DE1B343D9D74EE
330
7DE1B343D9D7509
100
AcDbEntity
  8
TEXT
100
AcDbCircle
 10
2.392543184725403
 20
1.228104001284198
 30
0.0
 40
0.0314112657011332
100
AcDbArc
 50
95.88484768694724
 51
173.2388340632136
  0
LINE
  5
7DE1B343D9D74EF
330
7DE1B343D9D7509
100
AcDbEntity
  8
TEXT
100
AcDbLine
 10
2.456822321751884
 20
1.259349728566463
 30
0.0
 11
2.389322604102368
 21
1.259349728566463
 31
0.0
  0
LINE
  5
7DE1B343D9D74F0
330
7DE1B343D9D7509
100
AcDbEntity
  8
TEXT
100
AcDbLine
 10
2.45682232175189
 20
1.324813934334064
 30
0.0
 11
2.456822321751884
 21
1.259349728566463
 31
0.0
  0
LINE
  5
7DE1B343D9D74F1
330
7DE1B343D9D7509
100
AcDbEntity
  8
TEXT
100
AcDbLine
 10
2.647227191586776
 20
1.259349728566463
 30
0.0
 11
2.572235358857149
 21
1.259349728566463
 31
0.0
  0
ENDSEC
  0
SECTION
  2
OBJECTS
  0
DICTIONARY
  5
7DE1B343D9D74FD
330
0
100
AcDbDictionary
  3
ACAD_GROUP
350
7DE1B343D9D74FE
  3
ACAD_LAYOUT
350
7DE1B343D9D7523
  3
ACAD_MLINESTYLE
350
7DE1B343D9D74FF
  3
ACAD_PLOTSETTINGS
350
7DE1B343D9D7524
  3
ACAD_PLOTSTYLENAME
350
7DE1B343D9D7521
  3
ACDBHEADERROUNDTRIPXREC
350
7DE1B343D9D752E
  3
ACDBVARIABLEDICTIONARY
350
7DE1B343D9D752B
  0
DICTIONARY
  5
7DE1B343D9D7550
330
7DE1B343D9D7509
100
AcDbDictionary
280
     1
  3
ACAD_LAYOUTSELFREF
360
7DE1B343D9D7551
  0
DICTIONARY
  5
7DE1B343D9D754E
330
7DE1B343D9D7506
100
AcDbDictionary
280
     1
  3
ACAD_LAYOUTSELFREF
360
7DE1B343D9D754F
  0
DICTIONARY
  5
7DE1B343D9D74FE
102
{ACAD_REACTORS
330
7DE1B343D9D74FD
102
}
330
7DE1B343D9D74FD
100
AcDbDictionary
  0
DICTIONARY
  5
7DE1B343D9D7523
102
{ACAD_REACTORS
330
7DE1B343D9D74FD
102
}
330
7DE1B343D9D74FD
100
AcDbDictionary
  0
DICTIONARY
  5
7DE1B343D9D74FF
102
{ACAD_REACTORS
330
7DE1B343D9D74FD
102
}
330
7DE1B343D9D74FD
100
AcDbDictionary
  3
STANDARD
350
7DE1B343D9D750C
  0
DICTIONARY
  5
7DE1B343D9D7524
102
{ACAD_REACTORS
330
7DE1B343D9D74FD
102
}
330
7DE1B343D9D74FD
100
AcDbDictionary
  0
ACDBDICTIONARYWDFLT
  5
7DE1B343D9D7521
102
{ACAD_REACTORS
330
7DE1B343D9D74FD
102
}
330
7DE1B343D9D74FD
100
AcDbDictionary
281
     1
  3
Normal
350
7DE1B343D9D7522
100
AcDbDictionaryWithDefault
340
7DE1B343D9D7522
  0
DICTIONARY
  5
7DE1B343D9D752E
102
{ACAD_REACTORS
330
7DE1B343D9D74FD
102
}
330
7DE1B343D9D74FD
100
AcDbDictionary
  3
CEPSNTYPE
350
7DE1B343D9D7538
  3
FINGERPRINTGUID
350
7DE1B343D9D7539
  3
HYPERLINKBASE
350
7DE1B343D9D7531
  3
INSUNITS
350
7DE1B343D9D7537
  3
LAYOUTDICT
350
7DE1B343D9D7533
  3
LWETCUNION
350
7DE1B343D9D7536
  3
PLOTSETDICT
350
7DE1B343D9D7534
  3
PLOTSTYLNAMDICT
350
7DE1B343D9D7535
  3
PSVPSCALE
350
7DE1B343D9D753B
  3
PUCSBASE
350
7DE1B343D9D753E
  3
PUCSORGBACK
350
7DE1B343D9D7544
  3
PUCSORGBOTTOM
350
7DE1B343D9D7540
  3
PUCSORGFRONT
350
7DE1B343D9D7543
  3
PUCSORGLEFT
350
7DE1B343D9D7541
  3
PUCSORGRIGHT
350
7DE1B343D9D7542
  3
PUCSORGTOP
350
7DE1B343D9D753F
  3
PUCSORTHOREF
350
7DE1B343D9D753C
  3
PUCSORTHOVIEW
350
7DE1B343D9D753D
  3
STYLESHEET
350
7DE1B343D9D7532
  3
TSTACKALIGN
350
7DE1B343D9D752F
  3
TSTACKSIZE
350
7DE1B343D9D7530
  3
UCSBASE
350
7DE1B343D9D7547
  3
UCSORGBACK
350
7DE1B343D9D754D
  3
UCSORGBOTTOM
350
7DE1B343D9D7549
  3
UCSORGFRONT
350
7DE1B343D9D754C
  3
UCSORGLEFT
350
7DE1B343D9D754A
  3
UCSORGRIGHT
350
7DE1B343D9D754B
  3
UCSORGTOP
350
7DE1B343D9D7548
  3
UCSORTHOREF
350
7DE1B343D9D7545
  3
UCSORTHOVIEW
350
7DE1B343D9D7546
  3
VERSIONGUID
350
7DE1B343D9D753A
  0
DICTIONARY
  5
7DE1B343D9D752B
102
{ACAD_REACTORS
330
7DE1B343D9D74FD
102
}
330
7DE1B343D9D74FD
100
AcDbDictionary
  3
DIMASSOC
350
7DE1B343D9D752C
  0
XRECORD
  5
7DE1B343D9D7551
102
{ACAD_REACTORS
330
7DE1B343D9D7550
102
}
330
7DE1B343D9D7550
100
AcDbXrecord
340
7DE1B343D9D7509
  0
XRECORD
  5
7DE1B343D9D754F
102
{ACAD_REACTORS
330
7DE1B343D9D754E
102
}
330
7DE1B343D9D754E
100
AcDbXrecord
340
7DE1B343D9D7506
  0
MLINESTYLE
  5
7DE1B343D9D750C
102
{ACAD_REACTORS
330
7DE1B343D9D74FF
102
}
330
7DE1B343D9D74FF
100
AcDbMlineStyle
  2
STANDARD
 70
     0
  3

 62
     0
 51
90.0
 52
90.0
 71
     2
 49
0.5
 62
   256
  6
BYLAYER
 49
-0.5
 62
   256
  6
BYLAYER
  0
ACDBPLACEHOLDER
  5
7DE1B343D9D7522
102
{ACAD_REACTORS
330
7DE1B343D9D7521
102
}
330
7DE1B343D9D7521
100
AcDbPlaceHolder
280
     0
  0
XRECORD
  5
7DE1B343D9D7538
102
{ACAD_REACTORS
330
7DE1B343D9D752E
102
}
330
7DE1B343D9D752E
100
AcDbXrecord
 90
        0
  0
XRECORD
  5
7DE1B343D9D7539
102
{ACAD_REACTORS
330
7DE1B343D9D752E
102
}
330
7DE1B343D9D752E
100
AcDbXrecord
  1
{D90673B0-8DB4-11D6-88E6-0090279574E7}
  0
XRECORD
  5
7DE1B343D9D7531
102
{ACAD_REACTORS
330
7DE1B343D9D752E
102
}
330
7DE1B343D9D752E
100
AcDbXrecord
  1

  0
XRECORD
  5
7DE1B343D9D7537
102
{ACAD_REACTORS
330
7DE1B343D9D752E
102
}
330
7DE1B343D9D752E
100
AcDbXrecord
 90
        0
  0
XRECORD
  5
7DE1B343D9D7533
102
{ACAD_REACTORS
330
7DE1B343D9D752E
102
}
330
7DE1B343D9D752E
100
AcDbXrecord
340
7DE1B343D9D7523
  0
XRECORD
  5
7DE1B343D9D7536
102
{ACAD_REACTORS
330
7DE1B343D9D752E
102
}
330
7DE1B343D9D752E
100
AcDbXrecord
 90
    14877
  0
XRECORD
  5
7DE1B343D9D7534
102
{ACAD_REACTORS
330
7DE1B343D9D752E
102
}
330
7DE1B343D9D752E
100
AcDbXrecord
340
7DE1B343D9D7524
  0
XRECORD
  5
7DE1B343D9D7535
102
{ACAD_REACTORS
330
7DE1B343D9D752E
102
}
330
7DE1B343D9D752E
100
AcDbXrecord
340
7DE1B343D9D7521
  0
XRECORD
  5
7DE1B343D9D753B
102
{ACAD_REACTORS
330
7DE1B343D9D752E
102
}
330
7DE1B343D9D752E
100
AcDbXrecord
 40
0.0
  0
XRECORD
  5
7DE1B343D9D753E
102
{ACAD_REACTORS
330
7DE1B343D9D752E
102
}
330
7DE1B343D9D752E
100
AcDbXrecord
340
0
  0
XRECORD
  5
7DE1B343D9D7544
102
{ACAD_REACTORS
330
7DE1B343D9D752E
102
}
330
7DE1B343D9D752E
100
AcDbXrecord
 10
0.0
 20
0.0
 30
0.0
  0
XRECORD
  5
7DE1B343D9D7540
102
{ACAD_REACTORS
330
7DE1B343D9D752E
102
}
330
7DE1B343D9D752E
100
AcDbXrecord
 10
0.0
 20
0.0
 30
0.0
  0
XRECORD
  5
7DE1B343D9D7543
102
{ACAD_REACTORS
330
7DE1B343D9D752E
102
}
330
7DE1B343D9D752E
100
AcDbXrecord
 10
0.0
 20
0.0
 30
0.0
  0
XRECORD
  5
7DE1B343D9D7541
102
{ACAD_REACTORS
330
7DE1B343D9D752E
102
}
330
7DE1B343D9D752E
100
AcDbXrecord
 10
0.0
 20
0.0
 30
0.0
  0
XRECORD
  5
7DE1B343D9D7542
102
{ACAD_REACTORS
330
7DE1B343D9D752E
102
}
330
7DE1B343D9D752E
100
AcDbXrecord
 10
0.0
 20
0.0
 30
0.0
  0
XRECORD
  5
7DE1B343D9D753F
102
{ACAD_REACTORS
330
7DE1B343D9D752E
102
}
330
7DE1B343D9D752E
100
AcDbXrecord
 10
0.0
 20
0.0
 30
0.0
  0
XRECORD
  5
7DE1B343D9D753C
102
{ACAD_REACTORS
330
7DE1B343D9D752E
102
}
330
7DE1B343D9D752E
100
AcDbXrecord
340
0
  0
XRECORD
  5
7DE1B343D9D753D
102
{ACAD_REACTORS
330
7DE1B343D9D752E
102
}
330
7DE1B343D9D752E
100
AcDbXrecord
 70
     0
  0
XRECORD
  5
7DE1B343D9D7532
102
{ACAD_REACTORS
330
7DE1B343D9D752E
102
}
330
7DE1B343D9D752E
100
AcDbXrecord
  1

  0
XRECORD
  5
7DE1B343D9D752F
102
{ACAD_REACTORS
330
7DE1B343D9D752E
102
}
330
7DE1B343D9D752E
100
AcDbXrecord
 90
        1
  0
XRECORD
  5
7DE1B343D9D7530
102
{ACAD_REACTORS
330
7DE1B343D9D752E
102
}
330
7DE1B343D9D752E
100
AcDbXrecord
 90
       70
  0
XRECORD
  5
7DE1B343D9D7547
102
{ACAD_REACTORS
330
7DE1B343D9D752E
102
}
330
7DE1B343D9D752E
100
AcDbXrecord
340
0
  0
XRECORD
  5
7DE1B343D9D754D
102
{ACAD_REACTORS
330
7DE1B343D9D752E
102
}
330
7DE1B343D9D752E
100
AcDbXrecord
 10
0.0
 20
0.0
 30
0.0
  0
XRECORD
  5
7DE1B343D9D7549
102
{ACAD_REACTORS
330
7DE1B343D9D752E
102
}
330
7DE1B343D9D752E
100
AcDbXrecord
 10
0.0
 20
0.0
 30
0.0
  0
XRECORD
  5
7DE1B343D9D754C
102
{ACAD_REACTORS
330
7DE1B343D9D752E
102
}
330
7DE1B343D9D752E
100
AcDbXrecord
 10
0.0
 20
0.0
 30
0.0
  0
XRECORD
  5
7DE1B343D9D754A
102
{ACAD_REACTORS
330
7DE1B343D9D752E
102
}
330
7DE1B343D9D752E
100
AcDbXrecord
 10
0.0
 20
0.0
 30
0.0
  0
XRECORD
  5
7DE1B343D9D754B
102
{ACAD_REACTORS
330
7DE1B343D9D752E
102
}
330
7DE1B343D9D752E
100
AcDbXrecord
 10
0.0
 20
0.0
 30
0.0
  0
XRECORD
  5
7DE1B343D9D7548
102
{ACAD_REACTORS
330
7DE1B343D9D752E
102
}
330
7DE1B343D9D752E
100
AcDbXrecord
 10
0.0
 20
0.0
 30
0.0
  0
XRECORD
  5
7DE1B343D9D7545
102
{ACAD_REACTORS
330
7DE1B343D9D752E
102
}
330
7DE1B343D9D752E
100
AcDbXrecord
340
0
  0
XRECORD
  5
7DE1B343D9D7546
102
{ACAD_REACTORS
330
7DE1B343D9D752E
102
}
330
7DE1B343D9D752E
100
AcDbXrecord
 70
     0
  0
XRECORD
  5
7DE1B343D9D753A
102
{ACAD_REACTORS
330
7DE1B343D9D752E
102
}
330
7DE1B343D9D752E
100
AcDbXrecord
  1
{D90673B2-8DB4-11D6-88E6-0090279574E7}
  0
DICTIONARYVAR
  5
7DE1B343D9D752C
102
{ACAD_REACTORS
330
7DE1B343D9D752B
102
}
330
7DE1B343D9D752B
100
DictionaryVariables
280
     0
  1
1
  0
ENDSEC
  0
EOF
