  0
SECTION
  2
HEADER
  9
$ACADVER
  1
AC1014
  9
$ACADMAINTVER
 70
     9
  9
$DWGCODEPAGE
  3
ANSI_1252
  9
$INSBASE
 10
2.192073173075447
 20
1.812800880887878
 30
0.0
  9
$EXTMIN
 10
0.4694614877047576
 20
0.6373805014884675
 30
0.0
  9
$EXTMAX
 10
3.954680809451885
 20
2.263145968371477
 30
0.0
  9
$LIMMIN
 10
0.0
 20
0.0
  9
$LIMMAX
 10
18.0
 20
12.0
  9
$ORTHOMODE
 70
     0
  9
$REGENMODE
 70
     1
  9
$FILLMODE
 70
     1
  9
$QTEXTMODE
 70
     0
  9
$MIRRTEXT
 70
     0
  9
$DRAGMODE
 70
     2
  9
$LTSCALE
 40
1.0
  9
$OSMODE
 70
    39
  9
$ATTMODE
 70
     1
  9
$TEXTSIZE
 40
0.125
  9
$TRACEWID
 40
0.05
  9
$TEXTSTYLE
  7
ROMANS
  9
$CLAYER
  8
0
  9
$CELTYPE
  6
BYLAYER
  9
$CECOLOR
 62
   256
  9
$CELTSCALE
 40
1.0
  9
$DELOBJ
 70
     1
  9
$DISPSILH
 70
     1
  9
$DIMSCALE
 40
1.0
  9
$DIMASZ
 40
0.125
  9
$DIMEXO
 40
0.125
  9
$DIMDLI
 40
0.375
  9
$DIMRND
 40
0.0
  9
$DIMDLE
 40
0.0
  9
$DIMEXE
 40
0.125
  9
$DIMTP
 40
0.0
  9
$DIMTM
 40
0.0
  9
$DIMTXT
 40
0.125
  9
$DIMCEN
 40
-0.125
  9
$DIMTSZ
 40
0.0
  9
$DIMTOL
 70
     0
  9
$DIMLIM
 70
     0
  9
$DIMTIH
 70
     1
  9
$DIMTOH
 70
     1
  9
$DIMSE1
 70
     0
  9
$DIMSE2
 70
     0
  9
$DIMTAD
 70
     0
  9
$DIMZIN
 70
     4
  9
$DIMBLK
  1

  9
$DIMASO
 70
     1
  9
$DIMSHO
 70
     1
  9
$DIMPOST
  1

  9
$DIMAPOST
  1

  9
$DIMALT
 70
     0
  9
$DIMALTD
 70
     2
  9
$DIMALTF
 40
25.4
  9
$DIMLFAC
 40
1.0
  9
$DIMTOFL
 70
     0
  9
$DIMTVP
 40
0.0
  9
$DIMTIX
 70
     1
  9
$DIMSOXD
 70
     0
  9
$DIMSAH
 70
     0
  9
$DIMBLK1
  1

  9
$DIMBLK2
  1

  9
$DIMSTYLE
  2
STANDARD
  9
$DIMCLRD
 70
     0
  9
$DIMCLRE
 70
     0
  9
$DIMCLRT
 70
     0
  9
$DIMTFAC
 40
1.0
  9
$DIMGAP
 40
0.09
  9
$DIMJUST
 70
     0
  9
$DIMSD1
 70
     0
  9
$DIMSD2
 70
     0
  9
$DIMTOLJ
 70
     1
  9
$DIMTZIN
 70
     4
  9
$DIMALTZ
 70
     0
  9
$DIMALTTZ
 70
     0
  9
$DIMFIT
 70
     3
  9
$DIMUPT
 70
     0
  9
$DIMUNIT
 70
     2
  9
$DIMDEC
 70
     3
  9
$DIMTDEC
 70
     3
  9
$DIMALTU
 70
     2
  9
$DIMALTTD
 70
     2
  9
$DIMTXSTY
  7
ROMANS
  9
$DIMAUNIT
 70
     0
  9
$LUNITS
 70
     2
  9
$LUPREC
 70
     3
  9
$SKETCHINC
 40
0.1
  9
$FILLETRAD
 40
0.03125
  9
$AUNITS
 70
     0
  9
$AUPREC
 70
     0
  9
$MENU
  1
ACAD
  9
$ELEVATION
 40
0.0
  9
$PELEVATION
 40
0.0
  9
$THICKNESS
 40
0.0
  9
$LIMCHECK
 70
     0
  9
$BLIPMODE
 70
     0
  9
$CHAMFERA
 40
0.0
  9
$CHAMFERB
 40
0.0
  9
$CHAMFERC
 40
0.0
  9
$CHAMFERD
 40
0.0
  9
$SKPOLY
 70
     0
  9
$TDCREATE
 40
2448994.378144792
  9
$TDUPDATE
 40
2452458.299620162
  9
$TDINDWG
 40
0.0015834028
  9
$TDUSRTIMER
 40
0.0015834028
  9
$USRTIMER
 70
     1
  9
$ANGBASE
 50
0.0
  9
$ANGDIR
 70
     0
  9
$PDMODE
 70
     0
  9
$PDSIZE
 40
0.0
  9
$PLINEWID
 40
0.0
  9
$COORDS
 70
     2
  9
$SPLFRAME
 70
     0
  9
$SPLINETYPE
 70
     6
  9
$SPLINESEGS
 70
     8
  9
$ATTDIA
 70
     0
  9
$ATTREQ
 70
     1
  9
$HANDLING
 70
 22529
  9
$HANDSEED
  5
7DE1B343D9D6D4C
  9
$SURFTAB1
 70
     6
  9
$SURFTAB2
 70
     6
  9
$SURFTYPE
 70
     6
  9
$SURFU
 70
     6
  9
$SURFV
 70
     6
  9
$UCSNAME
  2

  9
$UCSORG
 10
0.0
 20
0.0
 30
0.0
  9
$UCSXDIR
 10
1.0
 20
0.0
 30
0.0
  9
$UCSYDIR
 10
0.0
 20
1.0
 30
0.0
  9
$PUCSNAME
  2

  9
$PUCSORG
 10
0.0
 20
0.0
 30
0.0
  9
$PUCSXDIR
 10
1.0
 20
0.0
 30
0.0
  9
$PUCSYDIR
 10
0.0
 20
1.0
 30
0.0
  9
$USERI1
 70
     0
  9
$USERI2
 70
     0
  9
$USERI3
 70
     0
  9
$USERI4
 70
     0
  9
$USERI5
 70
     0
  9
$USERR1
 40
0.0
  9
$USERR2
 40
0.0
  9
$USERR3
 40
0.0
  9
$USERR4
 40
0.0
  9
$USERR5
 40
0.0
  9
$WORLDVIEW
 70
     1
  9
$SHADEDGE
 70
     3
  9
$SHADEDIF
 70
    70
  9
$TILEMODE
 70
     1
  9
$MAXACTVP
 70
    16
  9
$PINSBASE
 10
0.7951950050390691
 20
50.00000000000001
 30
1.057926826824434
  9
$PLIMCHECK
 70
     0
  9
$PEXTMIN
 10
1.000000000000000E+20
 20
1.000000000000000E+20
 30
1.000000000000000E+20
  9
$PEXTMAX
 10
-1.000000000000000E+20
 20
-1.000000000000000E+20
 30
-1.000000000000000E+20
  9
$PLIMMIN
 10
0.0
 20
0.0
  9
$PLIMMAX
 10
12.0
 20
9.0
  9
$UNITMODE
 70
     0
  9
$VISRETAIN
 70
     0
  9
$PLINEGEN
 70
     1
  9
$PSLTSCALE
 70
     0
  9
$TREEDEPTH
 70
  3020
  9
$PICKSTYLE
 70
     1
  9
$CMLSTYLE
  2
STANDARD
  9
$CMLJUST
 70
     0
  9
$CMLSCALE
 40
1.0
  9
$PROXYGRAPHICS
 70
     1
  9
$MEASUREMENT
 70
     0
  0
ENDSEC
  0
SECTION
  2
CLASSES
  0
CLASS
  1
LWPOLYLINE
  2
AcDbPolyline
  3
AutoCAD 2000
 90
        0
280
     0
281
     1
  0
CLASS
  1
ACDBDICTIONARYWDFLT
  2
AcDbDictionaryWithDefault
  3
AutoCAD 2000
 90
        0
280
     0
281
     0
  0
CLASS
  1
ACDBPLACEHOLDER
  2
AcDbPlaceHolder
  3
AutoCAD 2000
 90
        0
280
     0
281
     0
  0
CLASS
  1
LAYOUT
  2
AcDbLayout
  3
AutoCAD 2000
 90
        0
280
     0
281
     0
  0
CLASS
  1
DICTIONARYVAR
  2
AcDbDictionaryVar
  3
AutoCAD 2000
 90
        0
280
     0
281
     0
  0
CLASS
  1
LONG_TRANSACTION
  2
AcDbLongTransaction
  3
AutoCAD 2000
 90
        0
280
     0
281
     0
  0
CLASS
  1
LWPOLYLINE
  2
AcDbPolyline
  3
AutoCAD 2000
 90
        0
280
     0
281
     1
  0
CLASS
  1
HATCH
  2
AcDbHatch
  3
AutoCAD 2000
 90
        0
280
     0
281
     1
  0
CLASS
  1
XRECORD
  2
AcDbXrecord
  3
AutoCAD 2000
 90
        0
280
     0
281
     0
  0
ENDSEC
  0
SECTION
  2
TABLES
  0
TABLE
  2
VPORT
  5
7DE1B343D9D6CF3
330
0
100
AcDbSymbolTable
 70
     2
  0
VPORT
  5
7DE1B343D9D6D27
330
7DE1B343D9D6CF3
100
AcDbSymbolTableRecord
100
AcDbViewportTableRecord
  2
*ACTIVE
 70
     0
 10
0.0
 20
0.0
 11
1.0
 21
1.0
 12
5.188845478319881
 22
1.450286887877489
 13
0.0
 23
0.0
 14
0.015625
 24
0.015625
 15
0.0
 25
0.0
 16
0.0
 26
0.0
 36
1.0
 17
0.0
 27
0.0
 37
0.0
 40
2.282647215150728
 41
4.320930232558139
 42
50.0
 43
0.0
 44
0.0
 50
0.0
 51
0.0
 71
     0
 72
  2000
 73
     1
 74
     0
 75
     0
 76
     0
 77
     0
 78
     0
  0
ENDTAB
  0
TABLE
  2
LTYPE
  5
7DE1B343D9D6CF0
330
0
100
AcDbSymbolTable
 70
     1
  0
LTYPE
  5
7DE1B343D9D6CFD
330
7DE1B343D9D6CF0
100
AcDbSymbolTableRecord
100
AcDbLinetypeTableRecord
  2
BYBLOCK
 70
     0
  3

 72
    65
 73
     0
 40
0.0
  0
LTYPE
  5
7DE1B343D9D6CFE
330
7DE1B343D9D6CF0
100
AcDbSymbolTableRecord
100
AcDbLinetypeTableRecord
  2
BYLAYER
 70
     0
  3

 72
    65
 73
     0
 40
0.0
  0
LTYPE
  5
7DE1B343D9D6CFF
330
7DE1B343D9D6CF0
100
AcDbSymbolTableRecord
100
AcDbLinetypeTableRecord
  2
CONTINUOUS
 70
     0
  3
Solid line
 72
    65
 73
     0
 40
0.0
  0
ENDTAB
  0
TABLE
  2
LAYER
  5
7DE1B343D9D6CED
330
0
100
AcDbSymbolTable
 70
     2
  0
LAYER
  5
7DE1B343D9D6CFA
330
7DE1B343D9D6CED
100
AcDbSymbolTableRecord
100
AcDbLayerTableRecord
  2
0
 70
     0
 62
     7
  6
CONTINUOUS
  0
LAYER
  5
7DE1B343D9D6D0A
330
7DE1B343D9D6CED
100
AcDbSymbolTableRecord
100
AcDbLayerTableRecord
  2
TEXT
 70
     0
 62
     3
  6
CONTINUOUS
  0
ENDTAB
  0
TABLE
  2
STYLE
  5
7DE1B343D9D6CEE
330
0
100
AcDbSymbolTable
 70
     3
  0
STYLE
  5
7DE1B343D9D6CFB
330
7DE1B343D9D6CEE
100
AcDbSymbolTableRecord
100
AcDbTextStyleTableRecord
  2
STANDARD
 70
     0
 40
0.0
 41
1.0
 50
0.0
 71
     0
 42
0.3125
  3
txt
  4

  0
STYLE
  5
7DE1B343D9D6D07
330
7DE1B343D9D6CEE
100
AcDbSymbolTableRecord
100
AcDbTextStyleTableRecord
  2
ITALICC
 70
     0
 40
0.0
 41
1.0
 50
0.0
 71
     0
 42
0.125
  3
italicc
  4

  0
STYLE
  5
7DE1B343D9D6D17
330
7DE1B343D9D6CEE
100
AcDbSymbolTableRecord
100
AcDbTextStyleTableRecord
  2
ROMANS
 70
     0
 40
0.0
 41
1.0
 50
0.0
 71
     0
 42
0.125
  3
romans.shx
  4

  0
ENDTAB
  0
TABLE
  2
VIEW
  5
7DE1B343D9D6CF1
330
0
100
AcDbSymbolTable
 70
     0
  0
ENDTAB
  0
TABLE
  2
UCS
  5
7DE1B343D9D6CF2
330
0
100
AcDbSymbolTable
 70
     0
  0
ENDTAB
  0
TABLE
  2
APPID
  5
7DE1B343D9D6CF4
330
0
100
AcDbSymbolTable
 70
     1
  0
APPID
  5
7DE1B343D9D6CFC
330
7DE1B343D9D6CF4
100
AcDbSymbolTableRecord
100
AcDbRegAppTableRecord
  2
ACAD
 70
     0
  0
ENDTAB
  0
TABLE
  2
DIMSTYLE
  5
7DE1B343D9D6CF5
330
0
100
AcDbSymbolTable
 70
     1
  0
DIMSTYLE
105
7DE1B343D9D6D0F
330
7DE1B343D9D6CF5
100
AcDbSymbolTableRecord
100
AcDbDimStyleTableRecord
  2
STANDARD
 70
     0
  3

  4

  5

  6

  7

 40
1.0
 41
0.125
 42
0.125
 43
0.375
 44
0.125
 45
0.0
 46
0.0
 47
0.0
 48
0.0
140
0.125
141
-0.125
142
0.0
143
25.4
144
1.0
145
0.0
146
1.0
147
0.09
 71
     0
 72
     0
 73
     1
 74
     1
 75
     0
 76
     0
 77
     0
 78
     4
170
     0
171
     2
172
     0
173
     0
174
     1
175
     0
176
     0
177
     0
178
     0
270
     2
271
     3
272
     3
273
     2
274
     2
340
7DE1B343D9D6D17
275
     0
280
     0
281
     0
282
     0
283
     1
284
     4
285
     0
286
     0
287
     3
288
     0
  0
ENDTAB
  0
TABLE
  2
BLOCK_RECORD
  5
7DE1B343D9D6CEC
330
0
100
AcDbSymbolTable
 70
     0
  0
BLOCK_RECORD
  5
7DE1B343D9D6D03
102
{ACAD_XDICTIONARY
360
7DE1B343D9D6D4A
102
}
330
7DE1B343D9D6CEC
100
AcDbSymbolTableRecord
100
AcDbBlockTableRecord
  2
*MODEL_SPACE
  0
BLOCK_RECORD
  5
7DE1B343D9D6D00
102
{ACAD_XDICTIONARY
360
7DE1B343D9D6D48
102
}
330
7DE1B343D9D6CEC
100
AcDbSymbolTableRecord
100
AcDbBlockTableRecord
  2
*PAPER_SPACE
  0
ENDTAB
  0
ENDSEC
  0
SECTION
  2
BLOCKS
  0
BLOCK
  5
7DE1B343D9D6D0D
330
7DE1B343D9D6D03
100
AcDbEntity
  8
0
100
AcDbBlockBegin
  2
*MODEL_SPACE
 70
     0
 10
0.0
 20
0.0
 30
0.0
  3
*MODEL_SPACE
  1

  0
ENDBLK
  5
7DE1B343D9D6D0E
330
7DE1B343D9D6D03
100
AcDbEntity
  8
0
100
AcDbBlockEnd
  0
BLOCK
  5
7DE1B343D9D6D0B
330
7DE1B343D9D6D00
100
AcDbEntity
 67
     1
  8
0
100
AcDbBlockBegin
  2
*PAPER_SPACE
 70
     0
 10
0.0
 20
0.0
 30
0.0
  3
*PAPER_SPACE
  1

  0
ENDBLK
  5
7DE1B343D9D6D0C
330
7DE1B343D9D6D00
100
AcDbEntity
 67
     1
  8
0
100
AcDbBlockEnd
  0
ENDSEC
  0
SECTION
  2
ENTITIES
  0
LWPOLYLINE
  5
7DE1B343D9D5886
330
7DE1B343D9D6D03
100
AcDbEntity
  8
0
100
AcDbPolyline
 90
       25
 70
     1
 43
0.0
 10
2.75055281746998
 20
1.748042381698108
 10
2.320123885281845
 20
1.748042381698108
 10
2.31305281746998
 20
1.755113449509973
 10
2.305981749658114
 20
1.748042381698108
 10
2.18805281746998
 20
1.748042381698108
 10
2.18805281746998
 20
1.357417381698108
 10
2.039028185577854
 20
1.357417381698108
 42
-0.5205670505517479
 10
2.023993103645279
 20
1.378889703991319
 10
2.112857410946939
 20
1.623042381698108
 10
2.125552817469979
 20
1.623042381698108
 10
2.12555281746998
 20
1.810542381698108
 10
1.73492781746998
 20
1.810542381698108
 10
1.73492781746998
 20
1.388667381698108
 42
-0.4142135623730951
 10
1.70367781746998
 20
1.357417381698108
 10
1.67242781746998
 20
1.357417381698108
 10
1.67242781746998
 20
2.216792381698106
 42
-0.4142135623730951
 10
1.70367781746998
 20
2.248042381698106
 10
1.757068360528444
 20
2.248042381698106
 42
-0.1826758136815995
 10
1.92242781746998
 20
2.185542381698106
 10
1.76617781746998
 20
2.185542381698106
 42
0.4142135623730951
 10
1.73492781746998
 20
2.154292381698106
 10
1.73492781746998
 20
1.889042381698108
 42
0.4142135623730951
 10
1.75092781746998
 20
1.873042381698108
 10
2.73455281746998
 20
1.873042381698108
 42
-0.4142135623730951
 10
2.75055281746998
 20
1.857042381698108
  0
TEXT
  5
7DE1B343D9D6BAE
330
7DE1B343D9D6D03
100
AcDbEntity
  8
TEXT
100
AcDbText
 10
1.45946687645571
 20
1.095399105571049
 30
0.0
 40
0.125
  1
PART #110192
  7
ITALICC
 72
     1
 11
2.2124430669319
 21
1.095399105571049
 31
0.0
100
AcDbText
  0
TEXT
  5
7DE1B343D9D6BAF
330
7DE1B343D9D6D03
100
AcDbEntity
  8
TEXT
100
AcDbText
 10
2.625748225182221
 20
0.6484764628986739
 30
0.0
 40
0.0522247191011236
  1
Phone  1-800-328-2495
 41
1.272321428571429
 72
     5
 11
3.954680809451885
 21
0.6484764628986739
 31
0.0
100
AcDbText
  0
TEXT
  5
7DE1B343D9D6BB0
330
7DE1B343D9D6D03
100
AcDbEntity
  8
TEXT
100
AcDbText
 10
2.625748225182221
 20
0.9282517437975503
 30
0.0
 40
0.0522247191011236
  1
Stylmark  Incorporated
 41
1.221428571428573
 72
     5
 11
3.954680809451885
 21
0.9282517437975503
 31
0.0
100
AcDbText
  0
TEXT
  5
7DE1B343D9D6BB1
330
7DE1B343D9D6D03
100
AcDbEntity
  8
TEXT
100
AcDbText
 10
2.625748225182221
 20
0.8349933168312581
 30
0.0
 40
0.0522247191011236
  1
6536 Main St. N.E. * P.O. Box 32008
 41
0.8388932496075366
 72
     5
 11
3.954680809451885
 21
0.8349933168312581
 31
0.0
100
AcDbText
  0
TEXT
  5
7DE1B343D9D6BB2
330
7DE1B343D9D6D03
100
AcDbEntity
  8
TEXT
100
AcDbText
 10
2.625748225182221
 20
0.741734889864966
 30
0.0
 40
0.0522247191011236
  1
Minneapolis, MN 55432-0008
 41
1.11444212721585
 72
     5
 11
3.954680809451885
 21
0.741734889864966
 31
0.0
100
AcDbText
  0
LWPOLYLINE
  5
7DE1B343D9D6BB3
330
7DE1B343D9D6D03
100
AcDbEntity
  8
TEXT
100
AcDbPolyline
 90
        3
 70
     0
 43
0.0006660908203125
 10
0.4697945331149139
 20
0.7621212255361087
 10
0.4697945331149139
 20
0.6488857860829811
 10
0.5830299725680362
 20
0.6488857860829811
  0
LWPOLYLINE
  5
7DE1B343D9D6BB8
330
7DE1B343D9D6D03
100
AcDbEntity
  8
TEXT
100
AcDbPolyline
 90
        3
 70
     0
 43
0.0006660908203125
 10
0.4964381659274113
 20
0.7621212255361087
 10
0.4964381659274113
 20
0.6755294188954821
 10
0.5830299725680362
 20
0.6755294188954821
  0
LWPOLYLINE
  5
7DE1B343D9D6BBD
330
7DE1B343D9D6D03
100
AcDbEntity
  8
TEXT
100
AcDbPolyline
 90
        2
 70
     0
 43
0.0001332181640625
 10
0.5430645233492882
 20
0.7721125878407939
 10
0.4697945331149139
 20
0.7621212255361087
  0
LWPOLYLINE
  5
7DE1B343D9D6BC1
330
7DE1B343D9D6D03
100
AcDbEntity
  8
TEXT
100
AcDbPolyline
 90
        2
 70
     0
 43
0.0001332181640625
 10
0.4964381659274113
 20
0.7621212255361087
 10
0.5563863397555387
 20
0.7721125878407939
  0
LWPOLYLINE
  5
7DE1B343D9D6BC5
330
7DE1B343D9D6D03
100
AcDbEntity
  8
TEXT
100
AcDbPolyline
 90
        2
 70
     0
 43
0.0001332181640625
 10
0.4964381659274113
 20
0.6755294188954821
 10
0.5563863397555387
 20
0.7354775927236077
  0
LWPOLYLINE
  5
7DE1B343D9D6BC9
330
7DE1B343D9D6D03
100
AcDbEntity
  8
TEXT
100
AcDbPolyline
 90
        3
 70
     0
 43
0.0006660908203125
 10
0.5830299725680362
 20
0.9153221142079843
 10
0.4697945331149139
 20
0.9153221142079843
 10
0.4697945331149139
 20
0.8020866747548566
  0
LWPOLYLINE
  5
7DE1B343D9D6BCE
330
7DE1B343D9D6D03
100
AcDbEntity
  8
TEXT
100
AcDbPolyline
 90
        3
 70
     0
 43
0.0006660908203125
 10
0.5830299725680362
 20
0.8886784813954832
 10
0.4964381659274113
 20
0.8886784813954832
 10
0.4964381659274113
 20
0.8020866747548566
  0
LWPOLYLINE
  5
7DE1B343D9D6BD3
330
7DE1B343D9D6D03
100
AcDbEntity
  8
TEXT
100
AcDbPolyline
 90
        2
 70
     0
 43
0.0001332181640625
 10
0.4964381659274113
 20
0.8886784813954832
 10
0.5563863397555369
 20
0.8287303075673577
  0
LWPOLYLINE
  5
7DE1B343D9D6BD7
330
7DE1B343D9D6D03
100
AcDbEntity
  8
TEXT
100
AcDbPolyline
 90
        2
 70
     0
 43
0.0001332181640625
 10
0.4964381659274113
 20
0.8020866747548566
 10
0.5563863397555369
 20
0.7920953124501679
  0
LWPOLYLINE
  5
7DE1B343D9D6BDB
330
7DE1B343D9D6D03
100
AcDbEntity
  8
TEXT
100
AcDbPolyline
 90
        2
 70
     0
 43
0.0001332181640625
 10
0.4697945331149139
 20
0.8020866747548566
 10
0.5430645233492882
 20
0.7920953124501679
  0
LWPOLYLINE
  5
7DE1B343D9D6BDF
330
7DE1B343D9D6D03
100
AcDbEntity
  8
TEXT
100
AcDbPolyline
 90
        2
 70
     0
 43
0.0006660908203125
 10
0.4964381659274113
 20
0.7621212255361087
 10
0.4697945331149139
 20
0.7621212255361087
  0
LWPOLYLINE
  5
7DE1B343D9D6BE3
330
7DE1B343D9D6D03
100
AcDbEntity
  8
TEXT
100
AcDbPolyline
 90
        2
 70
     0
 43
0.0006660908203125
 10
0.4964381659274113
 20
0.8020866747548566
 10
0.4697945331149139
 20
0.8020866747548566
  0
LINE
  5
7DE1B343D9D6BE7
330
7DE1B343D9D6D03
100
AcDbEntity
  8
TEXT
100
AcDbLine
 10
1.984984962241411
 20
0.8510454195512153
 30
0.0
 11
1.877778688854121
 21
0.8510454195512153
 31
0.0
  0
LINE
  5
7DE1B343D9D6BE8
330
7DE1B343D9D6D03
100
AcDbEntity
  8
TEXT
100
AcDbLine
 10
2.014015860585889
 20
0.9153221142079807
 30
0.0
 11
1.87918395136883
 21
0.9153221142079807
 31
0.0
  0
ARC
  5
7DE1B343D9D6BE9
330
7DE1B343D9D6D03
100
AcDbEntity
  8
TEXT
100
AcDbCircle
 10
1.938498047762147
 20
0.7460848649449645
 30
0.0
 40
0.0676855811441166
100
AcDbArc
 50
90.0
 51
153.7768192527749
  0
LWPOLYLINE
  5
7DE1B343D9D6BEA
330
7DE1B343D9D6D03
100
AcDbEntity
  8
TEXT
100
AcDbPolyline
 90
        2
 70
     0
 43
0.0
 10
1.876746193399311
 20
0.692340026169908
 42
0.2901071551932823
 10
1.919822126266947
 20
0.6488490812194698
 42
5.328517124445801
  0
ARC
  5
7DE1B343D9D6BEE
330
7DE1B343D9D6D03
100
AcDbEntity
  8
TEXT
100
AcDbCircle
 10
1.233366670090661
 20
0.7086414725575196
 30
0.0
 40
0.0601160179737537
100
AcDbArc
 50
180.0000000000003
 51
264.0521544866073
  0
LINE
  5
7DE1B343D9D6BEF
330
7DE1B343D9D6D03
100
AcDbEntity
  8
TEXT
100
AcDbLine
 10
1.236882025716209
 20
0.9497100318021189
 30
0.0
 11
1.176839420872202
 21
0.9497100318021189
 31
0.0
  0
ARC
  5
7DE1B343D9D6BF0
330
7DE1B343D9D6D03
100
AcDbEntity
  8
TEXT
100
AcDbCircle
 10
1.001107667973691
 20
0.833234654761479
 30
0.0
 40
0.0820874594465043
100
AcDbArc
 50
90.0
 51
270.0
  0
LWPOLYLINE
  5
7DE1B343D9D6BF1
330
7DE1B343D9D6D03
100
AcDbEntity
  8
TEXT
100
AcDbPolyline
 90
        2
 70
     0
 43
0.0001332181640625
 10
0.5930213348727267
 20
0.8420521239736046
 10
0.5830299725680362
 20
0.9153221142079843
  0
LWPOLYLINE
  5
7DE1B343D9D6BF5
330
7DE1B343D9D6D03
100
AcDbEntity
  8
TEXT
100
AcDbPolyline
 90
        2
 70
     0
 43
0.0001332181640625
 10
0.5830299725680362
 20
0.8886784813954832
 10
0.5930213348727267
 20
0.8287303075673577
  0
LWPOLYLINE
  5
7DE1B343D9D6BF9
330
7DE1B343D9D6D03
100
AcDbEntity
  8
TEXT
100
AcDbPolyline
 90
        3
 70
     0
 43
0.0006660908203125
 10
0.7362308612399136
 20
0.8020866747548566
 10
0.7362308612399136
 20
0.9153221142079843
 10
0.6229954217867877
 20
0.9153221142079843
  0
LWPOLYLINE
  5
7DE1B343D9D6BFE
330
7DE1B343D9D6D03
100
AcDbEntity
  8
TEXT
100
AcDbPolyline
 90
        3
 70
     0
 43
0.0006660908203125
 10
0.7095872284274125
 20
0.8020866747548566
 10
0.7095872284274125
 20
0.8886784813954832
 10
0.6229954217867877
 20
0.8886784813954832
  0
LWPOLYLINE
  5
7DE1B343D9D6C03
330
7DE1B343D9D6D03
100
AcDbEntity
  8
TEXT
100
AcDbPolyline
 90
        2
 70
     0
 43
0.0001332181640625
 10
0.7095872284274125
 20
0.8886784813954832
 10
0.6496390545992888
 20
0.8287303075673577
  0
LWPOLYLINE
  5
7DE1B343D9D6C07
330
7DE1B343D9D6D03
100
AcDbEntity
  8
TEXT
100
AcDbPolyline
 90
        2
 70
     0
 43
0.0001332181640625
 10
0.6229954217867877
 20
0.8886784813954832
 10
0.6130040594820989
 20
0.8287303075673577
  0
LWPOLYLINE
  5
7DE1B343D9D6C0B
330
7DE1B343D9D6D03
100
AcDbEntity
  8
TEXT
100
AcDbPolyline
 90
        2
 70
     0
 43
0.0001332181640625
 10
0.6229954217867877
 20
0.9153221142079843
 10
0.6130040594820989
 20
0.8420521239736046
  0
LWPOLYLINE
  5
7DE1B343D9D6C0F
330
7DE1B343D9D6D03
100
AcDbEntity
  8
TEXT
100
AcDbPolyline
 90
        2
 70
     0
 43
0.0001332181640625
 10
0.6629608710055375
 20
0.7920953124501679
 10
0.7362308612399136
 20
0.8020866747548566
  0
LWPOLYLINE
  5
7DE1B343D9D6C13
330
7DE1B343D9D6D03
100
AcDbEntity
  8
TEXT
100
AcDbPolyline
 90
        2
 70
     0
 43
0.0001332181640625
 10
0.7095872284274125
 20
0.8020866747548566
 10
0.6496390545992888
 20
0.7920953124501679
  0
LWPOLYLINE
  5
7DE1B343D9D6C17
330
7DE1B343D9D6D03
100
AcDbEntity
  8
TEXT
100
AcDbPolyline
 90
        2
 70
     0
 43
0.0001332181640625
 10
0.7362308612399136
 20
0.7621212255361087
 10
0.6629608710055375
 20
0.7721125878407939
  0
LWPOLYLINE
  5
7DE1B343D9D6C1B
330
7DE1B343D9D6D03
100
AcDbEntity
  8
TEXT
100
AcDbPolyline
 90
        2
 70
     0
 43
0.0001332181640625
 10
0.7095872284274125
 20
0.7621212255361087
 10
0.6496390545992888
 20
0.7721125878407939
  0
LWPOLYLINE
  5
7DE1B343D9D6C1F
330
7DE1B343D9D6D03
100
AcDbEntity
  8
TEXT
100
AcDbPolyline
 90
        2
 70
     0
 43
0.0001332181640625
 10
0.7095872284274125
 20
0.6755294188954821
 10
0.6496390545992888
 20
0.7354775927236077
  0
LWPOLYLINE
  5
7DE1B343D9D6C23
330
7DE1B343D9D6D03
100
AcDbEntity
  8
TEXT
100
AcDbPolyline
 90
        3
 70
     0
 43
0.0006660908203125
 10
0.6229954217867877
 20
0.6755294188954821
 10
0.7095872284274125
 20
0.6755294188954821
 10
0.7095872284274125
 20
0.7621212255361087
  0
LWPOLYLINE
  5
7DE1B343D9D6C28
330
7DE1B343D9D6D03
100
AcDbEntity
  8
TEXT
100
AcDbPolyline
 90
        3
 70
     0
 43
0.0006660908203125
 10
0.6229954217867877
 20
0.6488857860829811
 10
0.7362308612399136
 20
0.6488857860829811
 10
0.7362308612399136
 20
0.7621212255361087
  0
LWPOLYLINE
  5
7DE1B343D9D6C2D
330
7DE1B343D9D6D03
100
AcDbEntity
  8
TEXT
100
AcDbPolyline
 90
        5
 70
     0
 43
0.0001332181640625
 10
0.5930213348727267
 20
0.7221557763173572
 10
0.5930213348727267
 20
0.7354775927236077
 10
0.5563863397555387
 20
0.7354775927236077
 10
0.5563863397555387
 20
0.7721125878407939
 10
0.5430645233492882
 20
0.7721125878407939
  0
LWPOLYLINE
  5
7DE1B343D9D6C34
330
7DE1B343D9D6D03
100
AcDbEntity
  8
TEXT
100
AcDbPolyline
 90
        2
 70
     0
 43
0.0006660908203125
 10
0.5830299725680362
 20
0.6755294188954821
 10
0.5830299725680362
 20
0.6488857860829811
  0
LWPOLYLINE
  5
7DE1B343D9D6C38
330
7DE1B343D9D6D03
100
AcDbEntity
  8
TEXT
100
AcDbPolyline
 90
        2
 70
     0
 43
0.0001332181640625
 10
0.5830299725680362
 20
0.6755294188954821
 10
0.5930213348727267
 20
0.7354775927236077
  0
LWPOLYLINE
  5
7DE1B343D9D6C3C
330
7DE1B343D9D6D03
100
AcDbEntity
  8
TEXT
100
AcDbPolyline
 90
        2
 70
     0
 43
0.0001332181640625
 10
0.5830299725680362
 20
0.6488857860829811
 10
0.5930213348727267
 20
0.7221557763173572
  0
LWPOLYLINE
  5
7DE1B343D9D6C40
330
7DE1B343D9D6D03
100
AcDbEntity
  8
TEXT
100
AcDbPolyline
 90
        5
 70
     0
 43
0.0001332181640625
 10
0.5430645233492882
 20
0.7920953124501679
 10
0.5563863397555369
 20
0.7920953124501679
 10
0.5563863397555369
 20
0.8287303075673577
 10
0.5930213348727267
 20
0.8287303075673577
 10
0.5930213348727267
 20
0.8420521239736046
  0
LWPOLYLINE
  5
7DE1B343D9D6C47
330
7DE1B343D9D6D03
100
AcDbEntity
  8
TEXT
100
AcDbPolyline
 90
        5
 70
     0
 43
0.0001332181640625
 10
0.6130040594820989
 20
0.8420521239736046
 10
0.6130040594820989
 20
0.8287303075673577
 10
0.6496390545992888
 20
0.8287303075673577
 10
0.6496390545992888
 20
0.7920953124501679
 10
0.6629608710055375
 20
0.7920953124501679
  0
LWPOLYLINE
  5
7DE1B343D9D6C4E
330
7DE1B343D9D6D03
100
AcDbEntity
  8
TEXT
100
AcDbPolyline
 90
        2
 70
     0
 43
0.0001332181640625
 10
0.6229954217867877
 20
0.6755294188954821
 10
0.6130040594820989
 20
0.7354775927236077
  0
LWPOLYLINE
  5
7DE1B343D9D6C52
330
7DE1B343D9D6D03
100
AcDbEntity
  8
TEXT
100
AcDbPolyline
 90
        2
 70
     0
 43
0.0001332181640625
 10
0.6130040594820989
 20
0.7221557763173572
 10
0.6229954217867877
 20
0.6488857860829811
  0
LWPOLYLINE
  5
7DE1B343D9D6C56
330
7DE1B343D9D6D03
100
AcDbEntity
  8
TEXT
100
AcDbPolyline
 90
        2
 70
     0
 43
0.0006660908203125
 10
0.6229954217867877
 20
0.6755294188954821
 10
0.6229954217867877
 20
0.6488857860829811
  0
LWPOLYLINE
  5
7DE1B343D9D6C5A
330
7DE1B343D9D6D03
100
AcDbEntity
  8
TEXT
100
AcDbPolyline
 90
        5
 70
     0
 43
0.0001332181640625
 10
0.6629608710055375
 20
0.7721125878407939
 10
0.6496390545992888
 20
0.7721125878407939
 10
0.6496390545992888
 20
0.7354775927236077
 10
0.6130040594820989
 20
0.7354775927236077
 10
0.6130040594820989
 20
0.7221557763173572
  0
LWPOLYLINE
  5
7DE1B343D9D6C61
330
7DE1B343D9D6D03
100
AcDbEntity
  8
TEXT
100
AcDbPolyline
 90
        2
 70
     0
 43
0.0006660908203125
 10
0.7095872284274125
 20
0.8020866747548566
 10
0.7362308612399136
 20
0.8020866747548566
  0
LWPOLYLINE
  5
7DE1B343D9D6C65
330
7DE1B343D9D6D03
100
AcDbEntity
  8
TEXT
100
AcDbPolyline
 90
        2
 70
     0
 43
0.0006660908203125
 10
0.7095872284274125
 20
0.7621212255361087
 10
0.7362308612399136
 20
0.7621212255361087
  0
LINE
  5
7DE1B343D9D6C69
330
7DE1B343D9D6D03
100
AcDbEntity
  8
TEXT
100
AcDbLine
 10
1.006344998087938
 20
0.8510454195512153
 30
0.0
 11
1.173250652116909
 21
0.8510454195512153
 31
0.0
  0
LINE
  5
7DE1B343D9D6C6A
330
7DE1B343D9D6D03
100
AcDbEntity
  8
TEXT
100
AcDbLine
 10
1.071945134332239
 20
0.8152406979405874
 30
0.0
 11
1.006344998087938
 21
0.8152406979405874
 31
0.0
  0
LINE
  5
7DE1B343D9D6C6B
330
7DE1B343D9D6D03
100
AcDbEntity
  8
TEXT
100
AcDbLine
 10
0.9190202085271867
 20
0.6488490812194698
 30
0.0
 11
1.071945134332239
 21
0.6488490812194698
 31
0.0
  0
LINE
  5
7DE1B343D9D6C6C
330
7DE1B343D9D6D03
100
AcDbEntity
  8
TEXT
100
AcDbLine
 10
1.076885508238519
 20
0.7172060875529091
 30
0.0
 11
0.9190202085271849
 21
0.7172060875529091
 31
0.0
  0
LINE
  5
7DE1B343D9D6C6D
330
7DE1B343D9D6D03
100
AcDbEntity
  8
TEXT
100
AcDbLine
 10
1.00110766797369
 20
0.7511471953149738
 30
0.0
 11
1.076885508238519
 21
0.7511471953149738
 31
0.0
  0
ARC
  5
7DE1B343D9D6C6E
330
7DE1B343D9D6D03
100
AcDbEntity
  8
TEXT
100
AcDbCircle
 10
1.006344998087939
 20
0.8331430587459031
 30
0.0
 40
0.017902360805315
100
AcDbArc
 50
90.0
 51
270.0
  0
LINE
  5
7DE1B343D9D6C6F
330
7DE1B343D9D6D03
100
AcDbEntity
  8
TEXT
100
AcDbLine
 10
0.9190202085271849
 20
0.7172060875529091
 30
0.0
 11
0.9190202085271867
 21
0.6488490812194698
 31
0.0
  0
LINE
  5
7DE1B343D9D6C70
330
7DE1B343D9D6D03
100
AcDbEntity
  8
TEXT
100
AcDbLine
 10
1.173250652116909
 20
0.8510454195512153
 30
0.0
 11
1.173250652116909
 21
0.7086414725575196
 31
0.0
  0
ARC
  5
7DE1B343D9D6C71
330
7DE1B343D9D6D03
100
AcDbEntity
  8
TEXT
100
AcDbCircle
 10
1.07194513433224
 20
0.7320448895800269
 30
0.0
 40
0.0831958083605586
100
AcDbArc
 50
270.0
 51
90.0
  0
ARC
  5
7DE1B343D9D6C72
330
7DE1B343D9D6D03
100
AcDbEntity
  8
TEXT
100
AcDbCircle
 10
1.07688550823852
 20
0.7341766414339432
 30
0.0
 40
0.0169705538810321
100
AcDbArc
 50
270.0
 51
90.0
  0
LWPOLYLINE
  5
7DE1B343D9D6C73
330
7DE1B343D9D6D03
100
AcDbEntity
  8
TEXT
100
AcDbPolyline
 90
        2
 70
     0
 43
0.0006660908203125
 10
0.5830299725680362
 20
0.8886784813954832
 10
0.5830299725680362
 20
0.9153221142079843
  0
LWPOLYLINE
  5
7DE1B343D9D6C77
330
7DE1B343D9D6D03
100
AcDbEntity
  8
TEXT
100
AcDbPolyline
 90
        2
 70
     0
 43
0.0006660908203125
 10
0.6229954217867877
 20
0.8886784813954832
 10
0.6229954217867877
 20
0.9153221142079843
  0
LINE
  5
7DE1B343D9D6C7B
330
7DE1B343D9D6D03
100
AcDbEntity
  8
TEXT
100
AcDbLine
 10
1.176839420872202
 20
0.9153221142079807
 30
0.0
 11
1.00110766797369
 21
0.9153221142079807
 31
0.0
  0
LINE
  5
7DE1B343D9D6C7C
330
7DE1B343D9D6D03
100
AcDbEntity
  8
TEXT
100
AcDbLine
 10
1.176839420872202
 20
0.9497100318021189
 30
0.0
 11
1.176839420872202
 21
0.9153221142079807
 31
0.0
  0
LINE
  5
7DE1B343D9D6C7D
330
7DE1B343D9D6D03
100
AcDbEntity
  8
TEXT
100
AcDbLine
 10
1.367311312892054
 20
0.8144501180948601
 30
0.0
 11
1.308680991860116
 21
0.9153221142079807
 31
0.0
  0
LINE
  5
7DE1B343D9D6C7E
330
7DE1B343D9D6D03
100
AcDbEntity
  8
TEXT
100
AcDbLine
 10
1.42605987569792
 20
0.9153221142079807
 30
0.0
 11
1.367311312892054
 21
0.8144501180948601
 31
0.0
  0
LINE
  5
7DE1B343D9D6C7F
330
7DE1B343D9D6D03
100
AcDbEntity
  8
TEXT
100
AcDbLine
 10
1.522990501057661
 20
0.731236919322469
 30
0.0
 11
1.522990501057661
 21
0.9833335919467913
 31
0.0
  0
LINE
  5
7DE1B343D9D6C80
330
7DE1B343D9D6D03
100
AcDbEntity
  8
TEXT
100
AcDbLine
 10
1.555302355195321
 20
0.9153221142079807
 30
0.0
 11
1.555302355195321
 21
0.7144579074755726
 31
0.0
  0
LINE
  5
7DE1B343D9D6C81
330
7DE1B343D9D6D03
100
AcDbEntity
  8
TEXT
100
AcDbLine
 10
1.555302355195321
 20
0.7144579074755726
 30
0.0
 11
1.53830871831072
 21
0.7144579074755726
 31
0.0
  0
LINE
  5
7DE1B343D9D6C82
330
7DE1B343D9D6D03
100
AcDbEntity
  8
TEXT
100
AcDbLine
 10
1.524130074553856
 20
0.6488490812194698
 30
0.0
 11
1.62213340825329
 21
0.6488490812194698
 31
0.0
  0
LINE
  5
7DE1B343D9D6C83
330
7DE1B343D9D6D03
100
AcDbEntity
  8
TEXT
100
AcDbLine
 10
1.3577110758951
 20
0.6688075873244827
 30
0.0
 11
1.455010781988545
 21
0.8331577982597508
 31
0.0
  0
ARC
  5
7DE1B343D9D6C84
330
7DE1B343D9D6D03
100
AcDbEntity
  8
TEXT
100
AcDbCircle
 10
1.323667515982886
 20
0.6883968034931656
 30
0.0
 40
0.0392772371940762
100
AcDbArc
 50
270.1604552698595
 51
330.0831797321295
  0
LINE
  5
7DE1B343D9D6C85
330
7DE1B343D9D6D03
100
AcDbEntity
  8
TEXT
100
AcDbLine
 10
1.227137259597015
 20
0.6488490812194698
 30
0.0
 11
1.323777510672009
 21
0.6491197203177521
 31
0.0
  0
LWPOLYLINE
  5
7DE1B343D9D6C86
330
7DE1B343D9D6D03
100
AcDbEntity
  8
TEXT
100
AcDbPolyline
 90
        6
 70
     1
 43
0.0
 10
1.269661063172164
 20
0.8510454195512153
 10
1.239344468951956
 20
0.8510454195512153
 10
1.239344468951956
 20
0.727934421496321
 42
0.407328721240804
 10
1.250888120113433
 20
0.716115506819935
 10
1.311509819158164
 20
0.716115506819935
 10
1.328975159565481
 20
0.7489277358634141
  0
LINE
  5
7DE1B343D9D6C8E
330
7DE1B343D9D6D03
100
AcDbEntity
  8
TEXT
100
AcDbLine
 10
1.455010781988545
 20
0.8331577982597508
 30
0.0
 11
1.455010781988545
 21
0.7004004234343946
 31
0.0
  0
ARC
  5
7DE1B343D9D6C8F
330
7DE1B343D9D6D03
100
AcDbEntity
  8
TEXT
100
AcDbCircle
 10
1.538308718310718
 20
0.729839713718998
 30
0.0
 40
0.0153818062434269
100
AcDbArc
 50
174.7883570302258
 51
270.0
  0
LWPOLYLINE
  5
7DE1B343D9D6C90
330
7DE1B343D9D6D03
100
AcDbEntity
  8
TEXT
100
AcDbPolyline
 90
        2
 70
     0
 43
0.0
 10
1.455010781988543
 20
0.7004004234343981
 42
0.3318488747599744
 10
1.524130074553856
 20
0.6488490812194698
 42
-6.868794160588311
  0
LINE
  5
7DE1B343D9D6C94
330
7DE1B343D9D6D03
100
AcDbEntity
  8
TEXT
100
AcDbLine
 10
1.679522477242552
 20
0.6488490812194698
 30
0.0
 11
1.746580524024392
 21
0.6488490812194698
 31
0.0
  0
LINE
  5
7DE1B343D9D6C95
330
7DE1B343D9D6D03
100
AcDbEntity
  8
TEXT
100
AcDbLine
 10
1.679522477242552
 20
0.8434916303851053
 30
0.0
 11
1.679522477242552
 21
0.6488490812194698
 31
0.0
  0
LINE
  5
7DE1B343D9D6C96
330
7DE1B343D9D6D03
100
AcDbEntity
  8
TEXT
100
AcDbLine
 10
1.62213340825329
 20
0.8510454195512153
 30
0.0
 11
1.671968688076438
 21
0.8510454195512153
 31
0.0
  0
LINE
  5
7DE1B343D9D6C97
330
7DE1B343D9D6D03
100
AcDbEntity
  8
TEXT
100
AcDbLine
 10
1.62213340825329
 20
0.6488490812194698
 30
0.0
 11
1.62213340825329
 21
0.8510454195512153
 31
0.0
  0
LWPOLYLINE
  5
7DE1B343D9D6C98
330
7DE1B343D9D6D03
100
AcDbEntity
  8
TEXT
100
AcDbPolyline
 90
        2
 70
     0
 43
0.0
 10
1.671968688076436
 20
0.8510454195512153
 42
-0.4142135623731017
 10
1.67952247724255
 20
0.8434916303851053
 42
-0.9999999999999998
  0
LINE
  5
7DE1B343D9D6C9C
330
7DE1B343D9D6D03
100
AcDbEntity
  8
TEXT
100
AcDbLine
 10
1.877778688854121
 20
0.8510454195512153
 30
0.0
 11
1.877778688854121
 21
0.7759930134770088
 31
0.0
  0
LINE
  5
7DE1B343D9D6C9D
330
7DE1B343D9D6D03
100
AcDbEntity
  8
TEXT
100
AcDbLine
 10
1.746580524024392
 20
0.8510454195512153
 30
0.0
 11
1.800714120945342
 21
0.8510454195512153
 31
0.0
  0
LINE
  5
7DE1B343D9D6C9E
330
7DE1B343D9D6D03
100
AcDbEntity
  8
TEXT
100
AcDbLine
 10
1.746580524024392
 20
0.6488490812194698
 30
0.0
 11
1.746580524024392
 21
0.8510454195512153
 31
0.0
  0
LWPOLYLINE
  5
7DE1B343D9D6C9F
330
7DE1B343D9D6D03
100
AcDbEntity
  8
TEXT
100
AcDbPolyline
 90
        2
 70
     0
 43
0.0
 10
1.80071412094534
 20
0.8510454195512153
 42
-0.4142135623731017
 10
1.808267910111453
 20
0.8434916303851053
 42
-0.9999999999999998
  0
LWPOLYLINE
  5
7DE1B343D9D6CA3
330
7DE1B343D9D6D03
100
AcDbEntity
  8
TEXT
100
AcDbPolyline
 90
        4
 70
     0
 43
0.0
 10
1.808267910111453
 20
0.8434916303851053
 10
1.808267910111453
 20
0.6488490812194698
 10
1.876746193399311
 20
0.6488490812194698
 10
1.876746193399311
 20
0.692340026169908
 42
-1.714843617202739
  0
LINE
  5
7DE1B343D9D6CA9
330
7DE1B343D9D6D03
100
AcDbEntity
  8
TEXT
100
AcDbLine
 10
1.236882025716209
 20
0.9153221142079807
 30
0.0
 11
1.236882025716209
 21
0.9497100318021189
 31
0.0
  0
LINE
  5
7DE1B343D9D6CAA
330
7DE1B343D9D6D03
100
AcDbEntity
  8
TEXT
100
AcDbLine
 10
1.308680991860116
 20
0.9153221142079807
 30
0.0
 11
1.236882025716209
 21
0.9153221142079807
 31
0.0
  0
LINE
  5
7DE1B343D9D6CAB
330
7DE1B343D9D6D03
100
AcDbEntity
  8
TEXT
100
AcDbLine
 10
1.456181788491296
 20
0.9153221142079807
 30
0.0
 11
1.42605987569792
 21
0.9153221142079807
 31
0.0
  0
LINE
  5
7DE1B343D9D6CAC
330
7DE1B343D9D6D03
100
AcDbEntity
  8
TEXT
100
AcDbLine
 10
1.456181788491296
 20
0.9833335919467913
 30
0.0
 11
1.456181788491296
 21
0.9153221142079807
 31
0.0
  0
LINE
  5
7DE1B343D9D6CAD
330
7DE1B343D9D6D03
100
AcDbEntity
  8
TEXT
100
AcDbLine
 10
1.522990501057661
 20
0.9833335919467913
 30
0.0
 11
1.456181788491296
 21
0.9833335919467913
 31
0.0
  0
LWPOLYLINE
  5
7DE1B343D9D6CAE
330
7DE1B343D9D6D03
100
AcDbEntity
  8
TEXT
100
AcDbPolyline
 90
        3
 70
     0
 43
0.0
 10
1.843402260655663
 20
0.9153221142079843
 10
1.725102101839619
 20
0.9153221142079843
 10
1.725102101839619
 20
0.8881546174470884
 42
-1.960274751411753
  0
LINE
  5
7DE1B343D9D6CB3
330
7DE1B343D9D6D03
100
AcDbEntity
  8
TEXT
100
AcDbLine
 10
1.689320411126458
 20
0.9153221142079807
 30
0.0
 11
1.555302355195321
 21
0.9153221142079807
 31
0.0
  0
LWPOLYLINE
  5
7DE1B343D9D6CB4
330
7DE1B343D9D6D03
100
AcDbEntity
  8
TEXT
100
AcDbPolyline
 90
        2
 70
     0
 43
0.0
 10
1.689320411126458
 20
0.9153221142079843
 42
-0.3328679258950098
 10
1.725102101839619
 20
0.8881546174470884
 42
6.772930709997214
  0
LINE
  5
7DE1B343D9D6CB8
330
7DE1B343D9D6D03
100
AcDbEntity
  8
TEXT
100
AcDbLine
 10
1.87918395136883
 20
0.9153221142079807
 30
0.0
 11
1.87918395136883
 21
0.8869995684383368
 31
0.0
  0
LWPOLYLINE
  5
7DE1B343D9D6CB9
330
7DE1B343D9D6D03
100
AcDbEntity
  8
TEXT
100
AcDbPolyline
 90
        2
 70
     0
 43
0.0
 10
1.843402260655663
 20
0.9153221142079843
 42
-0.3277054968067132
 10
1.879183951368828
 20
0.8869995684383404
 42
6.667889725900311
  0
LINE
  5
7DE1B343D9D6CBD
330
7DE1B343D9D6D03
100
AcDbEntity
  8
TEXT
100
AcDbLine
 10
2.09297579946093
 20
0.8101101356545534
 30
0.0
 11
2.049225028279029
 21
0.8923604116506986
 31
0.0
  0
LINE
  5
7DE1B343D9D6CBE
330
7DE1B343D9D6D03
100
AcDbEntity
  8
TEXT
100
AcDbLine
 10
2.09297579946093
 20
0.9153221142079807
 30
0.0
 11
2.09297579946093
 21
0.8101101356545534
 31
0.0
  0
LINE
  5
7DE1B343D9D6CBF
330
7DE1B343D9D6D03
100
AcDbEntity
  8
TEXT
100
AcDbLine
 10
2.320659538399299
 20
0.8394567877964426
 30
0.0
 11
2.320659538399299
 21
0.9807863199755814
 31
0.0
  0
LINE
  5
7DE1B343D9D6CC0
330
7DE1B343D9D6D03
100
AcDbEntity
  8
TEXT
100
AcDbLine
 10
2.367757696955284
 20
0.9153221142079807
 30
0.0
 11
2.320659538399299
 21
0.8394567877964426
 31
0.0
  0
LINE
  5
7DE1B343D9D6CC1
330
7DE1B343D9D6D03
100
AcDbEntity
  8
TEXT
100
AcDbLine
 10
2.378192413719207
 20
0.8054288712670071
 30
0.0
 11
2.442749529684912
 21
0.9153221142079807
 31
0.0
  0
LINE
  5
7DE1B343D9D6CC2
330
7DE1B343D9D6D03
100
AcDbEntity
  8
TEXT
100
AcDbLine
 10
2.256824547176526
 20
0.6488490812194698
 30
0.0
 11
2.321202731495147
 21
0.6488490812194698
 31
0.0
  0
LWPOLYLINE
  5
7DE1B343D9D6CC3
330
7DE1B343D9D6D03
100
AcDbEntity
  8
TEXT
100
AcDbPolyline
 90
        2
 70
     0
 43
0.0
 10
2.096915476765968
 20
0.692340026169908
 42
-0.2901071551932486
 10
2.053839543898324
 20
0.6488490812194698
 42
-5.328517124445184
  0
ARC
  5
7DE1B343D9D6CC7
330
7DE1B343D9D6D03
100
AcDbEntity
  8
TEXT
100
AcDbCircle
 10
1.984984962241409
 20
0.822686044551218
 30
0.0
 40
0.028359375
100
AcDbArc
 50
25.78218179591245
 51
90.0
  0
LINE
  5
7DE1B343D9D6CC8
330
7DE1B343D9D6D03
100
AcDbEntity
  8
TEXT
100
AcDbLine
 10
2.020786037545532
 20
0.813770446089083
 30
0.0
 11
2.010521277131968
 21
0.8350209856617773
 31
0.0
  0
LINE
  5
7DE1B343D9D6CC9
330
7DE1B343D9D6D03
100
AcDbEntity
  8
TEXT
100
AcDbLine
 10
1.938498047762149
 20
0.813770446089083
 30
0.0
 11
2.020786037545532
 21
0.813770446089083
 31
0.0
  0
LWPOLYLINE
  5
7DE1B343D9D6CCA
330
7DE1B343D9D6D03
100
AcDbEntity
  8
TEXT
100
AcDbPolyline
 90
        4
 70
     1
 43
0.0
 10
2.033717078828431
 20
0.7518130592034951
 10
1.945056760168573
 20
0.7518130592034951
 42
0.9999999999999998
 10
1.945056760168573
 20
0.7094145186996343
 10
2.033717078828431
 20
0.7094145186996343
 42
1.0
  0
LWPOLYLINE
  5
7DE1B343D9D6CD0
330
7DE1B343D9D6D03
100
AcDbEntity
  8
TEXT
100
AcDbPolyline
 90
        2
 70
     0
 43
0.0
 10
1.919822126266947
 20
0.6488490812194698
 10
2.053839543898324
 20
0.6488490812194698
 42
0.9999999999999998
  0
LINE
  5
7DE1B343D9D6CD4
330
7DE1B343D9D6D03
100
AcDbEntity
  8
TEXT
100
AcDbLine
 10
2.180176565883963
 20
0.8510454195512153
 30
0.0
 11
2.256824547176521
 21
0.8510454195512153
 31
0.0
  0
LINE
  5
7DE1B343D9D6CD5
330
7DE1B343D9D6D03
100
AcDbEntity
  8
TEXT
100
AcDbLine
 10
2.256824547176521
 20
0.8510454195512153
 30
0.0
 11
2.256824547176526
 21
0.6488490812194698
 31
0.0
  0
ARC
  5
7DE1B343D9D6CD6
330
7DE1B343D9D6D03
100
AcDbEntity
  8
TEXT
100
AcDbCircle
 10
2.180176565883961
 20
0.8261395442685525
 30
0.0
 40
0.0249058752826653
100
AcDbArc
 50
89.99971217465335
 51
179.9999999999985
  0
LINE
  5
7DE1B343D9D6CD7
330
7DE1B343D9D6D03
100
AcDbEntity
  8
TEXT
100
AcDbLine
 10
2.155270690601304
 20
0.6488490812194698
 30
0.0
 11
2.155270690601299
 21
0.8261395866509381
 31
0.0
  0
LWPOLYLINE
  5
7DE1B343D9D6CD8
330
7DE1B343D9D6D03
100
AcDbEntity
  8
TEXT
100
AcDbPolyline
 90
        2
 70
     0
 43
0.0
 10
2.096915476765968
 20
0.6488490812194698
 10
2.155270690601302
 20
0.6488490812194698
  0
LWPOLYLINE
  5
7DE1B343D9D6CDC
330
7DE1B343D9D6D03
100
AcDbEntity
  8
TEXT
100
AcDbPolyline
 90
        2
 70
     0
 43
0.0
 10
2.096915476765968
 20
0.692340026169908
 10
2.096915476765968
 20
0.6488490812194698
  0
LINE
  5
7DE1B343D9D6CE0
330
7DE1B343D9D6D03
100
AcDbEntity
  8
TEXT
100
AcDbLine
 10
2.473684637082817
 20
0.6488490812194698
 30
0.0
 11
2.378192413719207
 21
0.8054288712670071
 31
0.0
  0
LINE
  5
7DE1B343D9D6CE1
330
7DE1B343D9D6D03
100
AcDbEntity
  8
TEXT
100
AcDbLine
 10
2.397106264706611
 20
0.6488490812194698
 30
0.0
 11
2.473684637082817
 21
0.6488490812194698
 31
0.0
  0
LINE
  5
7DE1B343D9D6CE2
330
7DE1B343D9D6D03
100
AcDbEntity
  8
TEXT
100
AcDbLine
 10
2.321202731495147
 20
0.7804286496956501
 30
0.0
 11
2.397106264706611
 21
0.6488490812194698
 31
0.0
  0
LINE
  5
7DE1B343D9D6CE3
330
7DE1B343D9D6D03
100
AcDbEntity
  8
TEXT
100
AcDbLine
 10
2.321202731495147
 20
0.6488490812194698
 30
0.0
 11
2.321202731495147
 21
0.7804286496956501
 31
0.0
  0
LINE
  5
7DE1B343D9D6CE4
330
7DE1B343D9D6D03
100
AcDbEntity
  8
TEXT
100
AcDbLine
 10
2.320659538399299
 20
0.9807863199755814
 30
0.0
 11
2.252344659850026
 21
0.9807863199755814
 31
0.0
  0
ARC
  5
7DE1B343D9D6CE5
330
7DE1B343D9D6D03
100
AcDbEntity
  8
TEXT
100
AcDbCircle
 10
2.01198892080882
 20
0.8737385470870783
 30
0.0
 40
0.0416329381542859
100
AcDbArc
 50
26.56974201007528
 51
87.20939649401342
  0
LINE
  5
7DE1B343D9D6CE6
330
7DE1B343D9D6D03
100
AcDbEntity
  8
TEXT
100
AcDbLine
 10
2.156872705760431
 20
0.9153221142079807
 30
0.0
 11
2.09297579946093
 21
0.9153221142079807
 31
0.0
  0
LINE
  5
7DE1B343D9D6CE7
330
7DE1B343D9D6D03
100
AcDbEntity
  8
TEXT
100
AcDbLine
 10
2.156872705760431
 20
0.8877744643471061
 30
0.0
 11
2.156872705760431
 21
0.9153221142079807
 31
0.0
  0
ARC
  5
7DE1B343D9D6CE8
330
7DE1B343D9D6D03
100
AcDbEntity
  8
TEXT
100
AcDbCircle
 10
2.188065522823539
 20
0.8840763869257159
 30
0.0
 40
0.0314112657011332
100
AcDbArc
 50
95.88484768694724
 51
173.2388340632136
  0
LINE
  5
7DE1B343D9D6CE9
330
7DE1B343D9D6D03
100
AcDbEntity
  8
TEXT
100
AcDbLine
 10
2.252344659850021
 20
0.9153221142079807
 30
0.0
 11
2.184844942200504
 21
0.9153221142079807
 31
0.0
  0
LINE
  5
7DE1B343D9D6CEA
330
7DE1B343D9D6D03
100
AcDbEntity
  8
TEXT
100
AcDbLine
 10
2.252344659850026
 20
0.9807863199755814
 30
0.0
 11
2.252344659850021
 21
0.9153221142079807
 31
0.0
  0
LINE
  5
7DE1B343D9D6CEB
330
7DE1B343D9D6D03
100
AcDbEntity
  8
TEXT
100
AcDbLine
 10
2.442749529684912
 20
0.9153221142079807
 30
0.0
 11
2.367757696955286
 21
0.9153221142079807
 31
0.0
  0
ENDSEC
  0
SECTION
  2
OBJECTS
  0
DICTIONARY
  5
7DE1B343D9D6CF7
330
0
100
AcDbDictionary
  3
ACAD_GROUP
350
7DE1B343D9D6CF8
  3
ACAD_LAYOUT
350
7DE1B343D9D6D1D
  3
ACAD_MLINESTYLE
350
7DE1B343D9D6CF9
  3
ACAD_PLOTSETTINGS
350
7DE1B343D9D6D1E
  3
ACAD_PLOTSTYLENAME
350
7DE1B343D9D6D1B
  3
ACDBHEADERROUNDTRIPXREC
350
7DE1B343D9D6D28
  3
ACDBVARIABLEDICTIONARY
350
7DE1B343D9D6D25
  0
DICTIONARY
  5
7DE1B343D9D6D4A
330
7DE1B343D9D6D03
100
AcDbDictionary
280
     1
  3
ACAD_LAYOUTSELFREF
360
7DE1B343D9D6D4B
  0
DICTIONARY
  5
7DE1B343D9D6D48
330
7DE1B343D9D6D00
100
AcDbDictionary
280
     1
  3
ACAD_LAYOUTSELFREF
360
7DE1B343D9D6D49
  0
DICTIONARY
  5
7DE1B343D9D6CF8
102
{ACAD_REACTORS
330
7DE1B343D9D6CF7
102
}
330
7DE1B343D9D6CF7
100
AcDbDictionary
  0
DICTIONARY
  5
7DE1B343D9D6D1D
102
{ACAD_REACTORS
330
7DE1B343D9D6CF7
102
}
330
7DE1B343D9D6CF7
100
AcDbDictionary
  0
DICTIONARY
  5
7DE1B343D9D6CF9
102
{ACAD_REACTORS
330
7DE1B343D9D6CF7
102
}
330
7DE1B343D9D6CF7
100
AcDbDictionary
  3
STANDARD
350
7DE1B343D9D6D06
  0
DICTIONARY
  5
7DE1B343D9D6D1E
102
{ACAD_REACTORS
330
7DE1B343D9D6CF7
102
}
330
7DE1B343D9D6CF7
100
AcDbDictionary
  0
ACDBDICTIONARYWDFLT
  5
7DE1B343D9D6D1B
102
{ACAD_REACTORS
330
7DE1B343D9D6CF7
102
}
330
7DE1B343D9D6CF7
100
AcDbDictionary
281
     1
  3
Normal
350
7DE1B343D9D6D1C
100
AcDbDictionaryWithDefault
340
7DE1B343D9D6D1C
  0
DICTIONARY
  5
7DE1B343D9D6D28
102
{ACAD_REACTORS
330
7DE1B343D9D6CF7
102
}
330
7DE1B343D9D6CF7
100
AcDbDictionary
  3
CEPSNTYPE
350
7DE1B343D9D6D32
  3
FINGERPRINTGUID
350
7DE1B343D9D6D33
  3
HYPERLINKBASE
350
7DE1B343D9D6D2B
  3
INSUNITS
350
7DE1B343D9D6D31
  3
LAYOUTDICT
350
7DE1B343D9D6D2D
  3
LWETCUNION
350
7DE1B343D9D6D30
  3
PLOTSETDICT
350
7DE1B343D9D6D2E
  3
PLOTSTYLNAMDICT
350
7DE1B343D9D6D2F
  3
PSVPSCALE
350
7DE1B343D9D6D35
  3
PUCSBASE
350
7DE1B343D9D6D38
  3
PUCSORGBACK
350
7DE1B343D9D6D3E
  3
PUCSORGBOTTOM
350
7DE1B343D9D6D3A
  3
PUCSORGFRONT
350
7DE1B343D9D6D3D
  3
PUCSORGLEFT
350
7DE1B343D9D6D3B
  3
PUCSORGRIGHT
350
7DE1B343D9D6D3C
  3
PUCSORGTOP
350
7DE1B343D9D6D39
  3
PUCSORTHOREF
350
7DE1B343D9D6D36
  3
PUCSORTHOVIEW
350
7DE1B343D9D6D37
  3
STYLESHEET
350
7DE1B343D9D6D2C
  3
TSTACKALIGN
350
7DE1B343D9D6D29
  3
TSTACKSIZE
350
7DE1B343D9D6D2A
  3
UCSBASE
350
7DE1B343D9D6D41
  3
UCSORGBACK
350
7DE1B343D9D6D47
  3
UCSORGBOTTOM
350
7DE1B343D9D6D43
  3
UCSORGFRONT
350
7DE1B343D9D6D46
  3
UCSORGLEFT
350
7DE1B343D9D6D44
  3
UCSORGRIGHT
350
7DE1B343D9D6D45
  3
UCSORGTOP
350
7DE1B343D9D6D42
  3
UCSORTHOREF
350
7DE1B343D9D6D3F
  3
UCSORTHOVIEW
350
7DE1B343D9D6D40
  3
VERSIONGUID
350
7DE1B343D9D6D34
  0
DICTIONARY
  5
7DE1B343D9D6D25
102
{ACAD_REACTORS
330
7DE1B343D9D6CF7
102
}
330
7DE1B343D9D6CF7
100
AcDbDictionary
  3
DIMASSOC
350
7DE1B343D9D6D26
  0
XRECORD
  5
7DE1B343D9D6D4B
102
{ACAD_REACTORS
330
7DE1B343D9D6D4A
102
}
330
7DE1B343D9D6D4A
100
AcDbXrecord
340
7DE1B343D9D6D03
  0
XRECORD
  5
7DE1B343D9D6D49
102
{ACAD_REACTORS
330
7DE1B343D9D6D48
102
}
330
7DE1B343D9D6D48
100
AcDbXrecord
340
7DE1B343D9D6D00
  0
MLINESTYLE
  5
7DE1B343D9D6D06
102
{ACAD_REACTORS
330
7DE1B343D9D6CF9
102
}
330
7DE1B343D9D6CF9
100
AcDbMlineStyle
  2
STANDARD
 70
     0
  3

 62
     0
 51
90.0
 52
90.0
 71
     2
 49
0.5
 62
   256
  6
BYLAYER
 49
-0.5
 62
   256
  6
BYLAYER
  0
ACDBPLACEHOLDER
  5
7DE1B343D9D6D1C
102
{ACAD_REACTORS
330
7DE1B343D9D6D1B
102
}
330
7DE1B343D9D6D1B
100
AcDbPlaceHolder
280
     0
  0
XRECORD
  5
7DE1B343D9D6D32
102
{ACAD_REACTORS
330
7DE1B343D9D6D28
102
}
330
7DE1B343D9D6D28
100
AcDbXrecord
 90
        0
  0
XRECORD
  5
7DE1B343D9D6D33
102
{ACAD_REACTORS
330
7DE1B343D9D6D28
102
}
330
7DE1B343D9D6D28
100
AcDbXrecord
  1
{D41CD860-8DB4-11D6-88E6-0090279574E7}
  0
XRECORD
  5
7DE1B343D9D6D2B
102
{ACAD_REACTORS
330
7DE1B343D9D6D28
102
}
330
7DE1B343D9D6D28
100
AcDbXrecord
  1

  0
XRECORD
  5
7DE1B343D9D6D31
102
{ACAD_REACTORS
330
7DE1B343D9D6D28
102
}
330
7DE1B343D9D6D28
100
AcDbXrecord
 90
        0
  0
XRECORD
  5
7DE1B343D9D6D2D
102
{ACAD_REACTORS
330
7DE1B343D9D6D28
102
}
330
7DE1B343D9D6D28
100
AcDbXrecord
340
7DE1B343D9D6D1D
  0
XRECORD
  5
7DE1B343D9D6D30
102
{ACAD_REACTORS
330
7DE1B343D9D6D28
102
}
330
7DE1B343D9D6D28
100
AcDbXrecord
 90
    14877
  0
XRECORD
  5
7DE1B343D9D6D2E
102
{ACAD_REACTORS
330
7DE1B343D9D6D28
102
}
330
7DE1B343D9D6D28
100
AcDbXrecord
340
7DE1B343D9D6D1E
  0
XRECORD
  5
7DE1B343D9D6D2F
102
{ACAD_REACTORS
330
7DE1B343D9D6D28
102
}
330
7DE1B343D9D6D28
100
AcDbXrecord
340
7DE1B343D9D6D1B
  0
XRECORD
  5
7DE1B343D9D6D35
102
{ACAD_REACTORS
330
7DE1B343D9D6D28
102
}
330
7DE1B343D9D6D28
100
AcDbXrecord
 40
0.0
  0
XRECORD
  5
7DE1B343D9D6D38
102
{ACAD_REACTORS
330
7DE1B343D9D6D28
102
}
330
7DE1B343D9D6D28
100
AcDbXrecord
340
0
  0
XRECORD
  5
7DE1B343D9D6D3E
102
{ACAD_REACTORS
330
7DE1B343D9D6D28
102
}
330
7DE1B343D9D6D28
100
AcDbXrecord
 10
0.0
 20
0.0
 30
0.0
  0
XRECORD
  5
7DE1B343D9D6D3A
102
{ACAD_REACTORS
330
7DE1B343D9D6D28
102
}
330
7DE1B343D9D6D28
100
AcDbXrecord
 10
0.0
 20
0.0
 30
0.0
  0
XRECORD
  5
7DE1B343D9D6D3D
102
{ACAD_REACTORS
330
7DE1B343D9D6D28
102
}
330
7DE1B343D9D6D28
100
AcDbXrecord
 10
0.0
 20
0.0
 30
0.0
  0
XRECORD
  5
7DE1B343D9D6D3B
102
{ACAD_REACTORS
330
7DE1B343D9D6D28
102
}
330
7DE1B343D9D6D28
100
AcDbXrecord
 10
0.0
 20
0.0
 30
0.0
  0
XRECORD
  5
7DE1B343D9D6D3C
102
{ACAD_REACTORS
330
7DE1B343D9D6D28
102
}
330
7DE1B343D9D6D28
100
AcDbXrecord
 10
0.0
 20
0.0
 30
0.0
  0
XRECORD
  5
7DE1B343D9D6D39
102
{ACAD_REACTORS
330
7DE1B343D9D6D28
102
}
330
7DE1B343D9D6D28
100
AcDbXrecord
 10
0.0
 20
0.0
 30
0.0
  0
XRECORD
  5
7DE1B343D9D6D36
102
{ACAD_REACTORS
330
7DE1B343D9D6D28
102
}
330
7DE1B343D9D6D28
100
AcDbXrecord
340
0
  0
XRECORD
  5
7DE1B343D9D6D37
102
{ACAD_REACTORS
330
7DE1B343D9D6D28
102
}
330
7DE1B343D9D6D28
100
AcDbXrecord
 70
     0
  0
XRECORD
  5
7DE1B343D9D6D2C
102
{ACAD_REACTORS
330
7DE1B343D9D6D28
102
}
330
7DE1B343D9D6D28
100
AcDbXrecord
  1

  0
XRECORD
  5
7DE1B343D9D6D29
102
{ACAD_REACTORS
330
7DE1B343D9D6D28
102
}
330
7DE1B343D9D6D28
100
AcDbXrecord
 90
        1
  0
XRECORD
  5
7DE1B343D9D6D2A
102
{ACAD_REACTORS
330
7DE1B343D9D6D28
102
}
330
7DE1B343D9D6D28
100
AcDbXrecord
 90
       70
  0
XRECORD
  5
7DE1B343D9D6D41
102
{ACAD_REACTORS
330
7DE1B343D9D6D28
102
}
330
7DE1B343D9D6D28
100
AcDbXrecord
340
0
  0
XRECORD
  5
7DE1B343D9D6D47
102
{ACAD_REACTORS
330
7DE1B343D9D6D28
102
}
330
7DE1B343D9D6D28
100
AcDbXrecord
 10
0.0
 20
0.0
 30
0.0
  0
XRECORD
  5
7DE1B343D9D6D43
102
{ACAD_REACTORS
330
7DE1B343D9D6D28
102
}
330
7DE1B343D9D6D28
100
AcDbXrecord
 10
0.0
 20
0.0
 30
0.0
  0
XRECORD
  5
7DE1B343D9D6D46
102
{ACAD_REACTORS
330
7DE1B343D9D6D28
102
}
330
7DE1B343D9D6D28
100
AcDbXrecord
 10
0.0
 20
0.0
 30
0.0
  0
XRECORD
  5
7DE1B343D9D6D44
102
{ACAD_REACTORS
330
7DE1B343D9D6D28
102
}
330
7DE1B343D9D6D28
100
AcDbXrecord
 10
0.0
 20
0.0
 30
0.0
  0
XRECORD
  5
7DE1B343D9D6D45
102
{ACAD_REACTORS
330
7DE1B343D9D6D28
102
}
330
7DE1B343D9D6D28
100
AcDbXrecord
 10
0.0
 20
0.0
 30
0.0
  0
XRECORD
  5
7DE1B343D9D6D42
102
{ACAD_REACTORS
330
7DE1B343D9D6D28
102
}
330
7DE1B343D9D6D28
100
AcDbXrecord
 10
0.0
 20
0.0
 30
0.0
  0
XRECORD
  5
7DE1B343D9D6D3F
102
{ACAD_REACTORS
330
7DE1B343D9D6D28
102
}
330
7DE1B343D9D6D28
100
AcDbXrecord
340
0
  0
XRECORD
  5
7DE1B343D9D6D40
102
{ACAD_REACTORS
330
7DE1B343D9D6D28
102
}
330
7DE1B343D9D6D28
100
AcDbXrecord
 70
     0
  0
XRECORD
  5
7DE1B343D9D6D34
102
{ACAD_REACTORS
330
7DE1B343D9D6D28
102
}
330
7DE1B343D9D6D28
100
AcDbXrecord
  1
{D41CD862-8DB4-11D6-88E6-0090279574E7}
  0
DICTIONARYVAR
  5
7DE1B343D9D6D26
102
{ACAD_REACTORS
330
7DE1B343D9D6D25
102
}
330
7DE1B343D9D6D25
100
DictionaryVariables
280
     0
  1
1
  0
ENDSEC
  0
EOF
