  0
SECTION
  2
HEADER
  9
$ACADVER
  1
AC1014
  9
$ACADMAINTVER
 70
     9
  9
$DWGCODEPAGE
  3
ANSI_1252
  9
$INSBASE
 10
1.319531174836857
 20
1.613527039916536
 30
0.0
  9
$EXTMIN
 10
-0.1538778081625547
 20
0.1024354235614704
 30
0.0
  9
$EXTMAX
 10
3.331341513584573
 20
3.219016252793555
 30
0.0
  9
$LIMMIN
 10
0.0
 20
0.0
  9
$LIMMAX
 10
18.0
 20
12.0
  9
$ORTHOMODE
 70
     1
  9
$REGENMODE
 70
     1
  9
$FILLMODE
 70
     1
  9
$QTEXTMODE
 70
     0
  9
$MIRRTEXT
 70
     0
  9
$DRAGMODE
 70
     2
  9
$LTSCALE
 40
1.0
  9
$OSMODE
 70
    39
  9
$ATTMODE
 70
     1
  9
$TEXTSIZE
 40
0.125
  9
$TRACEWID
 40
0.05
  9
$TEXTSTYLE
  7
ROMANS
  9
$CLAYER
  8
0
  9
$CELTYPE
  6
BYLAYER
  9
$CECOLOR
 62
   256
  9
$CELTSCALE
 40
1.0
  9
$DELOBJ
 70
     1
  9
$DISPSILH
 70
     1
  9
$DIMSCALE
 40
1.0
  9
$DIMASZ
 40
0.125
  9
$DIMEXO
 40
0.125
  9
$DIMDLI
 40
0.375
  9
$DIMRND
 40
0.0
  9
$DIMDLE
 40
0.0
  9
$DIMEXE
 40
0.125
  9
$DIMTP
 40
0.0
  9
$DIMTM
 40
0.0
  9
$DIMTXT
 40
0.125
  9
$DIMCEN
 40
-0.125
  9
$DIMTSZ
 40
0.0
  9
$DIMTOL
 70
     0
  9
$DIMLIM
 70
     0
  9
$DIMTIH
 70
     1
  9
$DIMTOH
 70
     1
  9
$DIMSE1
 70
     0
  9
$DIMSE2
 70
     0
  9
$DIMTAD
 70
     0
  9
$DIMZIN
 70
     4
  9
$DIMBLK
  1

  9
$DIMASO
 70
     1
  9
$DIMSHO
 70
     1
  9
$DIMPOST
  1

  9
$DIMAPOST
  1

  9
$DIMALT
 70
     0
  9
$DIMALTD
 70
     2
  9
$DIMALTF
 40
25.4
  9
$DIMLFAC
 40
1.0
  9
$DIMTOFL
 70
     0
  9
$DIMTVP
 40
0.0
  9
$DIMTIX
 70
     1
  9
$DIMSOXD
 70
     0
  9
$DIMSAH
 70
     0
  9
$DIMBLK1
  1

  9
$DIMBLK2
  1

  9
$DIMSTYLE
  2
STANDARD
  9
$DIMCLRD
 70
     0
  9
$DIMCLRE
 70
     0
  9
$DIMCLRT
 70
     0
  9
$DIMTFAC
 40
1.0
  9
$DIMGAP
 40
0.09
  9
$DIMJUST
 70
     0
  9
$DIMSD1
 70
     0
  9
$DIMSD2
 70
     0
  9
$DIMTOLJ
 70
     1
  9
$DIMTZIN
 70
     4
  9
$DIMALTZ
 70
     0
  9
$DIMALTTZ
 70
     0
  9
$DIMFIT
 70
     3
  9
$DIMUPT
 70
     0
  9
$DIMUNIT
 70
     2
  9
$DIMDEC
 70
     3
  9
$DIMTDEC
 70
     3
  9
$DIMALTU
 70
     2
  9
$DIMALTTD
 70
     2
  9
$DIMTXSTY
  7
ROMANS
  9
$DIMAUNIT
 70
     0
  9
$LUNITS
 70
     2
  9
$LUPREC
 70
     3
  9
$SKETCHINC
 40
0.1
  9
$FILLETRAD
 40
0.03125
  9
$AUNITS
 70
     0
  9
$AUPREC
 70
     0
  9
$MENU
  1
ACAD
  9
$ELEVATION
 40
0.0
  9
$PELEVATION
 40
0.0
  9
$THICKNESS
 40
0.0
  9
$LIMCHECK
 70
     0
  9
$BLIPMODE
 70
     0
  9
$CHAMFERA
 40
0.0
  9
$CHAMFERB
 40
0.0
  9
$CHAMFERC
 40
0.0
  9
$CHAMFERD
 40
0.0
  9
$SKPOLY
 70
     0
  9
$TDCREATE
 40
2448994.373872800
  9
$TDUPDATE
 40
2452458.299539838
  9
$TDINDWG
 40
0.0006190741
  9
$TDUSRTIMER
 40
0.0006190741
  9
$USRTIMER
 70
     1
  9
$ANGBASE
 50
0.0
  9
$ANGDIR
 70
     0
  9
$PDMODE
 70
     0
  9
$PDSIZE
 40
0.0
  9
$PLINEWID
 40
0.0
  9
$COORDS
 70
     2
  9
$SPLFRAME
 70
     0
  9
$SPLINETYPE
 70
     6
  9
$SPLINESEGS
 70
     8
  9
$ATTDIA
 70
     0
  9
$ATTREQ
 70
     1
  9
$HANDLING
 70
 22529
  9
$HANDSEED
  5
7DE1B343D9D5BC1
  9
$SURFTAB1
 70
     6
  9
$SURFTAB2
 70
     6
  9
$SURFTYPE
 70
     6
  9
$SURFU
 70
     6
  9
$SURFV
 70
     6
  9
$UCSNAME
  2

  9
$UCSORG
 10
0.0
 20
0.0
 30
0.0
  9
$UCSXDIR
 10
1.0
 20
0.0
 30
0.0
  9
$UCSYDIR
 10
0.0
 20
1.0
 30
0.0
  9
$PUCSNAME
  2

  9
$PUCSORG
 10
0.0
 20
0.0
 30
0.0
  9
$PUCSXDIR
 10
1.0
 20
0.0
 30
0.0
  9
$PUCSYDIR
 10
0.0
 20
1.0
 30
0.0
  9
$USERI1
 70
     0
  9
$USERI2
 70
     0
  9
$USERI3
 70
     0
  9
$USERI4
 70
     0
  9
$USERI5
 70
     0
  9
$USERR1
 40
0.0
  9
$USERR2
 40
0.0
  9
$USERR3
 40
0.0
  9
$USERR4
 40
0.0
  9
$USERR5
 40
0.0
  9
$WORLDVIEW
 70
     1
  9
$SHADEDGE
 70
     3
  9
$SHADEDIF
 70
    70
  9
$TILEMODE
 70
     1
  9
$MAXACTVP
 70
    16
  9
$PINSBASE
 10
1.197362598220546
 20
50.00000000000001
 30
2.33841463954965
  9
$PLIMCHECK
 70
     0
  9
$PEXTMIN
 10
1.000000000000000E+20
 20
1.000000000000000E+20
 30
1.000000000000000E+20
  9
$PEXTMAX
 10
-1.000000000000000E+20
 20
-1.000000000000000E+20
 30
-1.000000000000000E+20
  9
$PLIMMIN
 10
0.0
 20
0.0
  9
$PLIMMAX
 10
12.0
 20
9.0
  9
$UNITMODE
 70
     0
  9
$VISRETAIN
 70
     0
  9
$PLINEGEN
 70
     1
  9
$PSLTSCALE
 70
     0
  9
$TREEDEPTH
 70
  3020
  9
$PICKSTYLE
 70
     1
  9
$CMLSTYLE
  2
STANDARD
  9
$CMLJUST
 70
     0
  9
$CMLSCALE
 40
1.0
  9
$PROXYGRAPHICS
 70
     1
  9
$MEASUREMENT
 70
     0
  0
ENDSEC
  0
SECTION
  2
CLASSES
  0
CLASS
  1
LWPOLYLINE
  2
AcDbPolyline
  3
AutoCAD 2000
 90
        0
280
     0
281
     1
  0
CLASS
  1
ACDBDICTIONARYWDFLT
  2
AcDbDictionaryWithDefault
  3
AutoCAD 2000
 90
        0
280
     0
281
     0
  0
CLASS
  1
ACDBPLACEHOLDER
  2
AcDbPlaceHolder
  3
AutoCAD 2000
 90
        0
280
     0
281
     0
  0
CLASS
  1
LAYOUT
  2
AcDbLayout
  3
AutoCAD 2000
 90
        0
280
     0
281
     0
  0
CLASS
  1
DICTIONARYVAR
  2
AcDbDictionaryVar
  3
AutoCAD 2000
 90
        0
280
     0
281
     0
  0
CLASS
  1
LONG_TRANSACTION
  2
AcDbLongTransaction
  3
AutoCAD 2000
 90
        0
280
     0
281
     0
  0
CLASS
  1
LWPOLYLINE
  2
AcDbPolyline
  3
AutoCAD 2000
 90
        0
280
     0
281
     1
  0
CLASS
  1
HATCH
  2
AcDbHatch
  3
AutoCAD 2000
 90
        0
280
     0
281
     1
  0
CLASS
  1
XRECORD
  2
AcDbXrecord
  3
AutoCAD 2000
 90
        0
280
     0
281
     0
  0
ENDSEC
  0
SECTION
  2
TABLES
  0
TABLE
  2
VPORT
  5
7DE1B343D9D5B68
330
0
100
AcDbSymbolTable
 70
     2
  0
VPORT
  5
7DE1B343D9D5B9C
330
7DE1B343D9D5B68
100
AcDbSymbolTableRecord
100
AcDbViewportTableRecord
  2
*ACTIVE
 70
     0
 10
0.0
 20
0.0
 11
1.0
 21
1.0
 12
6.177450738544532
 22
1.660858177185126
 13
0.0
 23
0.0
 14
0.015625
 24
0.015625
 15
0.0
 25
0.0
 16
0.0
 26
0.0
 36
1.0
 17
0.0
 27
0.0
 37
0.0
 40
3.519313208997751
 41
4.320930232558139
 42
50.0
 43
0.0
 44
0.0
 50
0.0
 51
0.0
 71
     0
 72
  2000
 73
     1
 74
     0
 75
     0
 76
     0
 77
     0
 78
     0
  0
ENDTAB
  0
TABLE
  2
LTYPE
  5
7DE1B343D9D5B65
330
0
100
AcDbSymbolTable
 70
     1
  0
LTYPE
  5
7DE1B343D9D5B72
330
7DE1B343D9D5B65
100
AcDbSymbolTableRecord
100
AcDbLinetypeTableRecord
  2
BYBLOCK
 70
     0
  3

 72
    65
 73
     0
 40
0.0
  0
LTYPE
  5
7DE1B343D9D5B73
330
7DE1B343D9D5B65
100
AcDbSymbolTableRecord
100
AcDbLinetypeTableRecord
  2
BYLAYER
 70
     0
  3

 72
    65
 73
     0
 40
0.0
  0
LTYPE
  5
7DE1B343D9D5B74
330
7DE1B343D9D5B65
100
AcDbSymbolTableRecord
100
AcDbLinetypeTableRecord
  2
CONTINUOUS
 70
     0
  3
Solid line
 72
    65
 73
     0
 40
0.0
  0
ENDTAB
  0
TABLE
  2
LAYER
  5
7DE1B343D9D5B62
330
0
100
AcDbSymbolTable
 70
     2
  0
LAYER
  5
7DE1B343D9D5B6F
330
7DE1B343D9D5B62
100
AcDbSymbolTableRecord
100
AcDbLayerTableRecord
  2
0
 70
     0
 62
     7
  6
CONTINUOUS
  0
LAYER
  5
7DE1B343D9D5B7F
330
7DE1B343D9D5B62
100
AcDbSymbolTableRecord
100
AcDbLayerTableRecord
  2
TEXT
 70
     0
 62
     3
  6
CONTINUOUS
  0
ENDTAB
  0
TABLE
  2
STYLE
  5
7DE1B343D9D5B63
330
0
100
AcDbSymbolTable
 70
     3
  0
STYLE
  5
7DE1B343D9D5B70
330
7DE1B343D9D5B63
100
AcDbSymbolTableRecord
100
AcDbTextStyleTableRecord
  2
STANDARD
 70
     0
 40
0.0
 41
1.0
 50
0.0
 71
     0
 42
0.3125
  3
txt
  4

  0
STYLE
  5
7DE1B343D9D5B7C
330
7DE1B343D9D5B63
100
AcDbSymbolTableRecord
100
AcDbTextStyleTableRecord
  2
ITALICC
 70
     0
 40
0.0
 41
1.0
 50
0.0
 71
     0
 42
0.125
  3
italicc
  4

  0
STYLE
  5
7DE1B343D9D5B8C
330
7DE1B343D9D5B63
100
AcDbSymbolTableRecord
100
AcDbTextStyleTableRecord
  2
ROMANS
 70
     0
 40
0.0
 41
1.0
 50
0.0
 71
     0
 42
0.125
  3
romans.shx
  4

  0
ENDTAB
  0
TABLE
  2
VIEW
  5
7DE1B343D9D5B66
330
0
100
AcDbSymbolTable
 70
     0
  0
ENDTAB
  0
TABLE
  2
UCS
  5
7DE1B343D9D5B67
330
0
100
AcDbSymbolTable
 70
     0
  0
ENDTAB
  0
TABLE
  2
APPID
  5
7DE1B343D9D5B69
330
0
100
AcDbSymbolTable
 70
     1
  0
APPID
  5
7DE1B343D9D5B71
330
7DE1B343D9D5B69
100
AcDbSymbolTableRecord
100
AcDbRegAppTableRecord
  2
ACAD
 70
     0
  0
ENDTAB
  0
TABLE
  2
DIMSTYLE
  5
7DE1B343D9D5B6A
330
0
100
AcDbSymbolTable
 70
     1
  0
DIMSTYLE
105
7DE1B343D9D5B84
330
7DE1B343D9D5B6A
100
AcDbSymbolTableRecord
100
AcDbDimStyleTableRecord
  2
STANDARD
 70
     0
  3

  4

  5

  6

  7

 40
1.0
 41
0.125
 42
0.125
 43
0.375
 44
0.125
 45
0.0
 46
0.0
 47
0.0
 48
0.0
140
0.125
141
-0.125
142
0.0
143
25.4
144
1.0
145
0.0
146
1.0
147
0.09
 71
     0
 72
     0
 73
     1
 74
     1
 75
     0
 76
     0
 77
     0
 78
     4
170
     0
171
     2
172
     0
173
     0
174
     1
175
     0
176
     0
177
     0
178
     0
270
     2
271
     3
272
     3
273
     2
274
     2
340
7DE1B343D9D5B8C
275
     0
280
     0
281
     0
282
     0
283
     1
284
     4
285
     0
286
     0
287
     3
288
     0
  0
ENDTAB
  0
TABLE
  2
BLOCK_RECORD
  5
7DE1B343D9D5B61
330
0
100
AcDbSymbolTable
 70
     0
  0
BLOCK_RECORD
  5
7DE1B343D9D5B78
102
{ACAD_XDICTIONARY
360
7DE1B343D9D5BBF
102
}
330
7DE1B343D9D5B61
100
AcDbSymbolTableRecord
100
AcDbBlockTableRecord
  2
*MODEL_SPACE
  0
BLOCK_RECORD
  5
7DE1B343D9D5B75
102
{ACAD_XDICTIONARY
360
7DE1B343D9D5BBD
102
}
330
7DE1B343D9D5B61
100
AcDbSymbolTableRecord
100
AcDbBlockTableRecord
  2
*PAPER_SPACE
  0
ENDTAB
  0
ENDSEC
  0
SECTION
  2
BLOCKS
  0
BLOCK
  5
7DE1B343D9D5B82
330
7DE1B343D9D5B78
100
AcDbEntity
  8
0
100
AcDbBlockBegin
  2
*MODEL_SPACE
 70
     0
 10
0.0
 20
0.0
 30
0.0
  3
*MODEL_SPACE
  1

  0
ENDBLK
  5
7DE1B343D9D5B83
330
7DE1B343D9D5B78
100
AcDbEntity
  8
0
100
AcDbBlockEnd
  0
BLOCK
  5
7DE1B343D9D5B80
330
7DE1B343D9D5B75
100
AcDbEntity
 67
     1
  8
0
100
AcDbBlockBegin
  2
*PAPER_SPACE
 70
     0
 10
0.0
 20
0.0
 30
0.0
  3
*PAPER_SPACE
  1

  0
ENDBLK
  5
7DE1B343D9D5B81
330
7DE1B343D9D5B75
100
AcDbEntity
 67
     1
  8
0
100
AcDbBlockEnd
  0
ENDSEC
  0
SECTION
  2
ENTITIES
  0
LWPOLYLINE
  5
7DE1B343D9D45A2
330
7DE1B343D9D5B78
100
AcDbEntity
  8
0
100
AcDbPolyline
 90
       34
 70
     1
 43
0.0
 10
2.350781174836858
 20
1.804839539916536
 10
2.350781174836858
 20
1.879152039916536
 10
2.590353835311167
 20
1.879152039916536
 42
0.4903143948258687
 10
2.650869200095658
 20
1.957277039916536
 42
0.1339724951614829
 10
2.291802998968362
 20
2.585798864048039
 42
0.1339724951614829
 10
1.663281174836858
 20
2.944865065175336
 42
0.4903143948258685
 10
1.585156174836858
 20
2.884349700390845
 10
1.585156174836858
 20
2.644777039916536
 10
1.510843674836857
 20
2.644777039916536
 10
1.510843674836855
 20
2.820701813705805
 42
1.971371388217747
 10
1.393843674836858
 20
2.820701813705801
 10
1.393843674836858
 20
2.644777039916536
 10
0.5382811748368584
 20
2.644777039916536
 10
0.5382811748368584
 20
2.707277039916536
 10
1.007031174836858
 20
2.707277039916536
 10
1.007031174836858
 20
2.769777039916536
 10
1.319531174836857
 20
2.769777039916536
 10
1.319531174836857
 20
3.051027039916536
 10
1.007031174836858
 20
3.051027039916536
 10
1.007031174836858
 20
3.113527039916536
 10
1.319531174836857
 20
3.113527039916536
 42
-0.198912367379658
 10
2.380191346616679
 20
2.674187211696358
 42
-0.198912367379658
 10
2.819531174836858
 20
1.613527039916536
 10
2.819531174836858
 20
1.301027039916536
 10
2.757031174836858
 20
1.301027039916536
 10
2.757031174836858
 20
1.613527039916536
 10
2.475781174836858
 20
1.613527039916536
 10
2.475781174836858
 20
1.301027039916536
 10
2.413281174836858
 20
1.301027039916536
 10
2.413281174836858
 20
0.8322770399165367
 10
2.350781174836858
 20
0.8322770399165367
 10
2.350781174836858
 20
1.687839539916536
 10
2.526705948626124
 20
1.687839539916537
 42
1.971371388217747
 10
2.526705948626126
 20
1.804839539916533
  0
TEXT
  5
7DE1B343D9D5A23
330
7DE1B343D9D5B78
100
AcDbEntity
  8
TEXT
100
AcDbText
 10
0.8361275805883979
 20
0.560454027644052
 30
0.0
 40
0.125
  1
PART #110184
  7
ITALICC
 72
     1
 11
1.589103771064588
 21
0.560454027644052
 31
0.0
100
AcDbText
  0
TEXT
  5
7DE1B343D9D5A24
330
7DE1B343D9D5B78
100
AcDbEntity
  8
TEXT
100
AcDbText
 10
2.002408929314909
 20
0.1135313849716768
 30
0.0
 40
0.0522247191011236
  1
Phone  1-800-328-2495
 41
1.272321428571429
 72
     5
 11
3.331341513584573
 21
0.1135313849716768
 31
0.0
100
AcDbText
  0
TEXT
  5
7DE1B343D9D5A25
330
7DE1B343D9D5B78
100
AcDbEntity
  8
TEXT
100
AcDbText
 10
2.002408929314909
 20
0.3933066658705533
 30
0.0
 40
0.0522247191011236
  1
Stylmark  Incorporated
 41
1.221428571428573
 72
     5
 11
3.331341513584573
 21
0.3933066658705533
 31
0.0
100
AcDbText
  0
TEXT
  5
7DE1B343D9D5A26
330
7DE1B343D9D5B78
100
AcDbEntity
  8
TEXT
100
AcDbText
 10
2.002408929314909
 20
0.3000482389042611
 30
0.0
 40
0.0522247191011236
  1
6536 Main St. N.E. * P.O. Box 32008
 41
0.8388932496075366
 72
     5
 11
3.331341513584573
 21
0.3000482389042611
 31
0.0
100
AcDbText
  0
TEXT
  5
7DE1B343D9D5A27
330
7DE1B343D9D5B78
100
AcDbEntity
  8
TEXT
100
AcDbText
 10
2.002408929314909
 20
0.206789811937969
 30
0.0
 40
0.0522247191011236
  1
Minneapolis, MN 55432-0008
 41
1.11444212721585
 72
     5
 11
3.331341513584573
 21
0.206789811937969
 31
0.0
100
AcDbText
  0
LWPOLYLINE
  5
7DE1B343D9D5A28
330
7DE1B343D9D5B78
100
AcDbEntity
  8
TEXT
100
AcDbPolyline
 90
        3
 70
     0
 43
0.0006660908203125
 10
-0.1535447627523985
 20
0.2271761476091116
 10
-0.1535447627523985
 20
0.113940708155984
 10
-0.0403093232992762
 20
0.113940708155984
  0
LWPOLYLINE
  5
7DE1B343D9D5A2D
330
7DE1B343D9D5B78
100
AcDbEntity
  8
TEXT
100
AcDbPolyline
 90
        3
 70
     0
 43
0.0006660908203125
 10
-0.126901129939901
 20
0.2271761476091116
 10
-0.126901129939901
 20
0.140584340968485
 10
-0.0403093232992762
 20
0.140584340968485
  0
LWPOLYLINE
  5
7DE1B343D9D5A32
330
7DE1B343D9D5B78
100
AcDbEntity
  8
TEXT
100
AcDbPolyline
 90
        2
 70
     0
 43
0.0001332181640625
 10
-0.0802747725180242
 20
0.2371675099137969
 10
-0.1535447627523985
 20
0.2271761476091116
  0
LWPOLYLINE
  5
7DE1B343D9D5A36
330
7DE1B343D9D5B78
100
AcDbEntity
  8
TEXT
100
AcDbPolyline
 90
        2
 70
     0
 43
0.0001332181640625
 10
-0.126901129939901
 20
0.2271761476091116
 10
-0.0669529561117737
 20
0.2371675099137969
  0
LWPOLYLINE
  5
7DE1B343D9D5A3A
330
7DE1B343D9D5B78
100
AcDbEntity
  8
TEXT
100
AcDbPolyline
 90
        2
 70
     0
 43
0.0001332181640625
 10
-0.126901129939901
 20
0.140584340968485
 10
-0.0669529561117737
 20
0.2005325147966106
  0
LWPOLYLINE
  5
7DE1B343D9D5A3E
330
7DE1B343D9D5B78
100
AcDbEntity
  8
TEXT
100
AcDbPolyline
 90
        3
 70
     0
 43
0.0006660908203125
 10
-0.0403093232992762
 20
0.3803770362809873
 10
-0.1535447627523985
 20
0.3803770362809873
 10
-0.1535447627523985
 20
0.2671415968278596
  0
LWPOLYLINE
  5
7DE1B343D9D5A43
330
7DE1B343D9D5B78
100
AcDbEntity
  8
TEXT
100
AcDbPolyline
 90
        3
 70
     0
 43
0.0006660908203125
 10
-0.0403093232992762
 20
0.3537334034684862
 10
-0.126901129939901
 20
0.3537334034684862
 10
-0.126901129939901
 20
0.2671415968278596
  0
LWPOLYLINE
  5
7DE1B343D9D5A48
330
7DE1B343D9D5B78
100
AcDbEntity
  8
TEXT
100
AcDbPolyline
 90
        2
 70
     0
 43
0.0001332181640625
 10
-0.126901129939901
 20
0.3537334034684862
 10
-0.0669529561117754
 20
0.2937852296403607
  0
LWPOLYLINE
  5
7DE1B343D9D5A4C
330
7DE1B343D9D5B78
100
AcDbEntity
  8
TEXT
100
AcDbPolyline
 90
        2
 70
     0
 43
0.0001332181640625
 10
-0.126901129939901
 20
0.2671415968278596
 10
-0.0669529561117754
 20
0.2571502345231709
  0
LWPOLYLINE
  5
7DE1B343D9D5A50
330
7DE1B343D9D5B78
100
AcDbEntity
  8
TEXT
100
AcDbPolyline
 90
        2
 70
     0
 43
0.0001332181640625
 10
-0.1535447627523985
 20
0.2671415968278596
 10
-0.0802747725180242
 20
0.2571502345231709
  0
LWPOLYLINE
  5
7DE1B343D9D5A54
330
7DE1B343D9D5B78
100
AcDbEntity
  8
TEXT
100
AcDbPolyline
 90
        2
 70
     0
 43
0.0006660908203125
 10
-0.126901129939901
 20
0.2271761476091116
 10
-0.1535447627523985
 20
0.2271761476091116
  0
LWPOLYLINE
  5
7DE1B343D9D5A58
330
7DE1B343D9D5B78
100
AcDbEntity
  8
TEXT
100
AcDbPolyline
 90
        2
 70
     0
 43
0.0006660908203125
 10
-0.126901129939901
 20
0.2671415968278596
 10
-0.1535447627523985
 20
0.2671415968278596
  0
LINE
  5
7DE1B343D9D5A5C
330
7DE1B343D9D5B78
100
AcDbEntity
  8
TEXT
100
AcDbLine
 10
1.361645666374099
 20
0.3161003416242183
 30
0.0
 11
1.254439392986809
 21
0.3161003416242183
 31
0.0
  0
LINE
  5
7DE1B343D9D5A5D
330
7DE1B343D9D5B78
100
AcDbEntity
  8
TEXT
100
AcDbLine
 10
1.390676564718577
 20
0.3803770362809837
 30
0.0
 11
1.255844655501518
 21
0.3803770362809837
 31
0.0
  0
ARC
  5
7DE1B343D9D5A5E
330
7DE1B343D9D5B78
100
AcDbEntity
  8
TEXT
100
AcDbCircle
 10
1.315158751894835
 20
0.2111397870179674
 30
0.0
 40
0.0676855811441166
100
AcDbArc
 50
90.0
 51
153.7768192527749
  0
LWPOLYLINE
  5
7DE1B343D9D5A5F
330
7DE1B343D9D5B78
100
AcDbEntity
  8
TEXT
100
AcDbPolyline
 90
        2
 70
     0
 43
0.0
 10
1.253406897531999
 20
0.1573949482429109
 42
0.2901071551932823
 10
1.296482830399635
 20
0.1139040032924727
 42
5.328517124445801
  0
ARC
  5
7DE1B343D9D5A63
330
7DE1B343D9D5B78
100
AcDbEntity
  8
TEXT
100
AcDbCircle
 10
0.6100273742233496
 20
0.1736963946305225
 30
0.0
 40
0.0601160179737537
100
AcDbArc
 50
180.0000000000003
 51
264.0521544866073
  0
LINE
  5
7DE1B343D9D5A64
330
7DE1B343D9D5B78
100
AcDbEntity
  8
TEXT
100
AcDbLine
 10
0.6135427298488974
 20
0.4147649538751219
 30
0.0
 11
0.5535001250048904
 21
0.4147649538751219
 31
0.0
  0
ARC
  5
7DE1B343D9D5A65
330
7DE1B343D9D5B78
100
AcDbEntity
  8
TEXT
100
AcDbCircle
 10
0.3777683721063789
 20
0.298289576834482
 30
0.0
 40
0.0820874594465043
100
AcDbArc
 50
90.0
 51
270.0
  0
LWPOLYLINE
  5
7DE1B343D9D5A66
330
7DE1B343D9D5B78
100
AcDbEntity
  8
TEXT
100
AcDbPolyline
 90
        2
 70
     0
 43
0.0001332181640625
 10
-0.0303179609945856
 20
0.3071070460466077
 10
-0.0403093232992762
 20
0.3803770362809873
  0
LWPOLYLINE
  5
7DE1B343D9D5A6A
330
7DE1B343D9D5B78
100
AcDbEntity
  8
TEXT
100
AcDbPolyline
 90
        2
 70
     0
 43
0.0001332181640625
 10
-0.0403093232992762
 20
0.3537334034684862
 10
-0.0303179609945856
 20
0.2937852296403607
  0
LWPOLYLINE
  5
7DE1B343D9D5A6E
330
7DE1B343D9D5B78
100
AcDbEntity
  8
TEXT
100
AcDbPolyline
 90
        3
 70
     0
 43
0.0006660908203125
 10
0.1128915653726012
 20
0.2671415968278596
 10
0.1128915653726012
 20
0.3803770362809873
 10
-0.0003438740805246
 20
0.3803770362809873
  0
LWPOLYLINE
  5
7DE1B343D9D5A73
330
7DE1B343D9D5B78
100
AcDbEntity
  8
TEXT
100
AcDbPolyline
 90
        3
 70
     0
 43
0.0006660908203125
 10
0.0862479325601002
 20
0.2671415968278596
 10
0.0862479325601002
 20
0.3537334034684862
 10
-0.0003438740805246
 20
0.3537334034684862
  0
LWPOLYLINE
  5
7DE1B343D9D5A78
330
7DE1B343D9D5B78
100
AcDbEntity
  8
TEXT
100
AcDbPolyline
 90
        2
 70
     0
 43
0.0001332181640625
 10
0.0862479325601002
 20
0.3537334034684862
 10
0.0262997587319764
 20
0.2937852296403607
  0
LWPOLYLINE
  5
7DE1B343D9D5A7C
330
7DE1B343D9D5B78
100
AcDbEntity
  8
TEXT
100
AcDbPolyline
 90
        2
 70
     0
 43
0.0001332181640625
 10
-0.0003438740805246
 20
0.3537334034684862
 10
-0.0103352363852134
 20
0.2937852296403607
  0
LWPOLYLINE
  5
7DE1B343D9D5A80
330
7DE1B343D9D5B78
100
AcDbEntity
  8
TEXT
100
AcDbPolyline
 90
        2
 70
     0
 43
0.0001332181640625
 10
-0.0003438740805246
 20
0.3803770362809873
 10
-0.0103352363852134
 20
0.3071070460466077
  0
LWPOLYLINE
  5
7DE1B343D9D5A84
330
7DE1B343D9D5B78
100
AcDbEntity
  8
TEXT
100
AcDbPolyline
 90
        2
 70
     0
 43
0.0001332181640625
 10
0.0396215751382252
 20
0.2571502345231709
 10
0.1128915653726012
 20
0.2671415968278596
  0
LWPOLYLINE
  5
7DE1B343D9D5A88
330
7DE1B343D9D5B78
100
AcDbEntity
  8
TEXT
100
AcDbPolyline
 90
        2
 70
     0
 43
0.0001332181640625
 10
0.0862479325601002
 20
0.2671415968278596
 10
0.0262997587319764
 20
0.2571502345231709
  0
LWPOLYLINE
  5
7DE1B343D9D5A8C
330
7DE1B343D9D5B78
100
AcDbEntity
  8
TEXT
100
AcDbPolyline
 90
        2
 70
     0
 43
0.0001332181640625
 10
0.1128915653726012
 20
0.2271761476091116
 10
0.0396215751382252
 20
0.2371675099137969
  0
LWPOLYLINE
  5
7DE1B343D9D5A90
330
7DE1B343D9D5B78
100
AcDbEntity
  8
TEXT
100
AcDbPolyline
 90
        2
 70
     0
 43
0.0001332181640625
 10
0.0862479325601002
 20
0.2271761476091116
 10
0.0262997587319764
 20
0.2371675099137969
  0
LWPOLYLINE
  5
7DE1B343D9D5A94
330
7DE1B343D9D5B78
100
AcDbEntity
  8
TEXT
100
AcDbPolyline
 90
        2
 70
     0
 43
0.0001332181640625
 10
0.0862479325601002
 20
0.140584340968485
 10
0.0262997587319764
 20
0.2005325147966106
  0
LWPOLYLINE
  5
7DE1B343D9D5A98
330
7DE1B343D9D5B78
100
AcDbEntity
  8
TEXT
100
AcDbPolyline
 90
        3
 70
     0
 43
0.0006660908203125
 10
-0.0003438740805246
 20
0.140584340968485
 10
0.0862479325601002
 20
0.140584340968485
 10
0.0862479325601002
 20
0.2271761476091116
  0
LWPOLYLINE
  5
7DE1B343D9D5A9D
330
7DE1B343D9D5B78
100
AcDbEntity
  8
TEXT
100
AcDbPolyline
 90
        3
 70
     0
 43
0.0006660908203125
 10
-0.0003438740805246
 20
0.113940708155984
 10
0.1128915653726012
 20
0.113940708155984
 10
0.1128915653726012
 20
0.2271761476091116
  0
LWPOLYLINE
  5
7DE1B343D9D5AA2
330
7DE1B343D9D5B78
100
AcDbEntity
  8
TEXT
100
AcDbPolyline
 90
        5
 70
     0
 43
0.0001332181640625
 10
-0.0303179609945856
 20
0.1872106983903601
 10
-0.0303179609945856
 20
0.2005325147966106
 10
-0.0669529561117737
 20
0.2005325147966106
 10
-0.0669529561117737
 20
0.2371675099137969
 10
-0.0802747725180242
 20
0.2371675099137969
  0
LWPOLYLINE
  5
7DE1B343D9D5AA9
330
7DE1B343D9D5B78
100
AcDbEntity
  8
TEXT
100
AcDbPolyline
 90
        2
 70
     0
 43
0.0006660908203125
 10
-0.0403093232992762
 20
0.140584340968485
 10
-0.0403093232992762
 20
0.113940708155984
  0
LWPOLYLINE
  5
7DE1B343D9D5AAD
330
7DE1B343D9D5B78
100
AcDbEntity
  8
TEXT
100
AcDbPolyline
 90
        2
 70
     0
 43
0.0001332181640625
 10
-0.0403093232992762
 20
0.140584340968485
 10
-0.0303179609945856
 20
0.2005325147966106
  0
LWPOLYLINE
  5
7DE1B343D9D5AB1
330
7DE1B343D9D5B78
100
AcDbEntity
  8
TEXT
100
AcDbPolyline
 90
        2
 70
     0
 43
0.0001332181640625
 10
-0.0403093232992762
 20
0.113940708155984
 10
-0.0303179609945856
 20
0.1872106983903601
  0
LWPOLYLINE
  5
7DE1B343D9D5AB5
330
7DE1B343D9D5B78
100
AcDbEntity
  8
TEXT
100
AcDbPolyline
 90
        5
 70
     0
 43
0.0001332181640625
 10
-0.0802747725180242
 20
0.2571502345231709
 10
-0.0669529561117754
 20
0.2571502345231709
 10
-0.0669529561117754
 20
0.2937852296403607
 10
-0.0303179609945856
 20
0.2937852296403607
 10
-0.0303179609945856
 20
0.3071070460466077
  0
LWPOLYLINE
  5
7DE1B343D9D5ABC
330
7DE1B343D9D5B78
100
AcDbEntity
  8
TEXT
100
AcDbPolyline
 90
        5
 70
     0
 43
0.0001332181640625
 10
-0.0103352363852134
 20
0.3071070460466077
 10
-0.0103352363852134
 20
0.2937852296403607
 10
0.0262997587319764
 20
0.2937852296403607
 10
0.0262997587319764
 20
0.2571502345231709
 10
0.0396215751382252
 20
0.2571502345231709
  0
LWPOLYLINE
  5
7DE1B343D9D5AC3
330
7DE1B343D9D5B78
100
AcDbEntity
  8
TEXT
100
AcDbPolyline
 90
        2
 70
     0
 43
0.0001332181640625
 10
-0.0003438740805246
 20
0.140584340968485
 10
-0.0103352363852134
 20
0.2005325147966106
  0
LWPOLYLINE
  5
7DE1B343D9D5AC7
330
7DE1B343D9D5B78
100
AcDbEntity
  8
TEXT
100
AcDbPolyline
 90
        2
 70
     0
 43
0.0001332181640625
 10
-0.0103352363852134
 20
0.1872106983903601
 10
-0.0003438740805246
 20
0.113940708155984
  0
LWPOLYLINE
  5
7DE1B343D9D5ACB
330
7DE1B343D9D5B78
100
AcDbEntity
  8
TEXT
100
AcDbPolyline
 90
        2
 70
     0
 43
0.0006660908203125
 10
-0.0003438740805246
 20
0.140584340968485
 10
-0.0003438740805246
 20
0.113940708155984
  0
LWPOLYLINE
  5
7DE1B343D9D5ACF
330
7DE1B343D9D5B78
100
AcDbEntity
  8
TEXT
100
AcDbPolyline
 90
        5
 70
     0
 43
0.0001332181640625
 10
0.0396215751382252
 20
0.2371675099137969
 10
0.0262997587319764
 20
0.2371675099137969
 10
0.0262997587319764
 20
0.2005325147966106
 10
-0.0103352363852134
 20
0.2005325147966106
 10
-0.0103352363852134
 20
0.1872106983903601
  0
LWPOLYLINE
  5
7DE1B343D9D5AD6
330
7DE1B343D9D5B78
100
AcDbEntity
  8
TEXT
100
AcDbPolyline
 90
        2
 70
     0
 43
0.0006660908203125
 10
0.0862479325601002
 20
0.2671415968278596
 10
0.1128915653726012
 20
0.2671415968278596
  0
LWPOLYLINE
  5
7DE1B343D9D5ADA
330
7DE1B343D9D5B78
100
AcDbEntity
  8
TEXT
100
AcDbPolyline
 90
        2
 70
     0
 43
0.0006660908203125
 10
0.0862479325601002
 20
0.2271761476091116
 10
0.1128915653726012
 20
0.2271761476091116
  0
LINE
  5
7DE1B343D9D5ADE
330
7DE1B343D9D5B78
100
AcDbEntity
  8
TEXT
100
AcDbLine
 10
0.3830057022206261
 20
0.3161003416242183
 30
0.0
 11
0.5499113562495975
 21
0.3161003416242183
 31
0.0
  0
LINE
  5
7DE1B343D9D5ADF
330
7DE1B343D9D5B78
100
AcDbEntity
  8
TEXT
100
AcDbLine
 10
0.4486058384649273
 20
0.2802956200135904
 30
0.0
 11
0.3830057022206261
 21
0.2802956200135904
 31
0.0
  0
LINE
  5
7DE1B343D9D5AE0
330
7DE1B343D9D5B78
100
AcDbEntity
  8
TEXT
100
AcDbLine
 10
0.2956809126598745
 20
0.1139040032924727
 30
0.0
 11
0.4486058384649273
 21
0.1139040032924727
 31
0.0
  0
LINE
  5
7DE1B343D9D5AE1
330
7DE1B343D9D5B78
100
AcDbEntity
  8
TEXT
100
AcDbLine
 10
0.4535462123712069
 20
0.1822610096259121
 30
0.0
 11
0.2956809126598727
 21
0.1822610096259121
 31
0.0
  0
LINE
  5
7DE1B343D9D5AE2
330
7DE1B343D9D5B78
100
AcDbEntity
  8
TEXT
100
AcDbLine
 10
0.377768372106378
 20
0.2162021173879767
 30
0.0
 11
0.4535462123712069
 21
0.2162021173879767
 31
0.0
  0
ARC
  5
7DE1B343D9D5AE3
330
7DE1B343D9D5B78
100
AcDbEntity
  8
TEXT
100
AcDbCircle
 10
0.383005702220627
 20
0.2981979808189061
 30
0.0
 40
0.017902360805315
100
AcDbArc
 50
90.0
 51
270.0
  0
LINE
  5
7DE1B343D9D5AE4
330
7DE1B343D9D5B78
100
AcDbEntity
  8
TEXT
100
AcDbLine
 10
0.2956809126598727
 20
0.1822610096259121
 30
0.0
 11
0.2956809126598745
 21
0.1139040032924727
 31
0.0
  0
LINE
  5
7DE1B343D9D5AE5
330
7DE1B343D9D5B78
100
AcDbEntity
  8
TEXT
100
AcDbLine
 10
0.5499113562495975
 20
0.3161003416242183
 30
0.0
 11
0.5499113562495975
 21
0.1736963946305225
 31
0.0
  0
ARC
  5
7DE1B343D9D5AE6
330
7DE1B343D9D5B78
100
AcDbEntity
  8
TEXT
100
AcDbCircle
 10
0.4486058384649282
 20
0.1970998116530298
 30
0.0
 40
0.0831958083605586
100
AcDbArc
 50
270.0
 51
90.0
  0
ARC
  5
7DE1B343D9D5AE7
330
7DE1B343D9D5B78
100
AcDbEntity
  8
TEXT
100
AcDbCircle
 10
0.4535462123712078
 20
0.1992315635069461
 30
0.0
 40
0.0169705538810321
100
AcDbArc
 50
270.0
 51
90.0
  0
LWPOLYLINE
  5
7DE1B343D9D5AE8
330
7DE1B343D9D5B78
100
AcDbEntity
  8
TEXT
100
AcDbPolyline
 90
        2
 70
     0
 43
0.0006660908203125
 10
-0.0403093232992762
 20
0.3537334034684862
 10
-0.0403093232992762
 20
0.3803770362809873
  0
LWPOLYLINE
  5
7DE1B343D9D5AEC
330
7DE1B343D9D5B78
100
AcDbEntity
  8
TEXT
100
AcDbPolyline
 90
        2
 70
     0
 43
0.0006660908203125
 10
-0.0003438740805246
 20
0.3537334034684862
 10
-0.0003438740805246
 20
0.3803770362809873
  0
LINE
  5
7DE1B343D9D5AF0
330
7DE1B343D9D5B78
100
AcDbEntity
  8
TEXT
100
AcDbLine
 10
0.5535001250048904
 20
0.3803770362809837
 30
0.0
 11
0.377768372106378
 21
0.3803770362809837
 31
0.0
  0
LINE
  5
7DE1B343D9D5AF1
330
7DE1B343D9D5B78
100
AcDbEntity
  8
TEXT
100
AcDbLine
 10
0.5535001250048904
 20
0.4147649538751219
 30
0.0
 11
0.5535001250048904
 21
0.3803770362809837
 31
0.0
  0
LINE
  5
7DE1B343D9D5AF2
330
7DE1B343D9D5B78
100
AcDbEntity
  8
TEXT
100
AcDbLine
 10
0.7439720170247427
 20
0.2795050401678631
 30
0.0
 11
0.6853416959928048
 21
0.3803770362809837
 31
0.0
  0
LINE
  5
7DE1B343D9D5AF3
330
7DE1B343D9D5B78
100
AcDbEntity
  8
TEXT
100
AcDbLine
 10
0.8027205798306081
 20
0.3803770362809837
 30
0.0
 11
0.7439720170247427
 21
0.2795050401678631
 31
0.0
  0
LINE
  5
7DE1B343D9D5AF4
330
7DE1B343D9D5B78
100
AcDbEntity
  8
TEXT
100
AcDbLine
 10
0.8996512051903494
 20
0.1962918413954719
 30
0.0
 11
0.8996512051903494
 21
0.4483885140197943
 31
0.0
  0
LINE
  5
7DE1B343D9D5AF5
330
7DE1B343D9D5B78
100
AcDbEntity
  8
TEXT
100
AcDbLine
 10
0.9319630593280095
 20
0.3803770362809837
 30
0.0
 11
0.9319630593280095
 21
0.1795128295485755
 31
0.0
  0
LINE
  5
7DE1B343D9D5AF6
330
7DE1B343D9D5B78
100
AcDbEntity
  8
TEXT
100
AcDbLine
 10
0.9319630593280095
 20
0.1795128295485755
 30
0.0
 11
0.9149694224434082
 21
0.1795128295485755
 31
0.0
  0
LINE
  5
7DE1B343D9D5AF7
330
7DE1B343D9D5B78
100
AcDbEntity
  8
TEXT
100
AcDbLine
 10
0.9007907786865441
 20
0.1139040032924727
 30
0.0
 11
0.9987941123859787
 21
0.1139040032924727
 31
0.0
  0
LINE
  5
7DE1B343D9D5AF8
330
7DE1B343D9D5B78
100
AcDbEntity
  8
TEXT
100
AcDbLine
 10
0.7343717800277883
 20
0.1338625093974857
 30
0.0
 11
0.8316714861212329
 21
0.2982127203327538
 31
0.0
  0
ARC
  5
7DE1B343D9D5AF9
330
7DE1B343D9D5B78
100
AcDbEntity
  8
TEXT
100
AcDbCircle
 10
0.7003282201155744
 20
0.1534517255661685
 30
0.0
 40
0.0392772371940762
100
AcDbArc
 50
270.1604552698595
 51
330.0831797321295
  0
LINE
  5
7DE1B343D9D5AFA
330
7DE1B343D9D5B78
100
AcDbEntity
  8
TEXT
100
AcDbLine
 10
0.6037979637297032
 20
0.1139040032924727
 30
0.0
 11
0.7004382148046976
 21
0.114174642390755
 31
0.0
  0
LWPOLYLINE
  5
7DE1B343D9D5AFB
330
7DE1B343D9D5B78
100
AcDbEntity
  8
TEXT
100
AcDbPolyline
 90
        6
 70
     1
 43
0.0
 10
0.6463217673048528
 20
0.3161003416242183
 10
0.6160051730846446
 20
0.3161003416242183
 10
0.6160051730846446
 20
0.1929893435693239
 42
0.407328721240804
 10
0.627548824246121
 20
0.1811704288929379
 10
0.6881705232908518
 20
0.1811704288929379
 10
0.7056358636981697
 20
0.213982657936417
  0
LINE
  5
7DE1B343D9D5B03
330
7DE1B343D9D5B78
100
AcDbEntity
  8
TEXT
100
AcDbLine
 10
0.8316714861212329
 20
0.2982127203327538
 30
0.0
 11
0.8316714861212329
 21
0.1654553455073975
 31
0.0
  0
ARC
  5
7DE1B343D9D5B04
330
7DE1B343D9D5B78
100
AcDbEntity
  8
TEXT
100
AcDbCircle
 10
0.9149694224434064
 20
0.1948946357920009
 30
0.0
 40
0.0153818062434269
100
AcDbArc
 50
174.7883570302258
 51
270.0
  0
LWPOLYLINE
  5
7DE1B343D9D5B05
330
7DE1B343D9D5B78
100
AcDbEntity
  8
TEXT
100
AcDbPolyline
 90
        2
 70
     0
 43
0.0
 10
0.8316714861212311
 20
0.165455345507401
 42
0.3318488747599744
 10
0.9007907786865441
 20
0.1139040032924727
 42
-6.868794160588311
  0
LINE
  5
7DE1B343D9D5B09
330
7DE1B343D9D5B78
100
AcDbEntity
  8
TEXT
100
AcDbLine
 10
1.056183181375239
 20
0.1139040032924727
 30
0.0
 11
1.123241228157079
 21
0.1139040032924727
 31
0.0
  0
LINE
  5
7DE1B343D9D5B0A
330
7DE1B343D9D5B78
100
AcDbEntity
  8
TEXT
100
AcDbLine
 10
1.056183181375239
 20
0.3085465524581084
 30
0.0
 11
1.056183181375239
 21
0.1139040032924727
 31
0.0
  0
LINE
  5
7DE1B343D9D5B0B
330
7DE1B343D9D5B78
100
AcDbEntity
  8
TEXT
100
AcDbLine
 10
0.9987941123859787
 20
0.3161003416242183
 30
0.0
 11
1.048629392209126
 21
0.3161003416242183
 31
0.0
  0
LINE
  5
7DE1B343D9D5B0C
330
7DE1B343D9D5B78
100
AcDbEntity
  8
TEXT
100
AcDbLine
 10
0.9987941123859787
 20
0.1139040032924727
 30
0.0
 11
0.9987941123859787
 21
0.3161003416242183
 31
0.0
  0
LWPOLYLINE
  5
7DE1B343D9D5B0D
330
7DE1B343D9D5B78
100
AcDbEntity
  8
TEXT
100
AcDbPolyline
 90
        2
 70
     0
 43
0.0
 10
1.048629392209124
 20
0.3161003416242183
 42
-0.4142135623731017
 10
1.056183181375238
 20
0.3085465524581084
 42
-0.9999999999999998
  0
LINE
  5
7DE1B343D9D5B11
330
7DE1B343D9D5B78
100
AcDbEntity
  8
TEXT
100
AcDbLine
 10
1.254439392986809
 20
0.3161003416242183
 30
0.0
 11
1.254439392986809
 21
0.2410479355500117
 31
0.0
  0
LINE
  5
7DE1B343D9D5B12
330
7DE1B343D9D5B78
100
AcDbEntity
  8
TEXT
100
AcDbLine
 10
1.123241228157079
 20
0.3161003416242183
 30
0.0
 11
1.17737482507803
 21
0.3161003416242183
 31
0.0
  0
LINE
  5
7DE1B343D9D5B13
330
7DE1B343D9D5B78
100
AcDbEntity
  8
TEXT
100
AcDbLine
 10
1.123241228157079
 20
0.1139040032924727
 30
0.0
 11
1.123241228157079
 21
0.3161003416242183
 31
0.0
  0
LWPOLYLINE
  5
7DE1B343D9D5B14
330
7DE1B343D9D5B78
100
AcDbEntity
  8
TEXT
100
AcDbPolyline
 90
        2
 70
     0
 43
0.0
 10
1.177374825078028
 20
0.3161003416242183
 42
-0.4142135623731017
 10
1.184928614244141
 20
0.3085465524581084
 42
-0.9999999999999998
  0
LWPOLYLINE
  5
7DE1B343D9D5B18
330
7DE1B343D9D5B78
100
AcDbEntity
  8
TEXT
100
AcDbPolyline
 90
        4
 70
     0
 43
0.0
 10
1.184928614244141
 20
0.3085465524581084
 10
1.184928614244141
 20
0.1139040032924727
 10
1.253406897531999
 20
0.1139040032924727
 10
1.253406897531999
 20
0.1573949482429109
 42
-1.714843617202739
  0
LINE
  5
7DE1B343D9D5B1E
330
7DE1B343D9D5B78
100
AcDbEntity
  8
TEXT
100
AcDbLine
 10
0.6135427298488974
 20
0.3803770362809837
 30
0.0
 11
0.6135427298488974
 21
0.4147649538751219
 31
0.0
  0
LINE
  5
7DE1B343D9D5B1F
330
7DE1B343D9D5B78
100
AcDbEntity
  8
TEXT
100
AcDbLine
 10
0.6853416959928048
 20
0.3803770362809837
 30
0.0
 11
0.6135427298488974
 21
0.3803770362809837
 31
0.0
  0
LINE
  5
7DE1B343D9D5B20
330
7DE1B343D9D5B78
100
AcDbEntity
  8
TEXT
100
AcDbLine
 10
0.8328424926239843
 20
0.3803770362809837
 30
0.0
 11
0.8027205798306081
 21
0.3803770362809837
 31
0.0
  0
LINE
  5
7DE1B343D9D5B21
330
7DE1B343D9D5B78
100
AcDbEntity
  8
TEXT
100
AcDbLine
 10
0.8328424926239843
 20
0.4483885140197943
 30
0.0
 11
0.8328424926239843
 21
0.3803770362809837
 31
0.0
  0
LINE
  5
7DE1B343D9D5B22
330
7DE1B343D9D5B78
100
AcDbEntity
  8
TEXT
100
AcDbLine
 10
0.8996512051903494
 20
0.4483885140197943
 30
0.0
 11
0.8328424926239843
 21
0.4483885140197943
 31
0.0
  0
LWPOLYLINE
  5
7DE1B343D9D5B23
330
7DE1B343D9D5B78
100
AcDbEntity
  8
TEXT
100
AcDbPolyline
 90
        3
 70
     0
 43
0.0
 10
1.220062964788351
 20
0.3803770362809873
 10
1.101762805972307
 20
0.3803770362809873
 10
1.101762805972307
 20
0.3532095395200914
 42
-1.960274751411753
  0
LINE
  5
7DE1B343D9D5B28
330
7DE1B343D9D5B78
100
AcDbEntity
  8
TEXT
100
AcDbLine
 10
1.065981115259145
 20
0.3803770362809837
 30
0.0
 11
0.9319630593280095
 21
0.3803770362809837
 31
0.0
  0
LWPOLYLINE
  5
7DE1B343D9D5B29
330
7DE1B343D9D5B78
100
AcDbEntity
  8
TEXT
100
AcDbPolyline
 90
        2
 70
     0
 43
0.0
 10
1.065981115259145
 20
0.3803770362809873
 42
-0.3328679258950098
 10
1.101762805972307
 20
0.3532095395200914
 42
6.772930709997214
  0
LINE
  5
7DE1B343D9D5B2D
330
7DE1B343D9D5B78
100
AcDbEntity
  8
TEXT
100
AcDbLine
 10
1.255844655501518
 20
0.3803770362809837
 30
0.0
 11
1.255844655501518
 21
0.3520544905113399
 31
0.0
  0
LWPOLYLINE
  5
7DE1B343D9D5B2E
330
7DE1B343D9D5B78
100
AcDbEntity
  8
TEXT
100
AcDbPolyline
 90
        2
 70
     0
 43
0.0
 10
1.220062964788351
 20
0.3803770362809873
 42
-0.3277054968067132
 10
1.255844655501516
 20
0.3520544905113434
 42
6.667889725900311
  0
LINE
  5
7DE1B343D9D5B32
330
7DE1B343D9D5B78
100
AcDbEntity
  8
TEXT
100
AcDbLine
 10
1.469636503593618
 20
0.2751650577275564
 30
0.0
 11
1.425885732411716
 21
0.3574153337237016
 31
0.0
  0
LINE
  5
7DE1B343D9D5B33
330
7DE1B343D9D5B78
100
AcDbEntity
  8
TEXT
100
AcDbLine
 10
1.469636503593618
 20
0.3803770362809837
 30
0.0
 11
1.469636503593618
 21
0.2751650577275564
 31
0.0
  0
LINE
  5
7DE1B343D9D5B34
330
7DE1B343D9D5B78
100
AcDbEntity
  8
TEXT
100
AcDbLine
 10
1.697320242531987
 20
0.3045117098694456
 30
0.0
 11
1.697320242531987
 21
0.4458412420485845
 31
0.0
  0
LINE
  5
7DE1B343D9D5B35
330
7DE1B343D9D5B78
100
AcDbEntity
  8
TEXT
100
AcDbLine
 10
1.744418401087972
 20
0.3803770362809837
 30
0.0
 11
1.697320242531987
 21
0.3045117098694456
 31
0.0
  0
LINE
  5
7DE1B343D9D5B36
330
7DE1B343D9D5B78
100
AcDbEntity
  8
TEXT
100
AcDbLine
 10
1.754853117851894
 20
0.2704837933400102
 30
0.0
 11
1.8194102338176
 21
0.3803770362809837
 31
0.0
  0
LINE
  5
7DE1B343D9D5B37
330
7DE1B343D9D5B78
100
AcDbEntity
  8
TEXT
100
AcDbLine
 10
1.633485251309214
 20
0.1139040032924727
 30
0.0
 11
1.697863435627834
 21
0.1139040032924727
 31
0.0
  0
LWPOLYLINE
  5
7DE1B343D9D5B38
330
7DE1B343D9D5B78
100
AcDbEntity
  8
TEXT
100
AcDbPolyline
 90
        2
 70
     0
 43
0.0
 10
1.473576180898656
 20
0.1573949482429109
 42
-0.2901071551932486
 10
1.430500248031011
 20
0.1139040032924727
 42
-5.328517124445184
  0
ARC
  5
7DE1B343D9D5B3C
330
7DE1B343D9D5B78
100
AcDbEntity
  8
TEXT
100
AcDbCircle
 10
1.361645666374097
 20
0.287740966624221
 30
0.0
 40
0.028359375
100
AcDbArc
 50
25.78218179591245
 51
90.0
  0
LINE
  5
7DE1B343D9D5B3D
330
7DE1B343D9D5B78
100
AcDbEntity
  8
TEXT
100
AcDbLine
 10
1.39744674167822
 20
0.278825368162086
 30
0.0
 11
1.387181981264655
 21
0.3000759077347803
 31
0.0
  0
LINE
  5
7DE1B343D9D5B3E
330
7DE1B343D9D5B78
100
AcDbEntity
  8
TEXT
100
AcDbLine
 10
1.315158751894837
 20
0.278825368162086
 30
0.0
 11
1.39744674167822
 21
0.278825368162086
 31
0.0
  0
LWPOLYLINE
  5
7DE1B343D9D5B3F
330
7DE1B343D9D5B78
100
AcDbEntity
  8
TEXT
100
AcDbPolyline
 90
        4
 70
     1
 43
0.0
 10
1.410377782961119
 20
0.216867981276498
 10
1.32171746430126
 20
0.216867981276498
 42
0.9999999999999998
 10
1.32171746430126
 20
0.1744694407726373
 10
1.410377782961119
 20
0.1744694407726373
 42
1.0
  0
LWPOLYLINE
  5
7DE1B343D9D5B45
330
7DE1B343D9D5B78
100
AcDbEntity
  8
TEXT
100
AcDbPolyline
 90
        2
 70
     0
 43
0.0
 10
1.296482830399635
 20
0.1139040032924727
 10
1.430500248031011
 20
0.1139040032924727
 42
0.9999999999999998
  0
LINE
  5
7DE1B343D9D5B49
330
7DE1B343D9D5B78
100
AcDbEntity
  8
TEXT
100
AcDbLine
 10
1.556837270016651
 20
0.3161003416242183
 30
0.0
 11
1.633485251309209
 21
0.3161003416242183
 31
0.0
  0
LINE
  5
7DE1B343D9D5B4A
330
7DE1B343D9D5B78
100
AcDbEntity
  8
TEXT
100
AcDbLine
 10
1.633485251309209
 20
0.3161003416242183
 30
0.0
 11
1.633485251309214
 21
0.1139040032924727
 31
0.0
  0
ARC
  5
7DE1B343D9D5B4B
330
7DE1B343D9D5B78
100
AcDbEntity
  8
TEXT
100
AcDbCircle
 10
1.556837270016649
 20
0.2911944663415555
 30
0.0
 40
0.0249058752826653
100
AcDbArc
 50
89.99971217465335
 51
179.9999999999985
  0
LINE
  5
7DE1B343D9D5B4C
330
7DE1B343D9D5B78
100
AcDbEntity
  8
TEXT
100
AcDbLine
 10
1.531931394733992
 20
0.1139040032924727
 30
0.0
 11
1.531931394733986
 21
0.2911945087239411
 31
0.0
  0
LWPOLYLINE
  5
7DE1B343D9D5B4D
330
7DE1B343D9D5B78
100
AcDbEntity
  8
TEXT
100
AcDbPolyline
 90
        2
 70
     0
 43
0.0
 10
1.473576180898656
 20
0.1139040032924727
 10
1.53193139473399
 20
0.1139040032924727
  0
LWPOLYLINE
  5
7DE1B343D9D5B51
330
7DE1B343D9D5B78
100
AcDbEntity
  8
TEXT
100
AcDbPolyline
 90
        2
 70
     0
 43
0.0
 10
1.473576180898656
 20
0.1573949482429109
 10
1.473576180898656
 20
0.1139040032924727
  0
LINE
  5
7DE1B343D9D5B55
330
7DE1B343D9D5B78
100
AcDbEntity
  8
TEXT
100
AcDbLine
 10
1.850345341215505
 20
0.1139040032924727
 30
0.0
 11
1.754853117851894
 21
0.2704837933400102
 31
0.0
  0
LINE
  5
7DE1B343D9D5B56
330
7DE1B343D9D5B78
100
AcDbEntity
  8
TEXT
100
AcDbLine
 10
1.773766968839299
 20
0.1139040032924727
 30
0.0
 11
1.850345341215505
 21
0.1139040032924727
 31
0.0
  0
LINE
  5
7DE1B343D9D5B57
330
7DE1B343D9D5B78
100
AcDbEntity
  8
TEXT
100
AcDbLine
 10
1.697863435627834
 20
0.245483571768653
 30
0.0
 11
1.773766968839299
 21
0.1139040032924727
 31
0.0
  0
LINE
  5
7DE1B343D9D5B58
330
7DE1B343D9D5B78
100
AcDbEntity
  8
TEXT
100
AcDbLine
 10
1.697863435627834
 20
0.1139040032924727
 30
0.0
 11
1.697863435627834
 21
0.245483571768653
 31
0.0
  0
LINE
  5
7DE1B343D9D5B59
330
7DE1B343D9D5B78
100
AcDbEntity
  8
TEXT
100
AcDbLine
 10
1.697320242531987
 20
0.4458412420485845
 30
0.0
 11
1.629005363982714
 21
0.4458412420485845
 31
0.0
  0
ARC
  5
7DE1B343D9D5B5A
330
7DE1B343D9D5B78
100
AcDbEntity
  8
TEXT
100
AcDbCircle
 10
1.388649624941508
 20
0.3387934691600813
 30
0.0
 40
0.0416329381542859
100
AcDbArc
 50
26.56974201007528
 51
87.20939649401342
  0
LINE
  5
7DE1B343D9D5B5B
330
7DE1B343D9D5B78
100
AcDbEntity
  8
TEXT
100
AcDbLine
 10
1.533533409893119
 20
0.3803770362809837
 30
0.0
 11
1.469636503593618
 21
0.3803770362809837
 31
0.0
  0
LINE
  5
7DE1B343D9D5B5C
330
7DE1B343D9D5B78
100
AcDbEntity
  8
TEXT
100
AcDbLine
 10
1.533533409893119
 20
0.3528293864201091
 30
0.0
 11
1.533533409893119
 21
0.3803770362809837
 31
0.0
  0
ARC
  5
7DE1B343D9D5B5D
330
7DE1B343D9D5B78
100
AcDbEntity
  8
TEXT
100
AcDbCircle
 10
1.564726226956227
 20
0.3491313089987189
 30
0.0
 40
0.0314112657011332
100
AcDbArc
 50
95.88484768694724
 51
173.2388340632136
  0
LINE
  5
7DE1B343D9D5B5E
330
7DE1B343D9D5B78
100
AcDbEntity
  8
TEXT
100
AcDbLine
 10
1.629005363982708
 20
0.3803770362809837
 30
0.0
 11
1.561505646333192
 21
0.3803770362809837
 31
0.0
  0
LINE
  5
7DE1B343D9D5B5F
330
7DE1B343D9D5B78
100
AcDbEntity
  8
TEXT
100
AcDbLine
 10
1.629005363982714
 20
0.4458412420485845
 30
0.0
 11
1.629005363982708
 21
0.3803770362809837
 31
0.0
  0
LINE
  5
7DE1B343D9D5B60
330
7DE1B343D9D5B78
100
AcDbEntity
  8
TEXT
100
AcDbLine
 10
1.8194102338176
 20
0.3803770362809837
 30
0.0
 11
1.744418401087973
 21
0.3803770362809837
 31
0.0
  0
ENDSEC
  0
SECTION
  2
OBJECTS
  0
DICTIONARY
  5
7DE1B343D9D5B6C
330
0
100
AcDbDictionary
  3
ACAD_GROUP
350
7DE1B343D9D5B6D
  3
ACAD_LAYOUT
350
7DE1B343D9D5B92
  3
ACAD_MLINESTYLE
350
7DE1B343D9D5B6E
  3
ACAD_PLOTSETTINGS
350
7DE1B343D9D5B93
  3
ACAD_PLOTSTYLENAME
350
7DE1B343D9D5B90
  3
ACDBHEADERROUNDTRIPXREC
350
7DE1B343D9D5B9D
  3
ACDBVARIABLEDICTIONARY
350
7DE1B343D9D5B9A
  0
DICTIONARY
  5
7DE1B343D9D5BBF
330
7DE1B343D9D5B78
100
AcDbDictionary
280
     1
  3
ACAD_LAYOUTSELFREF
360
7DE1B343D9D5BC0
  0
DICTIONARY
  5
7DE1B343D9D5BBD
330
7DE1B343D9D5B75
100
AcDbDictionary
280
     1
  3
ACAD_LAYOUTSELFREF
360
7DE1B343D9D5BBE
  0
DICTIONARY
  5
7DE1B343D9D5B6D
102
{ACAD_REACTORS
330
7DE1B343D9D5B6C
102
}
330
7DE1B343D9D5B6C
100
AcDbDictionary
  0
DICTIONARY
  5
7DE1B343D9D5B92
102
{ACAD_REACTORS
330
7DE1B343D9D5B6C
102
}
330
7DE1B343D9D5B6C
100
AcDbDictionary
  0
DICTIONARY
  5
7DE1B343D9D5B6E
102
{ACAD_REACTORS
330
7DE1B343D9D5B6C
102
}
330
7DE1B343D9D5B6C
100
AcDbDictionary
  3
STANDARD
350
7DE1B343D9D5B7B
  0
DICTIONARY
  5
7DE1B343D9D5B93
102
{ACAD_REACTORS
330
7DE1B343D9D5B6C
102
}
330
7DE1B343D9D5B6C
100
AcDbDictionary
  0
ACDBDICTIONARYWDFLT
  5
7DE1B343D9D5B90
102
{ACAD_REACTORS
330
7DE1B343D9D5B6C
102
}
330
7DE1B343D9D5B6C
100
AcDbDictionary
281
     1
  3
Normal
350
7DE1B343D9D5B91
100
AcDbDictionaryWithDefault
340
7DE1B343D9D5B91
  0
DICTIONARY
  5
7DE1B343D9D5B9D
102
{ACAD_REACTORS
330
7DE1B343D9D5B6C
102
}
330
7DE1B343D9D5B6C
100
AcDbDictionary
  3
CEPSNTYPE
350
7DE1B343D9D5BA7
  3
FINGERPRINTGUID
350
7DE1B343D9D5BA8
  3
HYPERLINKBASE
350
7DE1B343D9D5BA0
  3
INSUNITS
350
7DE1B343D9D5BA6
  3
LAYOUTDICT
350
7DE1B343D9D5BA2
  3
LWETCUNION
350
7DE1B343D9D5BA5
  3
PLOTSETDICT
350
7DE1B343D9D5BA3
  3
PLOTSTYLNAMDICT
350
7DE1B343D9D5BA4
  3
PSVPSCALE
350
7DE1B343D9D5BAA
  3
PUCSBASE
350
7DE1B343D9D5BAD
  3
PUCSORGBACK
350
7DE1B343D9D5BB3
  3
PUCSORGBOTTOM
350
7DE1B343D9D5BAF
  3
PUCSORGFRONT
350
7DE1B343D9D5BB2
  3
PUCSORGLEFT
350
7DE1B343D9D5BB0
  3
PUCSORGRIGHT
350
7DE1B343D9D5BB1
  3
PUCSORGTOP
350
7DE1B343D9D5BAE
  3
PUCSORTHOREF
350
7DE1B343D9D5BAB
  3
PUCSORTHOVIEW
350
7DE1B343D9D5BAC
  3
STYLESHEET
350
7DE1B343D9D5BA1
  3
TSTACKALIGN
350
7DE1B343D9D5B9E
  3
TSTACKSIZE
350
7DE1B343D9D5B9F
  3
UCSBASE
350
7DE1B343D9D5BB6
  3
UCSORGBACK
350
7DE1B343D9D5BBC
  3
UCSORGBOTTOM
350
7DE1B343D9D5BB8
  3
UCSORGFRONT
350
7DE1B343D9D5BBB
  3
UCSORGLEFT
350
7DE1B343D9D5BB9
  3
UCSORGRIGHT
350
7DE1B343D9D5BBA
  3
UCSORGTOP
350
7DE1B343D9D5BB7
  3
UCSORTHOREF
350
7DE1B343D9D5BB4
  3
UCSORTHOVIEW
350
7DE1B343D9D5BB5
  3
VERSIONGUID
350
7DE1B343D9D5BA9
  0
DICTIONARY
  5
7DE1B343D9D5B9A
102
{ACAD_REACTORS
330
7DE1B343D9D5B6C
102
}
330
7DE1B343D9D5B6C
100
AcDbDictionary
  3
DIMASSOC
350
7DE1B343D9D5B9B
  0
XRECORD
  5
7DE1B343D9D5BC0
102
{ACAD_REACTORS
330
7DE1B343D9D5BBF
102
}
330
7DE1B343D9D5BBF
100
AcDbXrecord
340
7DE1B343D9D5B78
  0
XRECORD
  5
7DE1B343D9D5BBE
102
{ACAD_REACTORS
330
7DE1B343D9D5BBD
102
}
330
7DE1B343D9D5BBD
100
AcDbXrecord
340
7DE1B343D9D5B75
  0
MLINESTYLE
  5
7DE1B343D9D5B7B
102
{ACAD_REACTORS
330
7DE1B343D9D5B6E
102
}
330
7DE1B343D9D5B6E
100
AcDbMlineStyle
  2
STANDARD
 70
     0
  3

 62
     0
 51
90.0
 52
90.0
 71
     2
 49
0.5
 62
   256
  6
BYLAYER
 49
-0.5
 62
   256
  6
BYLAYER
  0
ACDBPLACEHOLDER
  5
7DE1B343D9D5B91
102
{ACAD_REACTORS
330
7DE1B343D9D5B90
102
}
330
7DE1B343D9D5B90
100
AcDbPlaceHolder
280
     0
  0
XRECORD
  5
7DE1B343D9D5BA7
102
{ACAD_REACTORS
330
7DE1B343D9D5B9D
102
}
330
7DE1B343D9D5B9D
100
AcDbXrecord
 90
        0
  0
XRECORD
  5
7DE1B343D9D5BA8
102
{ACAD_REACTORS
330
7DE1B343D9D5B9D
102
}
330
7DE1B343D9D5B9D
100
AcDbXrecord
  1
{CFF54DE0-8DB4-11D6-88E6-0090279574E7}
  0
XRECORD
  5
7DE1B343D9D5BA0
102
{ACAD_REACTORS
330
7DE1B343D9D5B9D
102
}
330
7DE1B343D9D5B9D
100
AcDbXrecord
  1

  0
XRECORD
  5
7DE1B343D9D5BA6
102
{ACAD_REACTORS
330
7DE1B343D9D5B9D
102
}
330
7DE1B343D9D5B9D
100
AcDbXrecord
 90
        0
  0
XRECORD
  5
7DE1B343D9D5BA2
102
{ACAD_REACTORS
330
7DE1B343D9D5B9D
102
}
330
7DE1B343D9D5B9D
100
AcDbXrecord
340
7DE1B343D9D5B92
  0
XRECORD
  5
7DE1B343D9D5BA5
102
{ACAD_REACTORS
330
7DE1B343D9D5B9D
102
}
330
7DE1B343D9D5B9D
100
AcDbXrecord
 90
    14877
  0
XRECORD
  5
7DE1B343D9D5BA3
102
{ACAD_REACTORS
330
7DE1B343D9D5B9D
102
}
330
7DE1B343D9D5B9D
100
AcDbXrecord
340
7DE1B343D9D5B93
  0
XRECORD
  5
7DE1B343D9D5BA4
102
{ACAD_REACTORS
330
7DE1B343D9D5B9D
102
}
330
7DE1B343D9D5B9D
100
AcDbXrecord
340
7DE1B343D9D5B90
  0
XRECORD
  5
7DE1B343D9D5BAA
102
{ACAD_REACTORS
330
7DE1B343D9D5B9D
102
}
330
7DE1B343D9D5B9D
100
AcDbXrecord
 40
0.0
  0
XRECORD
  5
7DE1B343D9D5BAD
102
{ACAD_REACTORS
330
7DE1B343D9D5B9D
102
}
330
7DE1B343D9D5B9D
100
AcDbXrecord
340
0
  0
XRECORD
  5
7DE1B343D9D5BB3
102
{ACAD_REACTORS
330
7DE1B343D9D5B9D
102
}
330
7DE1B343D9D5B9D
100
AcDbXrecord
 10
0.0
 20
0.0
 30
0.0
  0
XRECORD
  5
7DE1B343D9D5BAF
102
{ACAD_REACTORS
330
7DE1B343D9D5B9D
102
}
330
7DE1B343D9D5B9D
100
AcDbXrecord
 10
0.0
 20
0.0
 30
0.0
  0
XRECORD
  5
7DE1B343D9D5BB2
102
{ACAD_REACTORS
330
7DE1B343D9D5B9D
102
}
330
7DE1B343D9D5B9D
100
AcDbXrecord
 10
0.0
 20
0.0
 30
0.0
  0
XRECORD
  5
7DE1B343D9D5BB0
102
{ACAD_REACTORS
330
7DE1B343D9D5B9D
102
}
330
7DE1B343D9D5B9D
100
AcDbXrecord
 10
0.0
 20
0.0
 30
0.0
  0
XRECORD
  5
7DE1B343D9D5BB1
102
{ACAD_REACTORS
330
7DE1B343D9D5B9D
102
}
330
7DE1B343D9D5B9D
100
AcDbXrecord
 10
0.0
 20
0.0
 30
0.0
  0
XRECORD
  5
7DE1B343D9D5BAE
102
{ACAD_REACTORS
330
7DE1B343D9D5B9D
102
}
330
7DE1B343D9D5B9D
100
AcDbXrecord
 10
0.0
 20
0.0
 30
0.0
  0
XRECORD
  5
7DE1B343D9D5BAB
102
{ACAD_REACTORS
330
7DE1B343D9D5B9D
102
}
330
7DE1B343D9D5B9D
100
AcDbXrecord
340
0
  0
XRECORD
  5
7DE1B343D9D5BAC
102
{ACAD_REACTORS
330
7DE1B343D9D5B9D
102
}
330
7DE1B343D9D5B9D
100
AcDbXrecord
 70
     0
  0
XRECORD
  5
7DE1B343D9D5BA1
102
{ACAD_REACTORS
330
7DE1B343D9D5B9D
102
}
330
7DE1B343D9D5B9D
100
AcDbXrecord
  1

  0
XRECORD
  5
7DE1B343D9D5B9E
102
{ACAD_REACTORS
330
7DE1B343D9D5B9D
102
}
330
7DE1B343D9D5B9D
100
AcDbXrecord
 90
        1
  0
XRECORD
  5
7DE1B343D9D5B9F
102
{ACAD_REACTORS
330
7DE1B343D9D5B9D
102
}
330
7DE1B343D9D5B9D
100
AcDbXrecord
 90
       70
  0
XRECORD
  5
7DE1B343D9D5BB6
102
{ACAD_REACTORS
330
7DE1B343D9D5B9D
102
}
330
7DE1B343D9D5B9D
100
AcDbXrecord
340
0
  0
XRECORD
  5
7DE1B343D9D5BBC
102
{ACAD_REACTORS
330
7DE1B343D9D5B9D
102
}
330
7DE1B343D9D5B9D
100
AcDbXrecord
 10
0.0
 20
0.0
 30
0.0
  0
XRECORD
  5
7DE1B343D9D5BB8
102
{ACAD_REACTORS
330
7DE1B343D9D5B9D
102
}
330
7DE1B343D9D5B9D
100
AcDbXrecord
 10
0.0
 20
0.0
 30
0.0
  0
XRECORD
  5
7DE1B343D9D5BBB
102
{ACAD_REACTORS
330
7DE1B343D9D5B9D
102
}
330
7DE1B343D9D5B9D
100
AcDbXrecord
 10
0.0
 20
0.0
 30
0.0
  0
XRECORD
  5
7DE1B343D9D5BB9
102
{ACAD_REACTORS
330
7DE1B343D9D5B9D
102
}
330
7DE1B343D9D5B9D
100
AcDbXrecord
 10
0.0
 20
0.0
 30
0.0
  0
XRECORD
  5
7DE1B343D9D5BBA
102
{ACAD_REACTORS
330
7DE1B343D9D5B9D
102
}
330
7DE1B343D9D5B9D
100
AcDbXrecord
 10
0.0
 20
0.0
 30
0.0
  0
XRECORD
  5
7DE1B343D9D5BB7
102
{ACAD_REACTORS
330
7DE1B343D9D5B9D
102
}
330
7DE1B343D9D5B9D
100
AcDbXrecord
 10
0.0
 20
0.0
 30
0.0
  0
XRECORD
  5
7DE1B343D9D5BB4
102
{ACAD_REACTORS
330
7DE1B343D9D5B9D
102
}
330
7DE1B343D9D5B9D
100
AcDbXrecord
340
0
  0
XRECORD
  5
7DE1B343D9D5BB5
102
{ACAD_REACTORS
330
7DE1B343D9D5B9D
102
}
330
7DE1B343D9D5B9D
100
AcDbXrecord
 70
     0
  0
XRECORD
  5
7DE1B343D9D5BA9
102
{ACAD_REACTORS
330
7DE1B343D9D5B9D
102
}
330
7DE1B343D9D5B9D
100
AcDbXrecord
  1
{CFF54DE2-8DB4-11D6-88E6-0090279574E7}
  0
DICTIONARYVAR
  5
7DE1B343D9D5B9B
102
{ACAD_REACTORS
330
7DE1B343D9D5B9A
102
}
330
7DE1B343D9D5B9A
100
DictionaryVariables
280
     0
  1
1
  0
ENDSEC
  0
EOF
