  0
SECTION
  2
HEADER
  9
$ACADVER
  1
AC1014
  9
$ACADMAINTVER
 70
     9
  9
$DWGCODEPAGE
  3
ANSI_1252
  9
$INSBASE
 10
0.0
 20
0.0
 30
0.0
  9
$EXTMIN
 10
-0.629386889102203
 20
-0.1409561967011636
 30
0.0
  9
$EXTMAX
 10
2.855832432644925
 20
1.956809960500333
 30
0.0
  9
$LIMMIN
 10
0.0
 20
0.0
  9
$LIMMAX
 10
12.0
 20
9.0
  9
$ORTHOMODE
 70
     0
  9
$REGENMODE
 70
     1
  9
$FILLMODE
 70
     1
  9
$QTEXTMODE
 70
     0
  9
$MIRRTEXT
 70
     0
  9
$DRAGMODE
 70
     2
  9
$LTSCALE
 40
1.0
  9
$OSMODE
 70
    39
  9
$ATTMODE
 70
     1
  9
$TEXTSIZE
 40
0.125
  9
$TRACEWID
 40
0.05
  9
$TEXTSTYLE
  7
ROMANS
  9
$CLAYER
  8
0
  9
$CELTYPE
  6
BYLAYER
  9
$CECOLOR
 62
   256
  9
$CELTSCALE
 40
1.0
  9
$DELOBJ
 70
     1
  9
$DISPSILH
 70
     1
  9
$DIMSCALE
 40
2.0
  9
$DIMASZ
 40
0.125
  9
$DIMEXO
 40
0.125
  9
$DIMDLI
 40
0.38
  9
$DIMRND
 40
0.0
  9
$DIMDLE
 40
0.0
  9
$DIMEXE
 40
0.125
  9
$DIMTP
 40
0.01
  9
$DIMTM
 40
0.01
  9
$DIMTXT
 40
0.125
  9
$DIMCEN
 40
0.09
  9
$DIMTSZ
 40
0.0
  9
$DIMTOL
 70
     0
  9
$DIMLIM
 70
     0
  9
$DIMTIH
 70
     1
  9
$DIMTOH
 70
     1
  9
$DIMSE1
 70
     0
  9
$DIMSE2
 70
     1
  9
$DIMTAD
 70
     0
  9
$DIMZIN
 70
     4
  9
$DIMBLK
  1

  9
$DIMASO
 70
     1
  9
$DIMSHO
 70
     1
  9
$DIMPOST
  1

  9
$DIMAPOST
  1

  9
$DIMALT
 70
     0
  9
$DIMALTD
 70
     2
  9
$DIMALTF
 40
25.4
  9
$DIMLFAC
 40
0.5
  9
$DIMTOFL
 70
     0
  9
$DIMTVP
 40
0.0
  9
$DIMTIX
 70
     0
  9
$DIMSOXD
 70
     0
  9
$DIMSAH
 70
     0
  9
$DIMBLK1
  1

  9
$DIMBLK2
  1

  9
$DIMSTYLE
  2
STANDARD
  9
$DIMCLRD
 70
     0
  9
$DIMCLRE
 70
     0
  9
$DIMCLRT
 70
     0
  9
$DIMTFAC
 40
1.0
  9
$DIMGAP
 40
0.09
  9
$DIMJUST
 70
     0
  9
$DIMSD1
 70
     0
  9
$DIMSD2
 70
     0
  9
$DIMTOLJ
 70
     1
  9
$DIMTZIN
 70
     0
  9
$DIMALTZ
 70
     0
  9
$DIMALTTZ
 70
     0
  9
$DIMFIT
 70
     3
  9
$DIMUPT
 70
     0
  9
$DIMUNIT
 70
     2
  9
$DIMDEC
 70
     3
  9
$DIMTDEC
 70
     4
  9
$DIMALTU
 70
     2
  9
$DIMALTTD
 70
     2
  9
$DIMTXSTY
  7
ROMANS
  9
$DIMAUNIT
 70
     0
  9
$LUNITS
 70
     2
  9
$LUPREC
 70
     3
  9
$SKETCHINC
 40
0.1
  9
$FILLETRAD
 40
0.031
  9
$AUNITS
 70
     0
  9
$AUPREC
 70
     0
  9
$MENU
  1
AUTOMSTR
  9
$ELEVATION
 40
0.0
  9
$PELEVATION
 40
0.0
  9
$THICKNESS
 40
0.0
  9
$LIMCHECK
 70
     0
  9
$BLIPMODE
 70
     0
  9
$CHAMFERA
 40
0.0
  9
$CHAMFERB
 40
0.0
  9
$CHAMFERC
 40
0.0
  9
$CHAMFERD
 40
0.0
  9
$SKPOLY
 70
     0
  9
$TDCREATE
 40
2448086.486223379
  9
$TDUPDATE
 40
2452458.299457650
  9
$TDINDWG
 40
0.0809207060
  9
$TDUSRTIMER
 40
0.0809207060
  9
$USRTIMER
 70
     1
  9
$ANGBASE
 50
0.0
  9
$ANGDIR
 70
     0
  9
$PDMODE
 70
     0
  9
$PDSIZE
 40
0.0
  9
$PLINEWID
 40
0.0
  9
$COORDS
 70
     2
  9
$SPLFRAME
 70
     0
  9
$SPLINETYPE
 70
     6
  9
$SPLINESEGS
 70
     8
  9
$ATTDIA
 70
     0
  9
$ATTREQ
 70
     1
  9
$HANDLING
 70
 22529
  9
$HANDSEED
  5
59A
  9
$SURFTAB1
 70
     6
  9
$SURFTAB2
 70
     6
  9
$SURFTYPE
 70
     6
  9
$SURFU
 70
     6
  9
$SURFV
 70
     6
  9
$UCSNAME
  2

  9
$UCSORG
 10
0.0
 20
0.0
 30
0.0
  9
$UCSXDIR
 10
1.0
 20
0.0
 30
0.0
  9
$UCSYDIR
 10
0.0
 20
1.0
 30
0.0
  9
$PUCSNAME
  2

  9
$PUCSORG
 10
0.0
 20
0.0
 30
0.0
  9
$PUCSXDIR
 10
1.0
 20
0.0
 30
0.0
  9
$PUCSYDIR
 10
0.0
 20
1.0
 30
0.0
  9
$USERI1
 70
     0
  9
$USERI2
 70
     0
  9
$USERI3
 70
     0
  9
$USERI4
 70
     0
  9
$USERI5
 70
     0
  9
$USERR1
 40
0.0
  9
$USERR2
 40
0.0
  9
$USERR3
 40
0.0
  9
$USERR4
 40
0.0
  9
$USERR5
 40
0.0
  9
$WORLDVIEW
 70
     1
  9
$SHADEDGE
 70
     3
  9
$SHADEDIF
 70
    70
  9
$TILEMODE
 70
     1
  9
$MAXACTVP
 70
    16
  9
$PINSBASE
 10
0.0
 20
0.0
 30
0.0
  9
$PLIMCHECK
 70
     0
  9
$PEXTMIN
 10
1.000000000000000E+20
 20
1.000000000000000E+20
 30
1.000000000000000E+20
  9
$PEXTMAX
 10
-1.000000000000000E+20
 20
-1.000000000000000E+20
 30
-1.000000000000000E+20
  9
$PLIMMIN
 10
0.0
 20
0.0
  9
$PLIMMAX
 10
12.0
 20
9.0
  9
$UNITMODE
 70
     0
  9
$VISRETAIN
 70
     0
  9
$PLINEGEN
 70
     1
  9
$PSLTSCALE
 70
     0
  9
$TREEDEPTH
 70
  3020
  9
$PICKSTYLE
 70
     1
  9
$CMLSTYLE
  2
STANDARD
  9
$CMLJUST
 70
     0
  9
$CMLSCALE
 40
1.0
  9
$PROXYGRAPHICS
 70
     1
  9
$MEASUREMENT
 70
     0
  0
ENDSEC
  0
SECTION
  2
CLASSES
  0
CLASS
  1
LWPOLYLINE
  2
AcDbPolyline
  3
AutoCAD 2000
 90
        0
280
     0
281
     1
  0
CLASS
  1
ACDBDICTIONARYWDFLT
  2
AcDbDictionaryWithDefault
  3
AutoCAD 2000
 90
        0
280
     0
281
     0
  0
CLASS
  1
ACDBPLACEHOLDER
  2
AcDbPlaceHolder
  3
AutoCAD 2000
 90
        0
280
     0
281
     0
  0
CLASS
  1
LAYOUT
  2
AcDbLayout
  3
AutoCAD 2000
 90
        0
280
     0
281
     0
  0
CLASS
  1
DICTIONARYVAR
  2
AcDbDictionaryVar
  3
AutoCAD 2000
 90
        0
280
     0
281
     0
  0
CLASS
  1
LONG_TRANSACTION
  2
AcDbLongTransaction
  3
AutoCAD 2000
 90
        0
280
     0
281
     0
  0
CLASS
  1
LWPOLYLINE
  2
AcDbPolyline
  3
AutoCAD 2000
 90
        0
280
     0
281
     1
  0
CLASS
  1
HATCH
  2
AcDbHatch
  3
AutoCAD 2000
 90
        0
280
     0
281
     1
  0
CLASS
  1
XRECORD
  2
AcDbXrecord
  3
AutoCAD 2000
 90
        0
280
     0
281
     0
  0
ENDSEC
  0
SECTION
  2
TABLES
  0
TABLE
  2
VPORT
  5
8
330
0
100
AcDbSymbolTable
 70
     2
  0
VPORT
  5
575
330
8
100
AcDbSymbolTableRecord
100
AcDbViewportTableRecord
  2
*ACTIVE
 70
     0
 10
0.0
 20
0.0
 11
1.0
 21
1.0
 12
4.035518964719203
 22
0.9079027916347293
 13
0.0
 23
0.0
 14
0.015625
 24
0.015625
 15
0.0
 25
0.0
 16
0.0
 26
0.0
 36
1.0
 17
0.0
 27
0.0
 37
0.0
 40
2.163588541909627
 41
4.320930232558139
 42
50.0
 43
0.0
 44
0.0
 50
0.0
 51
0.0
 71
     0
 72
  2000
 73
     1
 74
     1
 75
     0
 76
     0
 77
     0
 78
     0
  0
ENDTAB
  0
TABLE
  2
LTYPE
  5
5
330
0
100
AcDbSymbolTable
 70
     1
  0
LTYPE
  5
12
330
5
100
AcDbSymbolTableRecord
100
AcDbLinetypeTableRecord
  2
BYBLOCK
 70
     0
  3

 72
    65
 73
     0
 40
0.0
  0
LTYPE
  5
13
330
5
100
AcDbSymbolTableRecord
100
AcDbLinetypeTableRecord
  2
BYLAYER
 70
     0
  3

 72
    65
 73
     0
 40
0.0
  0
LTYPE
  5
14
330
5
100
AcDbSymbolTableRecord
100
AcDbLinetypeTableRecord
  2
CONTINUOUS
 70
     0
  3
Solid line
 72
    65
 73
     0
 40
0.0
  0
ENDTAB
  0
TABLE
  2
LAYER
  5
2
330
0
100
AcDbSymbolTable
 70
     2
  0
LAYER
  5
F
330
2
100
AcDbSymbolTableRecord
100
AcDbLayerTableRecord
  2
0
 70
     0
 62
     7
  6
CONTINUOUS
  0
LAYER
  5
2D
330
2
100
AcDbSymbolTableRecord
100
AcDbLayerTableRecord
  2
TEXT
 70
     0
 62
     3
  6
CONTINUOUS
  0
ENDTAB
  0
TABLE
  2
STYLE
  5
3
330
0
100
AcDbSymbolTable
 70
     3
  0
STYLE
  5
10
330
3
100
AcDbSymbolTableRecord
100
AcDbTextStyleTableRecord
  2
STANDARD
 70
     0
 40
0.0
 41
1.0
 50
0.0
 71
     0
 42
0.125
  3
txt
  4

  0
STYLE
  5
461
330
3
100
AcDbSymbolTableRecord
100
AcDbTextStyleTableRecord
  2
ITALICC
 70
     0
 40
0.0
 41
1.0
 50
0.0
 71
     0
 42
0.125
  3
italicc
  4

  0
STYLE
  5
571
330
3
100
AcDbSymbolTableRecord
100
AcDbTextStyleTableRecord
  2
ROMANS
 70
     0
 40
0.0
 41
1.0
 50
0.0
 71
     0
 42
0.125
  3
romans.shx
  4

  0
ENDTAB
  0
TABLE
  2
VIEW
  5
6
330
0
100
AcDbSymbolTable
 70
     0
  0
ENDTAB
  0
TABLE
  2
UCS
  5
7
330
0
100
AcDbSymbolTable
 70
     0
  0
ENDTAB
  0
TABLE
  2
APPID
  5
9
330
0
100
AcDbSymbolTable
 70
     1
  0
APPID
  5
11
330
9
100
AcDbSymbolTableRecord
100
AcDbRegAppTableRecord
  2
ACAD
 70
     0
  0
ENDTAB
  0
TABLE
  2
DIMSTYLE
  5
A
330
0
100
AcDbSymbolTable
 70
     1
  0
DIMSTYLE
105
455
330
A
100
AcDbSymbolTableRecord
100
AcDbDimStyleTableRecord
  2
STANDARD
 70
     0
  3

  4

  5

  6

  7

 40
1.0
 41
0.18
 42
0.0625
 43
0.38
 44
0.18
 45
0.0
 46
0.0
 47
0.0
 48
0.0
140
0.18
141
0.09
142
0.0
143
25.4
144
1.0
145
0.0
146
1.0
147
0.09
 71
     0
 72
     0
 73
     1
 74
     1
 75
     0
 76
     0
 77
     0
 78
     0
170
     0
171
     2
172
     0
173
     0
174
     0
175
     0
176
     0
177
     0
178
     0
270
     2
271
     4
272
     4
273
     2
274
     2
340
10
275
     0
280
     0
281
     0
282
     0
283
     1
284
     0
285
     0
286
     0
287
     3
288
     0
  0
ENDTAB
  0
TABLE
  2
BLOCK_RECORD
  5
1
330
0
100
AcDbSymbolTable
 70
     0
  0
BLOCK_RECORD
  5
18
102
{ACAD_XDICTIONARY
360
598
102
}
330
1
100
AcDbSymbolTableRecord
100
AcDbBlockTableRecord
  2
*MODEL_SPACE
  0
BLOCK_RECORD
  5
15
102
{ACAD_XDICTIONARY
360
596
102
}
330
1
100
AcDbSymbolTableRecord
100
AcDbBlockTableRecord
  2
*PAPER_SPACE
  0
ENDTAB
  0
ENDSEC
  0
SECTION
  2
BLOCKS
  0
BLOCK
  5
35
330
18
100
AcDbEntity
  8
0
100
AcDbBlockBegin
  2
*MODEL_SPACE
 70
     0
 10
0.0
 20
0.0
 30
0.0
  3
*MODEL_SPACE
  1

  0
ENDBLK
  5
36
330
18
100
AcDbEntity
  8
0
100
AcDbBlockEnd
  0
BLOCK
  5
33
330
15
100
AcDbEntity
 67
     1
  8
0
100
AcDbBlockBegin
  2
*PAPER_SPACE
 70
     0
 10
0.0
 20
0.0
 30
0.0
  3
*PAPER_SPACE
  1

  0
ENDBLK
  5
34
330
15
100
AcDbEntity
 67
     1
  8
0
100
AcDbBlockEnd
  0
ENDSEC
  0
SECTION
  2
ENTITIES
  0
LWPOLYLINE
  5
1D6
330
18
100
AcDbEntity
  8
0
100
AcDbPolyline
 90
       52
 70
     1
 43
0.0
 10
1.171516284491012
 20
1.26738965028355
 10
1.120016284491012
 20
1.26738965028355
 10
1.120016284491014
 20
1.87838965028355
 10
1.190516284491014
 20
1.87838965028355
 42
0.4142135623730951
 10
1.221516284491014
 20
1.90938965028355
 10
1.221516284491014
 20
1.91938965028355
 42
0.4142135623730951
 10
1.190516284491014
 20
1.95038965028355
 10
1.089016284491013
 20
1.95038965028355
 10
0.9875162844910132
 20
1.95038965028355
 42
0.4142135623730951
 10
0.9565162844910135
 20
1.91938965028355
 10
0.9565162844910135
 20
1.90938965028355
 42
0.4142135623730951
 10
0.9875162844910132
 20
1.87838965028355
 10
1.058016284491013
 20
1.87838965028355
 10
1.058016284491013
 20
1.763389650283549
 10
1.068016284491013
 20
1.75338965028355
 10
1.058016284491014
 20
1.736069142207863
 10
1.058016284491013
 20
1.26738965028355
 10
1.006516284491013
 20
1.26738965028355
 10
1.006516284491013
 20
1.36138965028355
 10
0.9715162844910132
 20
1.36138965028355
 42
0.4142135623730951
 10
0.9565162844910135
 20
1.34638965028355
 10
0.9565162844910135
 20
1.01338965028355
 42
-0.4142135623731037
 10
0.9415162844910138
 20
0.9983896502835502
 10
0.8840162844910137
 20
0.9983896502835502
 42
0.4142135623730951
 10
0.869016284491014
 20
0.9833896502835505
 10
0.8690162844910123
 20
0.8143896502835501
 42
0.4142135623730992
 10
0.900016284491012
 20
0.7833896502835501
 10
0.9915162844910145
 20
0.7833896502835501
 42
0.4142135623730951
 10
1.006516284491014
 20
0.7983896502835501
 10
1.006516284491013
 20
0.8333896502835502
 10
0.919016284491013
 20
0.8333896502835502
 10
0.919016284491013
 20
0.94838965028355
 10
0.9915162844910136
 20
0.9483896502835495
 42
0.4142135623731037
 10
1.006516284491013
 20
0.9633896502835497
 10
1.006516284491013
 20
1.20538965028355
 10
1.171516284491012
 20
1.20538965028355
 10
1.171516284491011
 20
0.9633896502835497
 42
0.4142135623731038
 10
1.186516284491011
 20
0.9483896502835495
 10
1.259016284491011
 20
0.9483896502835495
 10
1.259016284491011
 20
0.8333896502835498
 10
1.171516284491011
 20
0.8333896502835502
 10
1.171516284491011
 20
0.7983896502835501
 42
0.4142135623730864
 10
1.186516284491011
 20
0.7833896502835501
 10
1.278016284491011
 20
0.7833896502835496
 42
0.4142135623730951
 10
1.30901628449101
 20
0.8143896502835492
 10
1.309016284491011
 20
0.9833896502835496
 42
0.4142135623730951
 10
1.294016284491012
 20
0.9983896502835493
 10
1.236516284491011
 20
0.9983896502835499
 42
-0.4142135623730864
 10
1.221516284491011
 20
1.013389650283549
 10
1.221516284491011
 20
1.34638965028355
 42
0.4142135623731037
 10
1.206516284491011
 20
1.36138965028355
 10
1.171516284491012
 20
1.36138965028355
  0
TEXT
  5
4E7
330
18
100
AcDbEntity
  8
TEXT
100
AcDbText
 10
0.3606184996487497
 20
0.3170624073814179
 30
0.0
 40
0.125
  1
PART #110183
  7
ITALICC
 72
     1
 11
1.11359469012494
 21
0.3170624073814179
 31
0.0
100
AcDbText
  0
LINE
  5
4E8
330
18
100
AcDbEntity
  8
TEXT
100
AcDbLine
 10
1.268909320148323
 20
0.1369854160183497
 30
0.0
 11
1.221811161592339
 21
0.0611200896068116
 31
0.0
  0
LINE
  5
4E9
330
18
100
AcDbEntity
  8
TEXT
100
AcDbLine
 10
1.221811161592339
 20
0.0611200896068116
 30
0.0
 11
1.221811161592339
 21
0.2024496217859504
 31
0.0
  0
LINE
  5
4EA
330
18
100
AcDbEntity
  8
TEXT
100
AcDbLine
 10
1.221811161592339
 20
0.2024496217859504
 30
0.0
 11
1.153496283043065
 21
0.2024496217859504
 31
0.0
  0
LINE
  5
4EB
330
18
100
AcDbEntity
  8
TEXT
100
AcDbLine
 10
1.153496283043065
 20
0.2024496217859504
 30
0.0
 11
1.15349628304306
 21
0.1369854160183497
 31
0.0
  0
LINE
  5
4EC
330
18
100
AcDbEntity
  8
TEXT
100
AcDbLine
 10
1.279344036912246
 20
0.0270921730773761
 30
0.0
 11
1.343901152877951
 21
0.1369854160183497
 31
0.0
  0
LINE
  5
4ED
330
18
100
AcDbEntity
  8
TEXT
100
AcDbLine
 10
1.343901152877951
 20
0.1369854160183497
 30
0.0
 11
1.268909320148325
 21
0.1369854160183497
 31
0.0
  0
LINE
  5
4EE
330
18
100
AcDbEntity
  8
TEXT
100
AcDbLine
 10
1.157976170369566
 20
-0.1294876169701613
 30
0.0
 11
1.222354354688186
 21
-0.1294876169701613
 31
0.0
  0
LINE
  5
4EF
330
18
100
AcDbEntity
  8
TEXT
100
AcDbLine
 10
1.222354354688186
 20
-0.1294876169701613
 30
0.0
 11
1.222354354688186
 21
0.0020919515060189
 31
0.0
  0
LINE
  5
4F0
330
18
100
AcDbEntity
  8
TEXT
100
AcDbLine
 10
1.222354354688186
 20
0.0020919515060189
 30
0.0
 11
1.298257887899651
 21
-0.1294876169701613
 31
0.0
  0
LINE
  5
4F1
330
18
100
AcDbEntity
  8
TEXT
100
AcDbLine
 10
1.298257887899651
 20
-0.1294876169701613
 30
0.0
 11
1.374836260275857
 21
-0.1294876169701613
 31
0.0
  0
LINE
  5
4F2
330
18
100
AcDbEntity
  8
TEXT
100
AcDbLine
 10
1.15797617036956
 20
0.0727087213615843
 30
0.0
 11
1.157976170369566
 21
-0.1294876169701613
 31
0.0
  0
LINE
  5
4F3
330
18
100
AcDbEntity
  8
TEXT
100
AcDbLine
 10
1.374836260275857
 20
-0.1294876169701613
 30
0.0
 11
1.279344036912246
 21
0.0270921730773761
 31
0.0
  0
ARC
  5
4F4
330
18
100
AcDbEntity
  8
TEXT
100
AcDbCircle
 10
1.081328189077002
 20
0.0478028460789215
 30
0.0
 40
0.0249058752826653
100
AcDbArc
 50
89.99971217465335
 51
179.9999999999985
  0
ARC
  5
4F5
330
18
100
AcDbEntity
  8
TEXT
100
AcDbCircle
 10
1.089217146016579
 20
0.1057396887360849
 30
0.0
 40
0.0314112657011332
100
AcDbArc
 50
95.88484768694724
 51
173.2388340632136
  0
LINE
  5
4F6
330
18
100
AcDbEntity
  8
TEXT
100
AcDbLine
 10
1.058024328953471
 20
0.109437766157475
 30
0.0
 11
1.058024328953471
 21
0.1369854160183497
 31
0.0
  0
LINE
  5
4F7
330
18
100
AcDbEntity
  8
TEXT
100
AcDbLine
 10
1.058024328953471
 20
0.1369854160183497
 30
0.0
 11
0.9941274226539702
 21
0.1369854160183497
 31
0.0
  0
LINE
  5
4F8
330
18
100
AcDbEntity
  8
TEXT
100
AcDbLine
 10
0.9941274226539702
 20
0.1369854160183497
 30
0.0
 11
0.9941274226539702
 21
0.0317734374649224
 31
0.0
  0
LINE
  5
4F9
330
18
100
AcDbEntity
  8
TEXT
100
AcDbLine
 10
0.9151674837789292
 20
0.1369854160183497
 30
0.0
 11
0.7803355745618701
 21
0.1369854160183497
 31
0.0
  0
LINE
  5
4FA
330
18
100
AcDbEntity
  8
TEXT
100
AcDbLine
 10
0.7803355745618701
 20
0.1369854160183497
 30
0.0
 11
0.7803355745618701
 21
0.1086628702487058
 31
0.0
  0
LINE
  5
4FB
330
18
100
AcDbEntity
  8
TEXT
100
AcDbLine
 10
0.8396496709551888
 20
0.035433747899452
 30
0.0
 11
0.921937660738572
 21
0.035433747899452
 31
0.0
  0
LINE
  5
4FC
330
18
100
AcDbEntity
  8
TEXT
100
AcDbLine
 10
0.921937660738572
 20
0.035433747899452
 30
0.0
 11
0.9116729003250076
 21
0.0566842874721463
 31
0.0
  0
LINE
  5
4FD
330
18
100
AcDbEntity
  8
TEXT
100
AcDbLine
 10
0.8861365854344507
 20
0.0727087213615843
 30
0.0
 11
0.7789303120471614
 21
0.0727087213615843
 31
0.0
  0
ARC
  5
4FE
330
18
100
AcDbEntity
  8
TEXT
100
AcDbCircle
 10
0.8861365854344498
 20
0.044349346361587
 30
0.0
 40
0.028359375
100
AcDbArc
 50
25.78218179591245
 51
90.0
  0
LINE
  5
4FF
330
18
100
AcDbEntity
  8
TEXT
100
AcDbLine
 10
0.9941274226539702
 20
0.0317734374649224
 30
0.0
 11
0.9503766514720686
 21
0.1140237134610675
 31
0.0
  0
ARC
  5
500
330
18
100
AcDbEntity
  8
TEXT
100
AcDbCircle
 10
0.9131405440018607
 20
0.0954018488974473
 30
0.0
 40
0.0416329381542859
100
AcDbArc
 50
26.56974201007528
 51
87.20939649401342
  0
LWPOLYLINE
  5
501
330
18
100
AcDbEntity
  8
TEXT
100
AcDbPolyline
 90
        2
 70
     0
 43
0.0
 10
0.9980670999590088
 20
-0.0859966720197232
 42
-0.2901071551932486
 10
0.9549911670913644
 20
-0.1294876169701613
 42
-5.328517124445184
  0
LWPOLYLINE
  5
502
330
18
100
AcDbEntity
  8
TEXT
100
AcDbPolyline
 90
        2
 70
     0
 43
0.0
 10
0.9980670999590088
 20
-0.0859966720197232
 10
0.9980670999590088
 20
-0.1294876169701613
  0
LWPOLYLINE
  5
503
330
18
100
AcDbEntity
  8
TEXT
100
AcDbPolyline
 90
        2
 70
     0
 43
0.0
 10
0.9980670999590088
 20
-0.1294876169701613
 10
1.056422313794342
 20
-0.1294876169701613
  0
LWPOLYLINE
  5
504
330
18
100
AcDbEntity
  8
TEXT
100
AcDbPolyline
 90
        2
 70
     0
 43
0.0
 10
0.7778978165923523
 20
-0.0859966720197232
 42
0.2901071551932823
 10
0.8209737494599878
 20
-0.1294876169701613
 42
5.328517124445801
  0
LWPOLYLINE
  5
505
330
18
100
AcDbEntity
  8
TEXT
100
AcDbPolyline
 90
        2
 70
     0
 43
0.0
 10
0.8209737494599878
 20
-0.1294876169701613
 10
0.9549911670913644
 20
-0.1294876169701613
 42
0.9999999999999998
  0
LWPOLYLINE
  5
506
330
18
100
AcDbEntity
  8
TEXT
100
AcDbPolyline
 90
        4
 70
     1
 43
0.0
 10
0.9348687020214718
 20
-0.0265236389861361
 10
0.8462083833616134
 20
-0.0265236389861361
 42
0.9999999999999998
 10
0.8462083833616134
 20
-0.0689221794899968
 10
0.9348687020214718
 20
-0.0689221794899968
 42
1.0
  0
ARC
  5
507
330
18
100
AcDbEntity
  8
TEXT
100
AcDbCircle
 10
0.8396496709551879
 20
-0.0322518332446666
 30
0.0
 40
0.0676855811441166
100
AcDbArc
 50
90.0
 51
153.7768192527749
  0
LINE
  5
508
330
18
100
AcDbEntity
  8
TEXT
100
AcDbLine
 10
1.056422313794343
 20
-0.1294876169701613
 30
0.0
 11
1.056422313794338
 21
0.0478028884613071
 31
0.0
  0
LINE
  5
509
330
18
100
AcDbEntity
  8
TEXT
100
AcDbLine
 10
0.7789303120471614
 20
0.0727087213615843
 30
0.0
 11
0.7789303120471614
 21
-0.0023436847126224
 31
0.0
  0
LINE
  5
50A
330
18
100
AcDbEntity
  8
TEXT
100
AcDbLine
 10
1.081328189077003
 20
0.0727087213615843
 30
0.0
 11
1.15797617036956
 21
0.0727087213615843
 31
0.0
  0
LINE
  5
50B
330
18
100
AcDbEntity
  8
TEXT
100
AcDbLine
 10
1.15349628304306
 20
0.1369854160183497
 30
0.0
 11
1.085996565393544
 21
0.1369854160183497
 31
0.0
  0
LWPOLYLINE
  5
50C
330
18
100
AcDbEntity
  8
TEXT
100
AcDbPolyline
 90
        2
 70
     0
 43
0.0
 10
0.5731203112694772
 20
0.0727087213615843
 42
-0.4142135623731017
 10
0.5806741004355907
 20
0.0651549321954743
 42
-0.9999999999999998
  0
LWPOLYLINE
  5
50D
330
18
100
AcDbEntity
  8
TEXT
100
AcDbPolyline
 90
        2
 70
     0
 43
0.0
 10
0.7018657441383809
 20
0.0727087213615843
 42
-0.4142135623731017
 10
0.7094195333044944
 20
0.0651549321954743
 42
-0.9999999999999998
  0
LWPOLYLINE
  5
50E
330
18
100
AcDbEntity
  8
TEXT
100
AcDbPolyline
 90
        2
 70
     0
 43
0.0
 10
0.5904720343194985
 20
0.1369854160183532
 42
-0.3328679258950098
 10
0.6262537250326599
 20
0.1098179192574573
 42
6.772930709997214
  0
LWPOLYLINE
  5
50F
330
18
100
AcDbEntity
  8
TEXT
100
AcDbPolyline
 90
        3
 70
     0
 43
0.0
 10
0.7445538838487043
 20
0.1369854160183532
 10
0.6262537250326599
 20
0.1369854160183532
 10
0.6262537250326599
 20
0.1098179192574573
 42
-1.960274751411753
  0
LINE
  5
510
330
18
100
AcDbEntity
  8
TEXT
100
AcDbLine
 10
0.6477321472174316
 20
0.0727087213615843
 30
0.0
 11
0.7018657441383818
 21
0.0727087213615843
 31
0.0
  0
LINE
  5
511
330
18
100
AcDbEntity
  8
TEXT
100
AcDbLine
 10
0.5232850314463305
 20
0.0727087213615843
 30
0.0
 11
0.5731203112694781
 21
0.0727087213615843
 31
0.0
  0
LINE
  5
512
330
18
100
AcDbEntity
  8
TEXT
100
AcDbLine
 10
0.5904720343194976
 20
0.1369854160183497
 30
0.0
 11
0.4564539783883613
 21
0.1369854160183497
 31
0.0
  0
LINE
  5
513
330
18
100
AcDbEntity
  8
TEXT
100
AcDbLine
 10
0.5806741004355916
 20
-0.1294876169701613
 30
0.0
 11
0.6477321472174316
 21
-0.1294876169701613
 31
0.0
  0
LINE
  5
514
330
18
100
AcDbEntity
  8
TEXT
100
AcDbLine
 10
0.4252816977468959
 20
-0.1294876169701613
 30
0.0
 11
0.5232850314463305
 21
-0.1294876169701613
 31
0.0
  0
LINE
  5
515
330
18
100
AcDbEntity
  8
TEXT
100
AcDbLine
 10
0.4564539783883613
 20
-0.0638787907140586
 30
0.0
 11
0.4394603415037599
 21
-0.0638787907140586
 31
0.0
  0
ARC
  5
516
330
18
100
AcDbEntity
  8
TEXT
100
AcDbCircle
 10
0.439460341503759
 20
-0.0484969844706331
 30
0.0
 40
0.0153818062434269
100
AcDbArc
 50
174.7883570302258
 51
270.0
  0
LINE
  5
517
330
18
100
AcDbEntity
  8
TEXT
100
AcDbLine
 10
0.5232850314463305
 20
-0.1294876169701613
 30
0.0
 11
0.5232850314463305
 21
0.0727087213615843
 31
0.0
  0
LINE
  5
518
330
18
100
AcDbEntity
  8
TEXT
100
AcDbLine
 10
0.5806741004355916
 20
0.0651549321954743
 30
0.0
 11
0.5806741004355916
 21
-0.1294876169701613
 31
0.0
  0
LINE
  5
519
330
18
100
AcDbEntity
  8
TEXT
100
AcDbLine
 10
0.6477321472174316
 20
-0.1294876169701613
 30
0.0
 11
0.6477321472174316
 21
0.0727087213615843
 31
0.0
  0
LINE
  5
51A
330
18
100
AcDbEntity
  8
TEXT
100
AcDbLine
 10
0.4564539783883613
 20
0.1369854160183497
 30
0.0
 11
0.4564539783883613
 21
-0.0638787907140586
 31
0.0
  0
LINE
  5
51B
330
18
100
AcDbEntity
  8
TEXT
100
AcDbLine
 10
0.4241421242507011
 20
-0.0470997788671621
 30
0.0
 11
0.4241421242507011
 21
0.2049968937571602
 31
0.0
  0
LINE
  5
51C
330
18
100
AcDbEntity
  8
TEXT
100
AcDbLine
 10
0.3573334116843361
 20
0.2049968937571602
 30
0.0
 11
0.3573334116843361
 21
0.1369854160183497
 31
0.0
  0
LINE
  5
51D
330
18
100
AcDbEntity
  8
TEXT
100
AcDbLine
 10
0.3573334116843361
 20
0.1369854160183497
 30
0.0
 11
0.3272114988909598
 21
0.1369854160183497
 31
0.0
  0
LINE
  5
51E
330
18
100
AcDbEntity
  8
TEXT
100
AcDbLine
 10
0.3272114988909598
 20
0.1369854160183497
 30
0.0
 11
0.2684629360850943
 21
0.0361134199052291
 31
0.0
  0
LINE
  5
51F
330
18
100
AcDbEntity
  8
TEXT
100
AcDbLine
 10
0.2684629360850943
 20
0.0361134199052291
 30
0.0
 11
0.2098326150531564
 21
0.1369854160183497
 31
0.0
  0
LINE
  5
520
330
18
100
AcDbEntity
  8
TEXT
100
AcDbLine
 10
0.1380336489092491
 20
0.1369854160183497
 30
0.0
 11
0.1380336489092491
 21
0.1713733336124878
 31
0.0
  0
LINE
  5
521
330
18
100
AcDbEntity
  8
TEXT
100
AcDbLine
 10
0.1380336489092491
 20
0.1713733336124878
 30
0.0
 11
0.0779910440652421
 21
0.1713733336124878
 31
0.0
  0
LINE
  5
522
330
18
100
AcDbEntity
  8
TEXT
100
AcDbLine
 10
0.0779910440652421
 20
0.1713733336124878
 30
0.0
 11
0.0779910440652421
 21
0.1369854160183497
 31
0.0
  0
LINE
  5
523
330
18
100
AcDbEntity
  8
TEXT
100
AcDbLine
 10
0.2098326150531564
 20
0.1369854160183497
 30
0.0
 11
0.1380336489092491
 21
0.1369854160183497
 31
0.0
  0
ARC
  5
524
330
18
100
AcDbEntity
  8
TEXT
100
AcDbCircle
 10
0.224819139175926
 20
-0.0899398946964656
 30
0.0
 40
0.0392772371940762
100
AcDbArc
 50
270.1604552698595
 51
330.0831797321295
  0
ARC
  5
525
330
18
100
AcDbEntity
  8
TEXT
100
AcDbCircle
 10
0.1345182932837012
 20
-0.0696952256321115
 30
0.0
 40
0.0601160179737537
100
AcDbArc
 50
180.0000000000003
 51
264.0521544866073
  0
LINE
  5
526
330
18
100
AcDbEntity
  8
TEXT
100
AcDbLine
 10
0.1282888827900548
 20
-0.1294876169701613
 30
0.0
 11
0.2249291338650492
 21
-0.129216977871879
 31
0.0
  0
LWPOLYLINE
  5
527
330
18
100
AcDbEntity
  8
TEXT
100
AcDbPolyline
 90
        6
 70
     1
 43
0.0
 10
0.1708126863652044
 20
0.0727087213615843
 10
0.1404960921449962
 20
0.0727087213615843
 10
0.1404960921449962
 20
-0.0504022766933101
 42
0.407328721240804
 10
0.1520397433064726
 20
-0.0622211913696962
 10
0.2126614423512034
 20
-0.0622211913696962
 10
0.2301267827585214
 20
-0.029408962326217
  0
LINE
  5
528
330
18
100
AcDbEntity
  8
TEXT
100
AcDbLine
 10
0.0744022753099492
 20
0.0727087213615843
 30
0.0
 11
0.0744022753099492
 21
-0.0696952256321115
 31
0.0
  0
LINE
  5
529
330
18
100
AcDbEntity
  8
TEXT
100
AcDbLine
 10
0.25886269908814
 20
-0.1095291108651484
 30
0.0
 11
0.3561624051815846
 21
0.0548211000701198
 31
0.0
  0
LINE
  5
52A
330
18
100
AcDbEntity
  8
TEXT
100
AcDbLine
 10
0.3561624051815846
 20
0.0548211000701198
 30
0.0
 11
0.3561624051815846
 21
-0.0779362747552366
 31
0.0
  0
LWPOLYLINE
  5
52B
330
18
100
AcDbEntity
  8
TEXT
100
AcDbPolyline
 90
        2
 70
     0
 43
0.0
 10
0.3561624051815837
 20
-0.077936274755233
 42
0.3318488747599744
 10
0.4252816977468968
 20
-0.1294876169701613
 42
-6.868794160588311
  0
LINE
  5
52C
330
18
100
AcDbEntity
  8
TEXT
100
AcDbLine
 10
0.4241421242507011
 20
0.2049968937571602
 30
0.0
 11
0.3573334116843361
 21
0.2049968937571602
 31
0.0
  0
LWPOLYLINE
  5
52D
330
18
100
AcDbEntity
  8
TEXT
100
AcDbPolyline
 90
        4
 70
     0
 43
0.0
 10
0.7094195333044944
 20
0.0651549321954743
 10
0.7094195333044944
 20
-0.1294876169701613
 10
0.7778978165923523
 20
-0.1294876169701613
 10
0.7778978165923523
 20
-0.0859966720197232
 42
-1.714843617202739
  0
LWPOLYLINE
  5
52E
330
18
100
AcDbEntity
  8
TEXT
100
AcDbPolyline
 90
        2
 70
     0
 43
0.0
 10
0.7445538838487043
 20
0.1369854160183532
 42
-0.3277054968067132
 10
0.7803355745618692
 20
0.1086628702487093
 42
6.667889725900311
  0
TEXT
  5
52F
330
18
100
AcDbEntity
  8
TEXT
100
AcDbText
 10
1.526899848375261
 20
-0.0366018083246651
 30
0.0
 40
0.0522247191011236
  1
Minneapolis, MN 55432-0008
 41
1.11444212721585
 72
     5
 11
2.855832432644925
 21
-0.0366018083246651
 31
0.0
100
AcDbText
  0
TEXT
  5
530
330
18
100
AcDbEntity
  8
TEXT
100
AcDbText
 10
1.526899848375261
 20
0.0566566186416271
 30
0.0
 40
0.0522247191011236
  1
6536 Main St. N.E. * P.O. Box 32008
 41
0.8388932496075353
 72
     5
 11
2.855832432644925
 21
0.0566566186416271
 31
0.0
100
AcDbText
  0
TEXT
  5
531
330
18
100
AcDbEntity
  8
TEXT
100
AcDbText
 10
1.526899848375261
 20
0.1499150456079192
 30
0.0
 40
0.0522247191011236
  1
Stylmark  Incorporated
 41
1.221428571428571
 72
     5
 11
2.855832432644925
 21
0.1499150456079192
 31
0.0
100
AcDbText
  0
TEXT
  5
532
330
18
100
AcDbEntity
  8
TEXT
100
AcDbText
 10
1.526899848375261
 20
-0.1298602352909572
 30
0.0
 40
0.0522247191011236
  1
Phone  1-800-328-2495
 41
1.272321428571429
 72
     5
 11
2.855832432644925
 21
-0.1298602352909572
 31
0.0
100
AcDbText
  0
LINE
  5
533
330
18
100
AcDbEntity
  8
TEXT
100
AcDbLine
 10
-0.0269032424747202
 20
0.0369039997509564
 30
0.0
 11
-0.0925033787190213
 21
0.0369039997509564
 31
0.0
  0
ARC
  5
534
330
18
100
AcDbEntity
  8
TEXT
100
AcDbCircle
 10
-0.0925033787190213
 20
0.0548063605562721
 30
0.0
 40
0.017902360805315
100
AcDbArc
 50
90.0
 51
270.0
  0
LINE
  5
535
330
18
100
AcDbEntity
  8
TEXT
100
AcDbLine
 10
-0.0977407088332694
 20
-0.0271895028746574
 30
0.0
 11
-0.0219628685684406
 21
-0.0271895028746574
 31
0.0
  0
LINE
  5
536
330
18
100
AcDbEntity
  8
TEXT
100
AcDbLine
 10
-0.0219628685684406
 20
-0.061130610636722
 30
0.0
 11
-0.1798281682797747
 21
-0.061130610636722
 31
0.0
  0
LINE
  5
537
330
18
100
AcDbEntity
  8
TEXT
100
AcDbLine
 10
-0.1798281682797729
 20
-0.1294876169701613
 30
0.0
 11
-0.0269032424747202
 21
-0.1294876169701613
 31
0.0
  0
ARC
  5
538
330
18
100
AcDbEntity
  8
TEXT
100
AcDbCircle
 10
-0.0977407088332694
 20
0.0548979565718479
 30
0.0
 40
0.0820874594465043
100
AcDbArc
 50
90.0
 51
270.0
  0
LINE
  5
539
330
18
100
AcDbEntity
  8
TEXT
100
AcDbLine
 10
0.0779910440652421
 20
0.1369854160183497
 30
0.0
 11
-0.0977407088332694
 21
0.1369854160183497
 31
0.0
  0
ARC
  5
53A
330
18
100
AcDbEntity
  8
TEXT
100
AcDbCircle
 10
-0.0219628685684406
 20
-0.0441600567556879
 30
0.0
 40
0.0169705538810321
100
AcDbArc
 50
270.0
 51
90.0
  0
ARC
  5
53B
330
18
100
AcDbEntity
  8
TEXT
100
AcDbCircle
 10
-0.0269032424747202
 20
-0.0462918086096043
 30
0.0
 40
0.0831958083605586
100
AcDbArc
 50
270.0
 51
90.0
  0
LINE
  5
53C
330
18
100
AcDbEntity
  8
TEXT
100
AcDbLine
 10
-0.0925033787190213
 20
0.0727087213615843
 30
0.0
 11
0.0744022753099492
 21
0.0727087213615843
 31
0.0
  0
LWPOLYLINE
  5
53D
330
18
100
AcDbEntity
  8
TEXT
100
AcDbPolyline
 90
        2
 70
     0
 43
0.0006660908203125
 10
-0.389261148379548
 20
0.0237499765652256
 10
-0.362617515567047
 20
0.0237499765652256
  0
LINE
  5
53E
330
18
100
AcDbEntity
  8
TEXT
100
AcDbLine
 10
-0.1798281682797747
 20
-0.061130610636722
 30
0.0
 11
-0.1798281682797729
 21
-0.1294876169701613
 31
0.0
  0
LWPOLYLINE
  5
53F
330
18
100
AcDbEntity
  8
TEXT
100
AcDbPolyline
 90
        2
 70
     0
 43
0.0006660908203125
 10
-0.389261148379548
 20
-0.0162154726535224
 10
-0.362617515567047
 20
-0.0162154726535224
  0
LWPOLYLINE
  5
540
330
18
100
AcDbEntity
  8
TEXT
100
AcDbPolyline
 90
        2
 70
     0
 43
0.0001332181640625
 10
-0.4758529550201729
 20
0.1369854160183532
 10
-0.4858443173248617
 20
0.0637154257839736
  0
LWPOLYLINE
  5
541
330
18
100
AcDbEntity
  8
TEXT
100
AcDbPolyline
 90
        2
 70
     0
 43
0.0001332181640625
 10
-0.4758529550201729
 20
0.1103417832058522
 10
-0.4858443173248617
 20
0.0503936093777266
  0
LWPOLYLINE
  5
542
330
18
100
AcDbEntity
  8
TEXT
100
AcDbPolyline
 90
        2
 70
     0
 43
0.0006660908203125
 10
-0.4758529550201729
 20
0.1103417832058522
 10
-0.4758529550201729
 20
0.1369854160183532
  0
LWPOLYLINE
  5
543
330
18
100
AcDbEntity
  8
TEXT
100
AcDbPolyline
 90
        5
 70
     0
 43
0.0001332181640625
 10
-0.4858443173248617
 20
0.0637154257839736
 10
-0.4858443173248617
 20
0.0503936093777266
 10
-0.4492093222076719
 20
0.0503936093777266
 10
-0.4492093222076719
 20
0.0137586142605368
 10
-0.4358875058014231
 20
0.0137586142605368
  0
LWPOLYLINE
  5
544
330
18
100
AcDbEntity
  8
TEXT
100
AcDbPolyline
 90
        2
 70
     0
 43
0.0001332181640625
 10
-0.5158184042389245
 20
0.1103417832058522
 10
-0.5058270419342339
 20
0.0503936093777266
  0
LWPOLYLINE
  5
545
330
18
100
AcDbEntity
  8
TEXT
100
AcDbPolyline
 90
        2
 70
     0
 43
0.0001332181640625
 10
-0.5058270419342339
 20
0.0637154257839736
 10
-0.5158184042389245
 20
0.1369854160183532
  0
LWPOLYLINE
  5
546
330
18
100
AcDbEntity
  8
TEXT
100
AcDbPolyline
 90
        2
 70
     0
 43
0.0006660908203125
 10
-0.5158184042389245
 20
0.1103417832058522
 10
-0.5158184042389245
 20
0.1369854160183532
  0
LWPOLYLINE
  5
547
330
18
100
AcDbEntity
  8
TEXT
100
AcDbPolyline
 90
        5
 70
     0
 43
0.0001332181640625
 10
-0.5557838534576725
 20
0.0137586142605368
 10
-0.5424620370514237
 20
0.0137586142605368
 10
-0.5424620370514237
 20
0.0503936093777266
 10
-0.5058270419342339
 20
0.0503936093777266
 10
-0.5058270419342339
 20
0.0637154257839736
  0
LWPOLYLINE
  5
548
330
18
100
AcDbEntity
  8
TEXT
100
AcDbPolyline
 90
        2
 70
     0
 43
0.0006660908203125
 10
-0.6024102108795493
 20
0.0237499765652256
 10
-0.6290538436920468
 20
0.0237499765652256
  0
LWPOLYLINE
  5
549
330
18
100
AcDbEntity
  8
TEXT
100
AcDbPolyline
 90
        2
 70
     0
 43
0.0001332181640625
 10
-0.6290538436920468
 20
0.0237499765652256
 10
-0.5557838534576725
 20
0.0137586142605368
  0
LWPOLYLINE
  5
54A
330
18
100
AcDbEntity
  8
TEXT
100
AcDbPolyline
 90
        2
 70
     0
 43
0.0001332181640625
 10
-0.6024102108795493
 20
0.0237499765652256
 10
-0.5424620370514237
 20
0.0137586142605368
  0
LWPOLYLINE
  5
54B
330
18
100
AcDbEntity
  8
TEXT
100
AcDbPolyline
 90
        2
 70
     0
 43
0.0001332181640625
 10
-0.6024102108795493
 20
0.1103417832058522
 10
-0.5424620370514237
 20
0.0503936093777266
  0
LWPOLYLINE
  5
54C
330
18
100
AcDbEntity
  8
TEXT
100
AcDbPolyline
 90
        3
 70
     0
 43
0.0006660908203125
 10
-0.5158184042389245
 20
0.1103417832058522
 10
-0.6024102108795493
 20
0.1103417832058522
 10
-0.6024102108795493
 20
0.0237499765652256
  0
LWPOLYLINE
  5
54D
330
18
100
AcDbEntity
  8
TEXT
100
AcDbPolyline
 90
        3
 70
     0
 43
0.0006660908203125
 10
-0.5158184042389245
 20
0.1369854160183532
 10
-0.6290538436920468
 20
0.1369854160183532
 10
-0.6290538436920468
 20
0.0237499765652256
  0
LWPOLYLINE
  5
54E
330
18
100
AcDbEntity
  8
TEXT
100
AcDbPolyline
 90
        5
 70
     0
 43
0.0001332181640625
 10
-0.4358875058014231
 20
-0.0062241103488372
 10
-0.4492093222076719
 20
-0.0062241103488372
 10
-0.4492093222076719
 20
-0.0428591054660235
 10
-0.4858443173248617
 20
-0.0428591054660235
 10
-0.4858443173248617
 20
-0.056180921872274
  0
LWPOLYLINE
  5
54F
330
18
100
AcDbEntity
  8
TEXT
100
AcDbPolyline
 90
        2
 70
     0
 43
0.0006660908203125
 10
-0.4758529550201729
 20
-0.102807279294149
 10
-0.4758529550201729
 20
-0.12945091210665
  0
LWPOLYLINE
  5
550
330
18
100
AcDbEntity
  8
TEXT
100
AcDbPolyline
 90
        2
 70
     0
 43
0.0001332181640625
 10
-0.4858443173248617
 20
-0.056180921872274
 10
-0.4758529550201729
 20
-0.12945091210665
  0
LWPOLYLINE
  5
551
330
18
100
AcDbEntity
  8
TEXT
100
AcDbPolyline
 90
        2
 70
     0
 43
0.0001332181640625
 10
-0.4758529550201729
 20
-0.102807279294149
 10
-0.4858443173248617
 20
-0.0428591054660235
  0
LWPOLYLINE
  5
552
330
18
100
AcDbEntity
  8
TEXT
100
AcDbPolyline
 90
        2
 70
     0
 43
0.0001332181640625
 10
-0.5158184042389245
 20
-0.12945091210665
 10
-0.5058270419342339
 20
-0.056180921872274
  0
LWPOLYLINE
  5
553
330
18
100
AcDbEntity
  8
TEXT
100
AcDbPolyline
 90
        2
 70
     0
 43
0.0001332181640625
 10
-0.5158184042389245
 20
-0.102807279294149
 10
-0.5058270419342339
 20
-0.0428591054660235
  0
LWPOLYLINE
  5
554
330
18
100
AcDbEntity
  8
TEXT
100
AcDbPolyline
 90
        2
 70
     0
 43
0.0006660908203125
 10
-0.5158184042389245
 20
-0.102807279294149
 10
-0.5158184042389245
 20
-0.12945091210665
  0
LWPOLYLINE
  5
555
330
18
100
AcDbEntity
  8
TEXT
100
AcDbPolyline
 90
        5
 70
     0
 43
0.0001332181640625
 10
-0.5058270419342339
 20
-0.056180921872274
 10
-0.5058270419342339
 20
-0.0428591054660235
 10
-0.542462037051422
 20
-0.0428591054660235
 10
-0.542462037051422
 20
-0.0062241103488372
 10
-0.5557838534576725
 20
-0.0062241103488372
  0
LWPOLYLINE
  5
556
330
18
100
AcDbEntity
  8
TEXT
100
AcDbPolyline
 90
        2
 70
     0
 43
0.0006660908203125
 10
-0.6024102108795493
 20
-0.0162154726535224
 10
-0.6290538436920468
 20
-0.0162154726535224
  0
LWPOLYLINE
  5
557
330
18
100
AcDbEntity
  8
TEXT
100
AcDbPolyline
 90
        2
 70
     0
 43
0.0001332181640625
 10
-0.6024102108795493
 20
-0.102807279294149
 10
-0.542462037051422
 20
-0.0428591054660235
  0
LWPOLYLINE
  5
558
330
18
100
AcDbEntity
  8
TEXT
100
AcDbPolyline
 90
        2
 70
     0
 43
0.0001332181640625
 10
-0.6024102108795493
 20
-0.0162154726535224
 10
-0.542462037051422
 20
-0.0062241103488372
  0
LWPOLYLINE
  5
559
330
18
100
AcDbEntity
  8
TEXT
100
AcDbPolyline
 90
        2
 70
     0
 43
0.0001332181640625
 10
-0.5557838534576725
 20
-0.0062241103488372
 10
-0.6290538436920468
 20
-0.0162154726535224
  0
LWPOLYLINE
  5
55A
330
18
100
AcDbEntity
  8
TEXT
100
AcDbPolyline
 90
        3
 70
     0
 43
0.0006660908203125
 10
-0.6024102108795493
 20
-0.0162154726535224
 10
-0.6024102108795493
 20
-0.102807279294149
 10
-0.5158184042389245
 20
-0.102807279294149
  0
LWPOLYLINE
  5
55B
330
18
100
AcDbEntity
  8
TEXT
100
AcDbPolyline
 90
        3
 70
     0
 43
0.0006660908203125
 10
-0.6290538436920468
 20
-0.0162154726535224
 10
-0.6290538436920468
 20
-0.12945091210665
 10
-0.5158184042389245
 20
-0.12945091210665
  0
LWPOLYLINE
  5
55C
330
18
100
AcDbEntity
  8
TEXT
100
AcDbPolyline
 90
        3
 70
     0
 43
0.0006660908203125
 10
-0.4758529550201729
 20
-0.12945091210665
 10
-0.362617515567047
 20
-0.12945091210665
 10
-0.362617515567047
 20
-0.0162154726535224
  0
LWPOLYLINE
  5
55D
330
18
100
AcDbEntity
  8
TEXT
100
AcDbPolyline
 90
        3
 70
     0
 43
0.0006660908203125
 10
-0.4758529550201729
 20
-0.102807279294149
 10
-0.389261148379548
 20
-0.102807279294149
 10
-0.389261148379548
 20
-0.0162154726535224
  0
LWPOLYLINE
  5
55E
330
18
100
AcDbEntity
  8
TEXT
100
AcDbPolyline
 90
        2
 70
     0
 43
0.0001332181640625
 10
-0.389261148379548
 20
-0.102807279294149
 10
-0.4492093222076719
 20
-0.0428591054660235
  0
LWPOLYLINE
  5
55F
330
18
100
AcDbEntity
  8
TEXT
100
AcDbPolyline
 90
        2
 70
     0
 43
0.0001332181640625
 10
-0.389261148379548
 20
-0.0162154726535224
 10
-0.4492093222076719
 20
-0.0062241103488372
  0
LWPOLYLINE
  5
560
330
18
100
AcDbEntity
  8
TEXT
100
AcDbPolyline
 90
        2
 70
     0
 43
0.0001332181640625
 10
-0.362617515567047
 20
-0.0162154726535224
 10
-0.4358875058014231
 20
-0.0062241103488372
  0
LWPOLYLINE
  5
561
330
18
100
AcDbEntity
  8
TEXT
100
AcDbPolyline
 90
        2
 70
     0
 43
0.0001332181640625
 10
-0.389261148379548
 20
0.1103417832058522
 10
-0.4492093222076719
 20
0.0503936093777266
  0
LWPOLYLINE
  5
562
330
18
100
AcDbEntity
  8
TEXT
100
AcDbPolyline
 90
        2
 70
     0
 43
0.0001332181640625
 10
-0.389261148379548
 20
0.0237499765652256
 10
-0.4492093222076719
 20
0.0137586142605368
  0
LWPOLYLINE
  5
563
330
18
100
AcDbEntity
  8
TEXT
100
AcDbPolyline
 90
        2
 70
     0
 43
0.0001332181640625
 10
-0.4358875058014231
 20
0.0137586142605368
 10
-0.362617515567047
 20
0.0237499765652256
  0
LWPOLYLINE
  5
564
330
18
100
AcDbEntity
  8
TEXT
100
AcDbPolyline
 90
        3
 70
     0
 43
0.0006660908203125
 10
-0.389261148379548
 20
0.0237499765652256
 10
-0.389261148379548
 20
0.1103417832058522
 10
-0.4758529550201729
 20
0.1103417832058522
  0
LWPOLYLINE
  5
565
330
18
100
AcDbEntity
  8
TEXT
100
AcDbPolyline
 90
        3
 70
     0
 43
0.0006660908203125
 10
-0.362617515567047
 20
0.0237499765652256
 10
-0.362617515567047
 20
0.1369854160183532
 10
-0.4758529550201729
 20
0.1369854160183532
  0
ENDSEC
  0
SECTION
  2
OBJECTS
  0
DICTIONARY
  5
C
330
0
100
AcDbDictionary
  3
ACAD_GROUP
350
D
  3
ACAD_LAYOUT
350
56A
  3
ACAD_MLINESTYLE
350
E
  3
ACAD_PLOTSETTINGS
350
56B
  3
ACAD_PLOTSTYLENAME
350
568
  3
ACDBHEADERROUNDTRIPXREC
350
576
  3
ACDBVARIABLEDICTIONARY
350
573
  0
DICTIONARY
  5
598
330
18
100
AcDbDictionary
280
     1
  3
ACAD_LAYOUTSELFREF
360
599
  0
DICTIONARY
  5
596
330
15
100
AcDbDictionary
280
     1
  3
ACAD_LAYOUTSELFREF
360
597
  0
DICTIONARY
  5
D
102
{ACAD_REACTORS
330
C
102
}
330
C
100
AcDbDictionary
  0
DICTIONARY
  5
56A
102
{ACAD_REACTORS
330
C
102
}
330
C
100
AcDbDictionary
  0
DICTIONARY
  5
E
102
{ACAD_REACTORS
330
C
102
}
330
C
100
AcDbDictionary
  3
STANDARD
350
1B
  0
DICTIONARY
  5
56B
102
{ACAD_REACTORS
330
C
102
}
330
C
100
AcDbDictionary
  0
ACDBDICTIONARYWDFLT
  5
568
102
{ACAD_REACTORS
330
C
102
}
330
C
100
AcDbDictionary
281
     1
  3
Normal
350
569
100
AcDbDictionaryWithDefault
340
569
  0
DICTIONARY
  5
576
102
{ACAD_REACTORS
330
C
102
}
330
C
100
AcDbDictionary
  3
CEPSNTYPE
350
580
  3
FINGERPRINTGUID
350
581
  3
HYPERLINKBASE
350
579
  3
INSUNITS
350
57F
  3
LAYOUTDICT
350
57B
  3
LWETCUNION
350
57E
  3
PLOTSETDICT
350
57C
  3
PLOTSTYLNAMDICT
350
57D
  3
PSVPSCALE
350
583
  3
PUCSBASE
350
586
  3
PUCSORGBACK
350
58C
  3
PUCSORGBOTTOM
350
588
  3
PUCSORGFRONT
350
58B
  3
PUCSORGLEFT
350
589
  3
PUCSORGRIGHT
350
58A
  3
PUCSORGTOP
350
587
  3
PUCSORTHOREF
350
584
  3
PUCSORTHOVIEW
350
585
  3
STYLESHEET
350
57A
  3
TSTACKALIGN
350
577
  3
TSTACKSIZE
350
578
  3
UCSBASE
350
58F
  3
UCSORGBACK
350
595
  3
UCSORGBOTTOM
350
591
  3
UCSORGFRONT
350
594
  3
UCSORGLEFT
350
592
  3
UCSORGRIGHT
350
593
  3
UCSORGTOP
350
590
  3
UCSORTHOREF
350
58D
  3
UCSORTHOVIEW
350
58E
  3
VERSIONGUID
350
582
  0
DICTIONARY
  5
573
102
{ACAD_REACTORS
330
C
102
}
330
C
100
AcDbDictionary
  3
DIMASSOC
350
574
  0
XRECORD
  5
599
102
{ACAD_REACTORS
330
598
102
}
330
598
100
AcDbXrecord
340
18
  0
XRECORD
  5
597
102
{ACAD_REACTORS
330
596
102
}
330
596
100
AcDbXrecord
340
15
  0
MLINESTYLE
  5
1B
102
{ACAD_REACTORS
330
E
102
}
330
E
100
AcDbMlineStyle
  2
STANDARD
 70
     0
  3

 62
     0
 51
90.0
 52
90.0
 71
     2
 49
0.5
 62
   256
  6
BYLAYER
 49
-0.5
 62
   256
  6
BYLAYER
  0
ACDBPLACEHOLDER
  5
569
102
{ACAD_REACTORS
330
568
102
}
330
568
100
AcDbPlaceHolder
280
     0
  0
XRECORD
  5
580
102
{ACAD_REACTORS
330
576
102
}
330
576
100
AcDbXrecord
 90
        0
  0
XRECORD
  5
581
102
{ACAD_REACTORS
330
576
102
}
330
576
100
AcDbXrecord
  1
{CBB9E5F0-8DB4-11D6-88E6-0090279574E7}
  0
XRECORD
  5
579
102
{ACAD_REACTORS
330
576
102
}
330
576
100
AcDbXrecord
  1

  0
XRECORD
  5
57F
102
{ACAD_REACTORS
330
576
102
}
330
576
100
AcDbXrecord
 90
        0
  0
XRECORD
  5
57B
102
{ACAD_REACTORS
330
576
102
}
330
576
100
AcDbXrecord
340
56A
  0
XRECORD
  5
57E
102
{ACAD_REACTORS
330
576
102
}
330
576
100
AcDbXrecord
 90
    14877
  0
XRECORD
  5
57C
102
{ACAD_REACTORS
330
576
102
}
330
576
100
AcDbXrecord
340
56B
  0
XRECORD
  5
57D
102
{ACAD_REACTORS
330
576
102
}
330
576
100
AcDbXrecord
340
568
  0
XRECORD
  5
583
102
{ACAD_REACTORS
330
576
102
}
330
576
100
AcDbXrecord
 40
0.0
  0
XRECORD
  5
586
102
{ACAD_REACTORS
330
576
102
}
330
576
100
AcDbXrecord
340
0
  0
XRECORD
  5
58C
102
{ACAD_REACTORS
330
576
102
}
330
576
100
AcDbXrecord
 10
0.0
 20
0.0
 30
0.0
  0
XRECORD
  5
588
102
{ACAD_REACTORS
330
576
102
}
330
576
100
AcDbXrecord
 10
0.0
 20
0.0
 30
0.0
  0
XRECORD
  5
58B
102
{ACAD_REACTORS
330
576
102
}
330
576
100
AcDbXrecord
 10
0.0
 20
0.0
 30
0.0
  0
XRECORD
  5
589
102
{ACAD_REACTORS
330
576
102
}
330
576
100
AcDbXrecord
 10
0.0
 20
0.0
 30
0.0
  0
XRECORD
  5
58A
102
{ACAD_REACTORS
330
576
102
}
330
576
100
AcDbXrecord
 10
0.0
 20
0.0
 30
0.0
  0
XRECORD
  5
587
102
{ACAD_REACTORS
330
576
102
}
330
576
100
AcDbXrecord
 10
0.0
 20
0.0
 30
0.0
  0
XRECORD
  5
584
102
{ACAD_REACTORS
330
576
102
}
330
576
100
AcDbXrecord
340
0
  0
XRECORD
  5
585
102
{ACAD_REACTORS
330
576
102
}
330
576
100
AcDbXrecord
 70
     0
  0
XRECORD
  5
57A
102
{ACAD_REACTORS
330
576
102
}
330
576
100
AcDbXrecord
  1

  0
XRECORD
  5
577
102
{ACAD_REACTORS
330
576
102
}
330
576
100
AcDbXrecord
 90
        1
  0
XRECORD
  5
578
102
{ACAD_REACTORS
330
576
102
}
330
576
100
AcDbXrecord
 90
       70
  0
XRECORD
  5
58F
102
{ACAD_REACTORS
330
576
102
}
330
576
100
AcDbXrecord
340
0
  0
XRECORD
  5
595
102
{ACAD_REACTORS
330
576
102
}
330
576
100
AcDbXrecord
 10
0.0
 20
0.0
 30
0.0
  0
XRECORD
  5
591
102
{ACAD_REACTORS
330
576
102
}
330
576
100
AcDbXrecord
 10
0.0
 20
0.0
 30
0.0
  0
XRECORD
  5
594
102
{ACAD_REACTORS
330
576
102
}
330
576
100
AcDbXrecord
 10
0.0
 20
0.0
 30
0.0
  0
XRECORD
  5
592
102
{ACAD_REACTORS
330
576
102
}
330
576
100
AcDbXrecord
 10
0.0
 20
0.0
 30
0.0
  0
XRECORD
  5
593
102
{ACAD_REACTORS
330
576
102
}
330
576
100
AcDbXrecord
 10
0.0
 20
0.0
 30
0.0
  0
XRECORD
  5
590
102
{ACAD_REACTORS
330
576
102
}
330
576
100
AcDbXrecord
 10
0.0
 20
0.0
 30
0.0
  0
XRECORD
  5
58D
102
{ACAD_REACTORS
330
576
102
}
330
576
100
AcDbXrecord
340
0
  0
XRECORD
  5
58E
102
{ACAD_REACTORS
330
576
102
}
330
576
100
AcDbXrecord
 70
     0
  0
XRECORD
  5
582
102
{ACAD_REACTORS
330
576
102
}
330
576
100
AcDbXrecord
  1
{CBB9E5F2-8DB4-11D6-88E6-0090279574E7}
  0
DICTIONARYVAR
  5
574
102
{ACAD_REACTORS
330
573
102
}
330
573
100
DictionaryVariables
280
     0
  1
1
  0
ENDSEC
  0
EOF
