  0
SECTION
  2
HEADER
  9
$ACADVER
  1
AC1014
  9
$ACADMAINTVER
 70
     9
  9
$DWGCODEPAGE
  3
ANSI_1252
  9
$INSBASE
 10
1.816310972095688
 20
1.731743638644438
 30
0.0
  9
$EXTMIN
 10
0.6983293928685458
 20
1.011706746313898
 30
0.0
  9
$EXTMAX
 10
4.183548714615674
 20
2.106743638644438
 30
0.0
  9
$LIMMIN
 10
0.0
 20
0.0
  9
$LIMMAX
 10
18.0
 20
12.0
  9
$ORTHOMODE
 70
     1
  9
$REGENMODE
 70
     1
  9
$FILLMODE
 70
     1
  9
$QTEXTMODE
 70
     0
  9
$MIRRTEXT
 70
     0
  9
$DRAGMODE
 70
     2
  9
$LTSCALE
 40
1.0
  9
$OSMODE
 70
    39
  9
$ATTMODE
 70
     1
  9
$TEXTSIZE
 40
0.125
  9
$TRACEWID
 40
0.05
  9
$TEXTSTYLE
  7
ROMANS
  9
$CLAYER
  8
0
  9
$CELTYPE
  6
BYLAYER
  9
$CECOLOR
 62
   256
  9
$CELTSCALE
 40
1.0
  9
$DELOBJ
 70
     1
  9
$DISPSILH
 70
     1
  9
$DIMSCALE
 40
1.0
  9
$DIMASZ
 40
0.125
  9
$DIMEXO
 40
0.125
  9
$DIMDLI
 40
0.375
  9
$DIMRND
 40
0.0
  9
$DIMDLE
 40
0.0
  9
$DIMEXE
 40
0.125
  9
$DIMTP
 40
0.0
  9
$DIMTM
 40
0.0
  9
$DIMTXT
 40
0.125
  9
$DIMCEN
 40
-0.125
  9
$DIMTSZ
 40
0.0
  9
$DIMTOL
 70
     0
  9
$DIMLIM
 70
     0
  9
$DIMTIH
 70
     1
  9
$DIMTOH
 70
     1
  9
$DIMSE1
 70
     0
  9
$DIMSE2
 70
     0
  9
$DIMTAD
 70
     0
  9
$DIMZIN
 70
     4
  9
$DIMBLK
  1

  9
$DIMASO
 70
     1
  9
$DIMSHO
 70
     1
  9
$DIMPOST
  1

  9
$DIMAPOST
  1

  9
$DIMALT
 70
     0
  9
$DIMALTD
 70
     2
  9
$DIMALTF
 40
25.4
  9
$DIMLFAC
 40
1.0
  9
$DIMTOFL
 70
     0
  9
$DIMTVP
 40
0.0
  9
$DIMTIX
 70
     1
  9
$DIMSOXD
 70
     0
  9
$DIMSAH
 70
     0
  9
$DIMBLK1
  1

  9
$DIMBLK2
  1

  9
$DIMSTYLE
  2
STANDARD
  9
$DIMCLRD
 70
     0
  9
$DIMCLRE
 70
     0
  9
$DIMCLRT
 70
     0
  9
$DIMTFAC
 40
1.0
  9
$DIMGAP
 40
0.09
  9
$DIMJUST
 70
     0
  9
$DIMSD1
 70
     0
  9
$DIMSD2
 70
     0
  9
$DIMTOLJ
 70
     1
  9
$DIMTZIN
 70
     4
  9
$DIMALTZ
 70
     0
  9
$DIMALTTZ
 70
     0
  9
$DIMFIT
 70
     3
  9
$DIMUPT
 70
     0
  9
$DIMUNIT
 70
     2
  9
$DIMDEC
 70
     3
  9
$DIMTDEC
 70
     3
  9
$DIMALTU
 70
     2
  9
$DIMALTTD
 70
     2
  9
$DIMTXSTY
  7
ROMANS
  9
$DIMAUNIT
 70
     0
  9
$LUNITS
 70
     2
  9
$LUPREC
 70
     3
  9
$SKETCHINC
 40
0.1
  9
$FILLETRAD
 40
0.03125
  9
$AUNITS
 70
     0
  9
$AUPREC
 70
     0
  9
$MENU
  1
ACAD
  9
$ELEVATION
 40
0.0
  9
$PELEVATION
 40
0.0
  9
$THICKNESS
 40
0.0
  9
$LIMCHECK
 70
     0
  9
$BLIPMODE
 70
     0
  9
$CHAMFERA
 40
0.0
  9
$CHAMFERB
 40
0.0
  9
$CHAMFERC
 40
0.0
  9
$CHAMFERD
 40
0.0
  9
$SKPOLY
 70
     0
  9
$TDCREATE
 40
2448994.371724768
  9
$TDUPDATE
 40
2452458.299375359
  9
$TDINDWG
 40
0.0005278356
  9
$TDUSRTIMER
 40
0.0005278356
  9
$USRTIMER
 70
     1
  9
$ANGBASE
 50
0.0
  9
$ANGDIR
 70
     0
  9
$PDMODE
 70
     0
  9
$PDSIZE
 40
0.0
  9
$PLINEWID
 40
0.0
  9
$COORDS
 70
     2
  9
$SPLFRAME
 70
     0
  9
$SPLINETYPE
 70
     6
  9
$SPLINESEGS
 70
     8
  9
$ATTDIA
 70
     0
  9
$ATTREQ
 70
     1
  9
$HANDLING
 70
 22529
  9
$HANDSEED
  5
7DE1B343D9D520F
  9
$SURFTAB1
 70
     6
  9
$SURFTAB2
 70
     6
  9
$SURFTYPE
 70
     6
  9
$SURFU
 70
     6
  9
$SURFV
 70
     6
  9
$UCSNAME
  2

  9
$UCSORG
 10
0.0
 20
0.0
 30
0.0
  9
$UCSXDIR
 10
1.0
 20
0.0
 30
0.0
  9
$UCSYDIR
 10
0.0
 20
1.0
 30
0.0
  9
$PUCSNAME
  2

  9
$PUCSORG
 10
0.0
 20
0.0
 30
0.0
  9
$PUCSXDIR
 10
1.0
 20
0.0
 30
0.0
  9
$PUCSYDIR
 10
0.0
 20
1.0
 30
0.0
  9
$USERI1
 70
     0
  9
$USERI2
 70
     0
  9
$USERI3
 70
     0
  9
$USERI4
 70
     0
  9
$USERI5
 70
     0
  9
$USERR1
 40
0.0
  9
$USERR2
 40
0.0
  9
$USERR3
 40
0.0
  9
$USERR4
 40
0.0
  9
$USERR5
 40
0.0
  9
$WORLDVIEW
 70
     1
  9
$SHADEDGE
 70
     3
  9
$SHADEDIF
 70
    70
  9
$TILEMODE
 70
     1
  9
$MAXACTVP
 70
    16
  9
$PINSBASE
 10
1.093773983637735
 20
50.00000000000001
 30
1.448170717053546
  9
$PLIMCHECK
 70
     0
  9
$PEXTMIN
 10
1.000000000000000E+20
 20
1.000000000000000E+20
 30
1.000000000000000E+20
  9
$PEXTMAX
 10
-1.000000000000000E+20
 20
-1.000000000000000E+20
 30
-1.000000000000000E+20
  9
$PLIMMIN
 10
0.0
 20
0.0
  9
$PLIMMAX
 10
12.0
 20
9.0
  9
$UNITMODE
 70
     0
  9
$VISRETAIN
 70
     0
  9
$PLINEGEN
 70
     1
  9
$PSLTSCALE
 70
     0
  9
$TREEDEPTH
 70
  3020
  9
$PICKSTYLE
 70
     1
  9
$CMLSTYLE
  2
STANDARD
  9
$CMLJUST
 70
     0
  9
$CMLSCALE
 40
1.0
  9
$PROXYGRAPHICS
 70
     1
  9
$MEASUREMENT
 70
     0
  0
ENDSEC
  0
SECTION
  2
CLASSES
  0
CLASS
  1
LWPOLYLINE
  2
AcDbPolyline
  3
AutoCAD 2000
 90
        0
280
     0
281
     1
  0
CLASS
  1
ACDBDICTIONARYWDFLT
  2
AcDbDictionaryWithDefault
  3
AutoCAD 2000
 90
        0
280
     0
281
     0
  0
CLASS
  1
ACDBPLACEHOLDER
  2
AcDbPlaceHolder
  3
AutoCAD 2000
 90
        0
280
     0
281
     0
  0
CLASS
  1
LAYOUT
  2
AcDbLayout
  3
AutoCAD 2000
 90
        0
280
     0
281
     0
  0
CLASS
  1
DICTIONARYVAR
  2
AcDbDictionaryVar
  3
AutoCAD 2000
 90
        0
280
     0
281
     0
  0
CLASS
  1
LONG_TRANSACTION
  2
AcDbLongTransaction
  3
AutoCAD 2000
 90
        0
280
     0
281
     0
  0
CLASS
  1
LWPOLYLINE
  2
AcDbPolyline
  3
AutoCAD 2000
 90
        0
280
     0
281
     1
  0
CLASS
  1
HATCH
  2
AcDbHatch
  3
AutoCAD 2000
 90
        0
280
     0
281
     1
  0
CLASS
  1
XRECORD
  2
AcDbXrecord
  3
AutoCAD 2000
 90
        0
280
     0
281
     0
  0
ENDSEC
  0
SECTION
  2
TABLES
  0
TABLE
  2
VPORT
  5
7DE1B343D9D51B6
330
0
100
AcDbSymbolTable
 70
     2
  0
VPORT
  5
7DE1B343D9D51EA
330
7DE1B343D9D51B6
100
AcDbSymbolTableRecord
100
AcDbViewportTableRecord
  2
*ACTIVE
 70
     0
 10
0.0
 20
0.0
 11
1.0
 21
1.0
 12
5.416811787179018
 22
1.55923464191057
 13
0.0
 23
0.0
 14
0.015625
 24
0.015625
 15
0.0
 25
0.0
 16
0.0
 26
0.0
 36
1.0
 17
0.0
 27
0.0
 37
0.0
 40
2.282647215150728
 41
4.320930232558139
 42
50.0
 43
0.0
 44
0.0
 50
0.0
 51
0.0
 71
     0
 72
  2000
 73
     1
 74
     0
 75
     0
 76
     0
 77
     0
 78
     0
  0
ENDTAB
  0
TABLE
  2
LTYPE
  5
7DE1B343D9D51B3
330
0
100
AcDbSymbolTable
 70
     1
  0
LTYPE
  5
7DE1B343D9D51C0
330
7DE1B343D9D51B3
100
AcDbSymbolTableRecord
100
AcDbLinetypeTableRecord
  2
BYBLOCK
 70
     0
  3

 72
    65
 73
     0
 40
0.0
  0
LTYPE
  5
7DE1B343D9D51C1
330
7DE1B343D9D51B3
100
AcDbSymbolTableRecord
100
AcDbLinetypeTableRecord
  2
BYLAYER
 70
     0
  3

 72
    65
 73
     0
 40
0.0
  0
LTYPE
  5
7DE1B343D9D51C2
330
7DE1B343D9D51B3
100
AcDbSymbolTableRecord
100
AcDbLinetypeTableRecord
  2
CONTINUOUS
 70
     0
  3
Solid line
 72
    65
 73
     0
 40
0.0
  0
ENDTAB
  0
TABLE
  2
LAYER
  5
7DE1B343D9D51B0
330
0
100
AcDbSymbolTable
 70
     2
  0
LAYER
  5
7DE1B343D9D51BD
330
7DE1B343D9D51B0
100
AcDbSymbolTableRecord
100
AcDbLayerTableRecord
  2
0
 70
     0
 62
     7
  6
CONTINUOUS
  0
LAYER
  5
7DE1B343D9D51CD
330
7DE1B343D9D51B0
100
AcDbSymbolTableRecord
100
AcDbLayerTableRecord
  2
TEXT
 70
     0
 62
     3
  6
CONTINUOUS
  0
ENDTAB
  0
TABLE
  2
STYLE
  5
7DE1B343D9D51B1
330
0
100
AcDbSymbolTable
 70
     3
  0
STYLE
  5
7DE1B343D9D51BE
330
7DE1B343D9D51B1
100
AcDbSymbolTableRecord
100
AcDbTextStyleTableRecord
  2
STANDARD
 70
     0
 40
0.0
 41
1.0
 50
0.0
 71
     0
 42
0.3125
  3
txt
  4

  0
STYLE
  5
7DE1B343D9D51CA
330
7DE1B343D9D51B1
100
AcDbSymbolTableRecord
100
AcDbTextStyleTableRecord
  2
ITALICC
 70
     0
 40
0.0
 41
1.0
 50
0.0
 71
     0
 42
0.125
  3
italicc
  4

  0
STYLE
  5
7DE1B343D9D51DA
330
7DE1B343D9D51B1
100
AcDbSymbolTableRecord
100
AcDbTextStyleTableRecord
  2
ROMANS
 70
     0
 40
0.0
 41
1.0
 50
0.0
 71
     0
 42
0.125
  3
romans.shx
  4

  0
ENDTAB
  0
TABLE
  2
VIEW
  5
7DE1B343D9D51B4
330
0
100
AcDbSymbolTable
 70
     0
  0
ENDTAB
  0
TABLE
  2
UCS
  5
7DE1B343D9D51B5
330
0
100
AcDbSymbolTable
 70
     0
  0
ENDTAB
  0
TABLE
  2
APPID
  5
7DE1B343D9D51B7
330
0
100
AcDbSymbolTable
 70
     1
  0
APPID
  5
7DE1B343D9D51BF
330
7DE1B343D9D51B7
100
AcDbSymbolTableRecord
100
AcDbRegAppTableRecord
  2
ACAD
 70
     0
  0
ENDTAB
  0
TABLE
  2
DIMSTYLE
  5
7DE1B343D9D51B8
330
0
100
AcDbSymbolTable
 70
     1
  0
DIMSTYLE
105
7DE1B343D9D51D2
330
7DE1B343D9D51B8
100
AcDbSymbolTableRecord
100
AcDbDimStyleTableRecord
  2
STANDARD
 70
     0
  3

  4

  5

  6

  7

 40
1.0
 41
0.125
 42
0.125
 43
0.375
 44
0.125
 45
0.0
 46
0.0
 47
0.0
 48
0.0
140
0.125
141
-0.125
142
0.0
143
25.4
144
1.0
145
0.0
146
1.0
147
0.09
 71
     0
 72
     0
 73
     1
 74
     1
 75
     0
 76
     0
 77
     0
 78
     4
170
     0
171
     2
172
     0
173
     0
174
     1
175
     0
176
     0
177
     0
178
     0
270
     2
271
     3
272
     3
273
     2
274
     2
340
7DE1B343D9D51DA
275
     0
280
     0
281
     0
282
     0
283
     1
284
     4
285
     0
286
     0
287
     3
288
     0
  0
ENDTAB
  0
TABLE
  2
BLOCK_RECORD
  5
7DE1B343D9D51AF
330
0
100
AcDbSymbolTable
 70
     0
  0
BLOCK_RECORD
  5
7DE1B343D9D51C6
102
{ACAD_XDICTIONARY
360
7DE1B343D9D520D
102
}
330
7DE1B343D9D51AF
100
AcDbSymbolTableRecord
100
AcDbBlockTableRecord
  2
*MODEL_SPACE
  0
BLOCK_RECORD
  5
7DE1B343D9D51C3
102
{ACAD_XDICTIONARY
360
7DE1B343D9D520B
102
}
330
7DE1B343D9D51AF
100
AcDbSymbolTableRecord
100
AcDbBlockTableRecord
  2
*PAPER_SPACE
  0
ENDTAB
  0
ENDSEC
  0
SECTION
  2
BLOCKS
  0
BLOCK
  5
7DE1B343D9D51D0
330
7DE1B343D9D51C6
100
AcDbEntity
  8
0
100
AcDbBlockBegin
  2
*MODEL_SPACE
 70
     0
 10
0.0
 20
0.0
 30
0.0
  3
*MODEL_SPACE
  1

  0
ENDBLK
  5
7DE1B343D9D51D1
330
7DE1B343D9D51C6
100
AcDbEntity
  8
0
100
AcDbBlockEnd
  0
BLOCK
  5
7DE1B343D9D51CE
330
7DE1B343D9D51C3
100
AcDbEntity
 67
     1
  8
0
100
AcDbBlockBegin
  2
*PAPER_SPACE
 70
     0
 10
0.0
 20
0.0
 30
0.0
  3
*PAPER_SPACE
  1

  0
ENDBLK
  5
7DE1B343D9D51CF
330
7DE1B343D9D51C3
100
AcDbEntity
 67
     1
  8
0
100
AcDbBlockEnd
  0
ENDSEC
  0
SECTION
  2
ENTITIES
  0
LWPOLYLINE
  5
7DE1B343D9D3DEB
330
7DE1B343D9D51C6
100
AcDbEntity
  8
0
100
AcDbPolyline
 90
        7
 70
     1
 43
0.0
 10
1.878810972095688
 20
1.809243638644438
 10
1.878810972095688
 20
2.106743638644438
 10
1.816310972095688
 20
2.106743638644438
 10
1.816310972095688
 20
1.731743638644438
 10
3.066310972095688
 20
1.731743638644438
 10
3.066310972095688
 20
1.794243638644438
 10
1.893810972095689
 20
1.794243638644438
 42
-0.4142135623730951
  0
TEXT
  5
7DE1B343D9D5071
330
7DE1B343D9D51C6
100
AcDbEntity
  8
TEXT
100
AcDbText
 10
1.688334781619498
 20
1.46972535039648
 30
0.0
 40
0.125
  1
PART #110182
  7
ITALICC
 72
     1
 11
2.441310972095688
 21
1.46972535039648
 31
0.0
100
AcDbText
  0
TEXT
  5
7DE1B343D9D5072
330
7DE1B343D9D51C6
100
AcDbEntity
  8
TEXT
100
AcDbText
 10
2.854616130346009
 20
1.022802707724105
 30
0.0
 40
0.0522247191011236
  1
Phone  1-800-328-2495
 41
1.272321428571429
 72
     5
 11
4.183548714615673
 21
1.022802707724105
 31
0.0
100
AcDbText
  0
TEXT
  5
7DE1B343D9D5073
330
7DE1B343D9D51C6
100
AcDbEntity
  8
TEXT
100
AcDbText
 10
2.854616130346009
 20
1.302577988622981
 30
0.0
 40
0.0522247191011236
  1
Stylmark  Incorporated
 41
1.221428571428573
 72
     5
 11
4.183548714615673
 21
1.302577988622981
 31
0.0
100
AcDbText
  0
TEXT
  5
7DE1B343D9D5074
330
7DE1B343D9D51C6
100
AcDbEntity
  8
TEXT
100
AcDbText
 10
2.854616130346009
 20
1.209319561656689
 30
0.0
 40
0.0522247191011236
  1
6536 Main St. N.E. * P.O. Box 32008
 41
0.8388932496075366
 72
     5
 11
4.183548714615673
 21
1.209319561656689
 31
0.0
100
AcDbText
  0
TEXT
  5
7DE1B343D9D5075
330
7DE1B343D9D51C6
100
AcDbEntity
  8
TEXT
100
AcDbText
 10
2.854616130346009
 20
1.116061134690397
 30
0.0
 40
0.0522247191011236
  1
Minneapolis, MN 55432-0008
 41
1.11444212721585
 72
     5
 11
4.183548714615673
 21
1.116061134690397
 31
0.0
100
AcDbText
  0
LWPOLYLINE
  5
7DE1B343D9D5076
330
7DE1B343D9D51C6
100
AcDbEntity
  8
TEXT
100
AcDbPolyline
 90
        3
 70
     0
 43
0.0006660908203125
 10
0.6986624382787019
 20
1.13644747036154
 10
0.6986624382787019
 20
1.023212030908412
 10
0.8118978777318242
 20
1.023212030908412
  0
LWPOLYLINE
  5
7DE1B343D9D507B
330
7DE1B343D9D51C6
100
AcDbEntity
  8
TEXT
100
AcDbPolyline
 90
        3
 70
     0
 43
0.0006660908203125
 10
0.7253060710911994
 20
1.13644747036154
 10
0.7253060710911994
 20
1.049855663720913
 10
0.8118978777318242
 20
1.049855663720913
  0
LWPOLYLINE
  5
7DE1B343D9D5080
330
7DE1B343D9D51C6
100
AcDbEntity
  8
TEXT
100
AcDbPolyline
 90
        2
 70
     0
 43
0.0001332181640625
 10
0.7719324285130762
 20
1.146438832666225
 10
0.6986624382787019
 20
1.13644747036154
  0
LWPOLYLINE
  5
7DE1B343D9D5084
330
7DE1B343D9D51C6
100
AcDbEntity
  8
TEXT
100
AcDbPolyline
 90
        2
 70
     0
 43
0.0001332181640625
 10
0.7253060710911994
 20
1.13644747036154
 10
0.7852542449193268
 20
1.146438832666225
  0
LWPOLYLINE
  5
7DE1B343D9D5088
330
7DE1B343D9D51C6
100
AcDbEntity
  8
TEXT
100
AcDbPolyline
 90
        2
 70
     0
 43
0.0001332181640625
 10
0.7253060710911994
 20
1.049855663720913
 10
0.7852542449193268
 20
1.109803837549039
  0
LWPOLYLINE
  5
7DE1B343D9D508C
330
7DE1B343D9D51C6
100
AcDbEntity
  8
TEXT
100
AcDbPolyline
 90
        3
 70
     0
 43
0.0006660908203125
 10
0.8118978777318242
 20
1.289648359033415
 10
0.6986624382787019
 20
1.289648359033415
 10
0.6986624382787019
 20
1.176412919580288
  0
LWPOLYLINE
  5
7DE1B343D9D5091
330
7DE1B343D9D51C6
100
AcDbEntity
  8
TEXT
100
AcDbPolyline
 90
        3
 70
     0
 43
0.0006660908203125
 10
0.8118978777318242
 20
1.263004726220914
 10
0.7253060710911994
 20
1.263004726220914
 10
0.7253060710911994
 20
1.176412919580288
  0
LWPOLYLINE
  5
7DE1B343D9D5096
330
7DE1B343D9D51C6
100
AcDbEntity
  8
TEXT
100
AcDbPolyline
 90
        2
 70
     0
 43
0.0001332181640625
 10
0.7253060710911994
 20
1.263004726220914
 10
0.785254244919325
 20
1.203056552392789
  0
LWPOLYLINE
  5
7DE1B343D9D509A
330
7DE1B343D9D51C6
100
AcDbEntity
  8
TEXT
100
AcDbPolyline
 90
        2
 70
     0
 43
0.0001332181640625
 10
0.7253060710911994
 20
1.176412919580288
 10
0.785254244919325
 20
1.166421557275599
  0
LWPOLYLINE
  5
7DE1B343D9D509E
330
7DE1B343D9D51C6
100
AcDbEntity
  8
TEXT
100
AcDbPolyline
 90
        2
 70
     0
 43
0.0001332181640625
 10
0.6986624382787019
 20
1.176412919580288
 10
0.7719324285130762
 20
1.166421557275599
  0
LWPOLYLINE
  5
7DE1B343D9D50A2
330
7DE1B343D9D51C6
100
AcDbEntity
  8
TEXT
100
AcDbPolyline
 90
        2
 70
     0
 43
0.0006660908203125
 10
0.7253060710911994
 20
1.13644747036154
 10
0.6986624382787019
 20
1.13644747036154
  0
LWPOLYLINE
  5
7DE1B343D9D50A6
330
7DE1B343D9D51C6
100
AcDbEntity
  8
TEXT
100
AcDbPolyline
 90
        2
 70
     0
 43
0.0006660908203125
 10
0.7253060710911994
 20
1.176412919580288
 10
0.6986624382787019
 20
1.176412919580288
  0
LINE
  5
7DE1B343D9D50AA
330
7DE1B343D9D51C6
100
AcDbEntity
  8
TEXT
100
AcDbLine
 10
2.213852867405199
 20
1.225371664376646
 30
0.0
 11
2.106646594017909
 21
1.225371664376646
 31
0.0
  0
LINE
  5
7DE1B343D9D50AB
330
7DE1B343D9D51C6
100
AcDbEntity
  8
TEXT
100
AcDbLine
 10
2.242883765749677
 20
1.289648359033412
 30
0.0
 11
2.108051856532618
 21
1.289648359033412
 31
0.0
  0
ARC
  5
7DE1B343D9D50AC
330
7DE1B343D9D51C6
100
AcDbEntity
  8
TEXT
100
AcDbCircle
 10
2.167365952925935
 20
1.120411109770395
 30
0.0
 40
0.0676855811441166
100
AcDbArc
 50
90.0
 51
153.7768192527749
  0
LWPOLYLINE
  5
7DE1B343D9D50AD
330
7DE1B343D9D51C6
100
AcDbEntity
  8
TEXT
100
AcDbPolyline
 90
        2
 70
     0
 43
0.0
 10
2.1056140985631
 20
1.066666270995339
 42
0.2901071551932823
 10
2.148690031430735
 20
1.023175326044901
 42
5.328517124445801
  0
ARC
  5
7DE1B343D9D50B1
330
7DE1B343D9D51C6
100
AcDbEntity
  8
TEXT
100
AcDbCircle
 10
1.462234575254449
 20
1.082967717382951
 30
0.0
 40
0.0601160179737537
100
AcDbArc
 50
180.0000000000003
 51
264.0521544866073
  0
LINE
  5
7DE1B343D9D50B2
330
7DE1B343D9D51C6
100
AcDbEntity
  8
TEXT
100
AcDbLine
 10
1.465749930879997
 20
1.32403627662755
 30
0.0
 11
1.40570732603599
 21
1.32403627662755
 31
0.0
  0
ARC
  5
7DE1B343D9D50B3
330
7DE1B343D9D51C6
100
AcDbEntity
  8
TEXT
100
AcDbCircle
 10
1.229975573137479
 20
1.20756089958691
 30
0.0
 40
0.0820874594465043
100
AcDbArc
 50
90.0
 51
270.0
  0
LWPOLYLINE
  5
7DE1B343D9D50B4
330
7DE1B343D9D51C6
100
AcDbEntity
  8
TEXT
100
AcDbPolyline
 90
        2
 70
     0
 43
0.0001332181640625
 10
0.8218892400365147
 20
1.216378368799036
 10
0.8118978777318242
 20
1.289648359033415
  0
LWPOLYLINE
  5
7DE1B343D9D50B8
330
7DE1B343D9D51C6
100
AcDbEntity
  8
TEXT
100
AcDbPolyline
 90
        2
 70
     0
 43
0.0001332181640625
 10
0.8118978777318242
 20
1.263004726220914
 10
0.8218892400365147
 20
1.203056552392789
  0
LWPOLYLINE
  5
7DE1B343D9D50BC
330
7DE1B343D9D51C6
100
AcDbEntity
  8
TEXT
100
AcDbPolyline
 90
        3
 70
     0
 43
0.0006660908203125
 10
0.9650987664037016
 20
1.176412919580288
 10
0.9650987664037016
 20
1.289648359033415
 10
0.8518633269505757
 20
1.289648359033415
  0
LWPOLYLINE
  5
7DE1B343D9D50C1
330
7DE1B343D9D51C6
100
AcDbEntity
  8
TEXT
100
AcDbPolyline
 90
        3
 70
     0
 43
0.0006660908203125
 10
0.9384551335912005
 20
1.176412919580288
 10
0.9384551335912005
 20
1.263004726220914
 10
0.8518633269505757
 20
1.263004726220914
  0
LWPOLYLINE
  5
7DE1B343D9D50C6
330
7DE1B343D9D51C6
100
AcDbEntity
  8
TEXT
100
AcDbPolyline
 90
        2
 70
     0
 43
0.0001332181640625
 10
0.9384551335912005
 20
1.263004726220914
 10
0.8785069597630768
 20
1.203056552392789
  0
LWPOLYLINE
  5
7DE1B343D9D50CA
330
7DE1B343D9D51C6
100
AcDbEntity
  8
TEXT
100
AcDbPolyline
 90
        2
 70
     0
 43
0.0001332181640625
 10
0.8518633269505757
 20
1.263004726220914
 10
0.8418719646458869
 20
1.203056552392789
  0
LWPOLYLINE
  5
7DE1B343D9D50CE
330
7DE1B343D9D51C6
100
AcDbEntity
  8
TEXT
100
AcDbPolyline
 90
        2
 70
     0
 43
0.0001332181640625
 10
0.8518633269505757
 20
1.289648359033415
 10
0.8418719646458869
 20
1.216378368799036
  0
LWPOLYLINE
  5
7DE1B343D9D50D2
330
7DE1B343D9D51C6
100
AcDbEntity
  8
TEXT
100
AcDbPolyline
 90
        2
 70
     0
 43
0.0001332181640625
 10
0.8918287761693255
 20
1.166421557275599
 10
0.9650987664037016
 20
1.176412919580288
  0
LWPOLYLINE
  5
7DE1B343D9D50D6
330
7DE1B343D9D51C6
100
AcDbEntity
  8
TEXT
100
AcDbPolyline
 90
        2
 70
     0
 43
0.0001332181640625
 10
0.9384551335912005
 20
1.176412919580288
 10
0.8785069597630768
 20
1.166421557275599
  0
LWPOLYLINE
  5
7DE1B343D9D50DA
330
7DE1B343D9D51C6
100
AcDbEntity
  8
TEXT
100
AcDbPolyline
 90
        2
 70
     0
 43
0.0001332181640625
 10
0.9650987664037016
 20
1.13644747036154
 10
0.8918287761693255
 20
1.146438832666225
  0
LWPOLYLINE
  5
7DE1B343D9D50DE
330
7DE1B343D9D51C6
100
AcDbEntity
  8
TEXT
100
AcDbPolyline
 90
        2
 70
     0
 43
0.0001332181640625
 10
0.9384551335912005
 20
1.13644747036154
 10
0.8785069597630768
 20
1.146438832666225
  0
LWPOLYLINE
  5
7DE1B343D9D50E2
330
7DE1B343D9D51C6
100
AcDbEntity
  8
TEXT
100
AcDbPolyline
 90
        2
 70
     0
 43
0.0001332181640625
 10
0.9384551335912005
 20
1.049855663720913
 10
0.8785069597630768
 20
1.109803837549039
  0
LWPOLYLINE
  5
7DE1B343D9D50E6
330
7DE1B343D9D51C6
100
AcDbEntity
  8
TEXT
100
AcDbPolyline
 90
        3
 70
     0
 43
0.0006660908203125
 10
0.8518633269505757
 20
1.049855663720913
 10
0.9384551335912005
 20
1.049855663720913
 10
0.9384551335912005
 20
1.13644747036154
  0
LWPOLYLINE
  5
7DE1B343D9D50EB
330
7DE1B343D9D51C6
100
AcDbEntity
  8
TEXT
100
AcDbPolyline
 90
        3
 70
     0
 43
0.0006660908203125
 10
0.8518633269505757
 20
1.023212030908412
 10
0.9650987664037016
 20
1.023212030908412
 10
0.9650987664037016
 20
1.13644747036154
  0
LWPOLYLINE
  5
7DE1B343D9D50F0
330
7DE1B343D9D51C6
100
AcDbEntity
  8
TEXT
100
AcDbPolyline
 90
        5
 70
     0
 43
0.0001332181640625
 10
0.8218892400365147
 20
1.096482021142788
 10
0.8218892400365147
 20
1.109803837549039
 10
0.7852542449193268
 20
1.109803837549039
 10
0.7852542449193268
 20
1.146438832666225
 10
0.7719324285130762
 20
1.146438832666225
  0
LWPOLYLINE
  5
7DE1B343D9D50F7
330
7DE1B343D9D51C6
100
AcDbEntity
  8
TEXT
100
AcDbPolyline
 90
        2
 70
     0
 43
0.0006660908203125
 10
0.8118978777318242
 20
1.049855663720913
 10
0.8118978777318242
 20
1.023212030908412
  0
LWPOLYLINE
  5
7DE1B343D9D50FB
330
7DE1B343D9D51C6
100
AcDbEntity
  8
TEXT
100
AcDbPolyline
 90
        2
 70
     0
 43
0.0001332181640625
 10
0.8118978777318242
 20
1.049855663720913
 10
0.8218892400365147
 20
1.109803837549039
  0
LWPOLYLINE
  5
7DE1B343D9D50FF
330
7DE1B343D9D51C6
100
AcDbEntity
  8
TEXT
100
AcDbPolyline
 90
        2
 70
     0
 43
0.0001332181640625
 10
0.8118978777318242
 20
1.023212030908412
 10
0.8218892400365147
 20
1.096482021142788
  0
LWPOLYLINE
  5
7DE1B343D9D5103
330
7DE1B343D9D51C6
100
AcDbEntity
  8
TEXT
100
AcDbPolyline
 90
        5
 70
     0
 43
0.0001332181640625
 10
0.7719324285130762
 20
1.166421557275599
 10
0.785254244919325
 20
1.166421557275599
 10
0.785254244919325
 20
1.203056552392789
 10
0.8218892400365147
 20
1.203056552392789
 10
0.8218892400365147
 20
1.216378368799036
  0
LWPOLYLINE
  5
7DE1B343D9D510A
330
7DE1B343D9D51C6
100
AcDbEntity
  8
TEXT
100
AcDbPolyline
 90
        5
 70
     0
 43
0.0001332181640625
 10
0.8418719646458869
 20
1.216378368799036
 10
0.8418719646458869
 20
1.203056552392789
 10
0.8785069597630768
 20
1.203056552392789
 10
0.8785069597630768
 20
1.166421557275599
 10
0.8918287761693255
 20
1.166421557275599
  0
LWPOLYLINE
  5
7DE1B343D9D5111
330
7DE1B343D9D51C6
100
AcDbEntity
  8
TEXT
100
AcDbPolyline
 90
        2
 70
     0
 43
0.0001332181640625
 10
0.8518633269505757
 20
1.049855663720913
 10
0.8418719646458869
 20
1.109803837549039
  0
LWPOLYLINE
  5
7DE1B343D9D5115
330
7DE1B343D9D51C6
100
AcDbEntity
  8
TEXT
100
AcDbPolyline
 90
        2
 70
     0
 43
0.0001332181640625
 10
0.8418719646458869
 20
1.096482021142788
 10
0.8518633269505757
 20
1.023212030908412
  0
LWPOLYLINE
  5
7DE1B343D9D5119
330
7DE1B343D9D51C6
100
AcDbEntity
  8
TEXT
100
AcDbPolyline
 90
        2
 70
     0
 43
0.0006660908203125
 10
0.8518633269505757
 20
1.049855663720913
 10
0.8518633269505757
 20
1.023212030908412
  0
LWPOLYLINE
  5
7DE1B343D9D511D
330
7DE1B343D9D51C6
100
AcDbEntity
  8
TEXT
100
AcDbPolyline
 90
        5
 70
     0
 43
0.0001332181640625
 10
0.8918287761693255
 20
1.146438832666225
 10
0.8785069597630768
 20
1.146438832666225
 10
0.8785069597630768
 20
1.109803837549039
 10
0.8418719646458869
 20
1.109803837549039
 10
0.8418719646458869
 20
1.096482021142788
  0
LWPOLYLINE
  5
7DE1B343D9D5124
330
7DE1B343D9D51C6
100
AcDbEntity
  8
TEXT
100
AcDbPolyline
 90
        2
 70
     0
 43
0.0006660908203125
 10
0.9384551335912005
 20
1.176412919580288
 10
0.9650987664037016
 20
1.176412919580288
  0
LWPOLYLINE
  5
7DE1B343D9D5128
330
7DE1B343D9D51C6
100
AcDbEntity
  8
TEXT
100
AcDbPolyline
 90
        2
 70
     0
 43
0.0006660908203125
 10
0.9384551335912005
 20
1.13644747036154
 10
0.9650987664037016
 20
1.13644747036154
  0
LINE
  5
7DE1B343D9D512C
330
7DE1B343D9D51C6
100
AcDbEntity
  8
TEXT
100
AcDbLine
 10
1.235212903251726
 20
1.225371664376646
 30
0.0
 11
1.402118557280697
 21
1.225371664376646
 31
0.0
  0
LINE
  5
7DE1B343D9D512D
330
7DE1B343D9D51C6
100
AcDbEntity
  8
TEXT
100
AcDbLine
 10
1.300813039496027
 20
1.189566942766018
 30
0.0
 11
1.235212903251726
 21
1.189566942766018
 31
0.0
  0
LINE
  5
7DE1B343D9D512E
330
7DE1B343D9D51C6
100
AcDbEntity
  8
TEXT
100
AcDbLine
 10
1.147888113690974
 20
1.023175326044901
 30
0.0
 11
1.300813039496027
 21
1.023175326044901
 31
0.0
  0
LINE
  5
7DE1B343D9D512F
330
7DE1B343D9D51C6
100
AcDbEntity
  8
TEXT
100
AcDbLine
 10
1.305753413402307
 20
1.09153233237834
 30
0.0
 11
1.147888113690973
 21
1.09153233237834
 31
0.0
  0
LINE
  5
7DE1B343D9D5130
330
7DE1B343D9D51C6
100
AcDbEntity
  8
TEXT
100
AcDbLine
 10
1.229975573137478
 20
1.125473440140405
 30
0.0
 11
1.305753413402307
 21
1.125473440140405
 31
0.0
  0
ARC
  5
7DE1B343D9D5131
330
7DE1B343D9D51C6
100
AcDbEntity
  8
TEXT
100
AcDbCircle
 10
1.235212903251727
 20
1.207469303571334
 30
0.0
 40
0.017902360805315
100
AcDbArc
 50
90.0
 51
270.0
  0
LINE
  5
7DE1B343D9D5132
330
7DE1B343D9D51C6
100
AcDbEntity
  8
TEXT
100
AcDbLine
 10
1.147888113690973
 20
1.09153233237834
 30
0.0
 11
1.147888113690974
 21
1.023175326044901
 31
0.0
  0
LINE
  5
7DE1B343D9D5133
330
7DE1B343D9D51C6
100
AcDbEntity
  8
TEXT
100
AcDbLine
 10
1.402118557280697
 20
1.225371664376646
 30
0.0
 11
1.402118557280697
 21
1.082967717382951
 31
0.0
  0
ARC
  5
7DE1B343D9D5134
330
7DE1B343D9D51C6
100
AcDbEntity
  8
TEXT
100
AcDbCircle
 10
1.300813039496028
 20
1.106371134405458
 30
0.0
 40
0.0831958083605586
100
AcDbArc
 50
270.0
 51
90.0
  0
ARC
  5
7DE1B343D9D5135
330
7DE1B343D9D51C6
100
AcDbEntity
  8
TEXT
100
AcDbCircle
 10
1.305753413402308
 20
1.108502886259374
 30
0.0
 40
0.0169705538810321
100
AcDbArc
 50
270.0
 51
90.0
  0
LWPOLYLINE
  5
7DE1B343D9D5136
330
7DE1B343D9D51C6
100
AcDbEntity
  8
TEXT
100
AcDbPolyline
 90
        2
 70
     0
 43
0.0006660908203125
 10
0.8118978777318242
 20
1.263004726220914
 10
0.8118978777318242
 20
1.289648359033415
  0
LWPOLYLINE
  5
7DE1B343D9D513A
330
7DE1B343D9D51C6
100
AcDbEntity
  8
TEXT
100
AcDbPolyline
 90
        2
 70
     0
 43
0.0006660908203125
 10
0.8518633269505757
 20
1.263004726220914
 10
0.8518633269505757
 20
1.289648359033415
  0
LINE
  5
7DE1B343D9D513E
330
7DE1B343D9D51C6
100
AcDbEntity
  8
TEXT
100
AcDbLine
 10
1.40570732603599
 20
1.289648359033412
 30
0.0
 11
1.229975573137478
 21
1.289648359033412
 31
0.0
  0
LINE
  5
7DE1B343D9D513F
330
7DE1B343D9D51C6
100
AcDbEntity
  8
TEXT
100
AcDbLine
 10
1.40570732603599
 20
1.32403627662755
 30
0.0
 11
1.40570732603599
 21
1.289648359033412
 31
0.0
  0
LINE
  5
7DE1B343D9D5140
330
7DE1B343D9D51C6
100
AcDbEntity
  8
TEXT
100
AcDbLine
 10
1.596179218055842
 20
1.188776362920291
 30
0.0
 11
1.537548897023905
 21
1.289648359033412
 31
0.0
  0
LINE
  5
7DE1B343D9D5141
330
7DE1B343D9D51C6
100
AcDbEntity
  8
TEXT
100
AcDbLine
 10
1.654927780861708
 20
1.289648359033412
 30
0.0
 11
1.596179218055842
 21
1.188776362920291
 31
0.0
  0
LINE
  5
7DE1B343D9D5142
330
7DE1B343D9D51C6
100
AcDbEntity
  8
TEXT
100
AcDbLine
 10
1.751858406221449
 20
1.1055631641479
 30
0.0
 11
1.751858406221449
 21
1.357659836772222
 31
0.0
  0
LINE
  5
7DE1B343D9D5143
330
7DE1B343D9D51C6
100
AcDbEntity
  8
TEXT
100
AcDbLine
 10
1.784170260359109
 20
1.289648359033412
 30
0.0
 11
1.784170260359109
 21
1.088784152301004
 31
0.0
  0
LINE
  5
7DE1B343D9D5144
330
7DE1B343D9D51C6
100
AcDbEntity
  8
TEXT
100
AcDbLine
 10
1.784170260359109
 20
1.088784152301004
 30
0.0
 11
1.767176623474508
 21
1.088784152301004
 31
0.0
  0
LINE
  5
7DE1B343D9D5145
330
7DE1B343D9D51C6
100
AcDbEntity
  8
TEXT
100
AcDbLine
 10
1.752997979717644
 20
1.023175326044901
 30
0.0
 11
1.851001313417079
 21
1.023175326044901
 31
0.0
  0
LINE
  5
7DE1B343D9D5146
330
7DE1B343D9D51C6
100
AcDbEntity
  8
TEXT
100
AcDbLine
 10
1.586578981058888
 20
1.043133832149914
 30
0.0
 11
1.683878687152333
 21
1.207484043085182
 31
0.0
  0
ARC
  5
7DE1B343D9D5147
330
7DE1B343D9D51C6
100
AcDbEntity
  8
TEXT
100
AcDbCircle
 10
1.552535421146674
 20
1.062723048318596
 30
0.0
 40
0.0392772371940762
100
AcDbArc
 50
270.1604552698595
 51
330.0831797321295
  0
LINE
  5
7DE1B343D9D5148
330
7DE1B343D9D51C6
100
AcDbEntity
  8
TEXT
100
AcDbLine
 10
1.456005164760803
 20
1.023175326044901
 30
0.0
 11
1.552645415835797
 21
1.023445965143183
 31
0.0
  0
LWPOLYLINE
  5
7DE1B343D9D5149
330
7DE1B343D9D51C6
100
AcDbEntity
  8
TEXT
100
AcDbPolyline
 90
        6
 70
     1
 43
0.0
 10
1.498528968335953
 20
1.225371664376646
 10
1.468212374115744
 20
1.225371664376646
 10
1.468212374115744
 20
1.102260666321752
 42
0.407328721240804
 10
1.479756025277221
 20
1.090441751645366
 10
1.540377724321952
 20
1.090441751645366
 10
1.55784306472927
 20
1.123253980688845
  0
LINE
  5
7DE1B343D9D5151
330
7DE1B343D9D51C6
100
AcDbEntity
  8
TEXT
100
AcDbLine
 10
1.683878687152333
 20
1.207484043085182
 30
0.0
 11
1.683878687152333
 21
1.074726668259825
 31
0.0
  0
ARC
  5
7DE1B343D9D5152
330
7DE1B343D9D51C6
100
AcDbEntity
  8
TEXT
100
AcDbCircle
 10
1.767176623474506
 20
1.104165958544429
 30
0.0
 40
0.0153818062434269
100
AcDbArc
 50
174.7883570302258
 51
270.0
  0
LWPOLYLINE
  5
7DE1B343D9D5153
330
7DE1B343D9D51C6
100
AcDbEntity
  8
TEXT
100
AcDbPolyline
 90
        2
 70
     0
 43
0.0
 10
1.683878687152331
 20
1.074726668259829
 42
0.3318488747599744
 10
1.752997979717644
 20
1.023175326044901
 42
-6.868794160588311
  0
LINE
  5
7DE1B343D9D5157
330
7DE1B343D9D51C6
100
AcDbEntity
  8
TEXT
100
AcDbLine
 10
1.90839038240634
 20
1.023175326044901
 30
0.0
 11
1.97544842918818
 21
1.023175326044901
 31
0.0
  0
LINE
  5
7DE1B343D9D5158
330
7DE1B343D9D51C6
100
AcDbEntity
  8
TEXT
100
AcDbLine
 10
1.90839038240634
 20
1.217817875210536
 30
0.0
 11
1.90839038240634
 21
1.023175326044901
 31
0.0
  0
LINE
  5
7DE1B343D9D5159
330
7DE1B343D9D51C6
100
AcDbEntity
  8
TEXT
100
AcDbLine
 10
1.851001313417079
 20
1.225371664376646
 30
0.0
 11
1.900836593240226
 21
1.225371664376646
 31
0.0
  0
LINE
  5
7DE1B343D9D515A
330
7DE1B343D9D51C6
100
AcDbEntity
  8
TEXT
100
AcDbLine
 10
1.851001313417079
 20
1.023175326044901
 30
0.0
 11
1.851001313417079
 21
1.225371664376646
 31
0.0
  0
LWPOLYLINE
  5
7DE1B343D9D515B
330
7DE1B343D9D51C6
100
AcDbEntity
  8
TEXT
100
AcDbPolyline
 90
        2
 70
     0
 43
0.0
 10
1.900836593240224
 20
1.225371664376646
 42
-0.4142135623731017
 10
1.908390382406338
 20
1.217817875210536
 42
-0.9999999999999998
  0
LINE
  5
7DE1B343D9D515F
330
7DE1B343D9D51C6
100
AcDbEntity
  8
TEXT
100
AcDbLine
 10
2.106646594017909
 20
1.225371664376646
 30
0.0
 11
2.106646594017909
 21
1.15031925830244
 31
0.0
  0
LINE
  5
7DE1B343D9D5160
330
7DE1B343D9D51C6
100
AcDbEntity
  8
TEXT
100
AcDbLine
 10
1.97544842918818
 20
1.225371664376646
 30
0.0
 11
2.02958202610913
 21
1.225371664376646
 31
0.0
  0
LINE
  5
7DE1B343D9D5161
330
7DE1B343D9D51C6
100
AcDbEntity
  8
TEXT
100
AcDbLine
 10
1.97544842918818
 20
1.023175326044901
 30
0.0
 11
1.97544842918818
 21
1.225371664376646
 31
0.0
  0
LWPOLYLINE
  5
7DE1B343D9D5162
330
7DE1B343D9D51C6
100
AcDbEntity
  8
TEXT
100
AcDbPolyline
 90
        2
 70
     0
 43
0.0
 10
2.029582026109128
 20
1.225371664376646
 42
-0.4142135623731017
 10
2.037135815275242
 20
1.217817875210536
 42
-0.9999999999999998
  0
LWPOLYLINE
  5
7DE1B343D9D5166
330
7DE1B343D9D51C6
100
AcDbEntity
  8
TEXT
100
AcDbPolyline
 90
        4
 70
     0
 43
0.0
 10
2.037135815275242
 20
1.217817875210536
 10
2.037135815275242
 20
1.023175326044901
 10
2.1056140985631
 20
1.023175326044901
 10
2.1056140985631
 20
1.066666270995339
 42
-1.714843617202739
  0
LINE
  5
7DE1B343D9D516C
330
7DE1B343D9D51C6
100
AcDbEntity
  8
TEXT
100
AcDbLine
 10
1.465749930879997
 20
1.289648359033412
 30
0.0
 11
1.465749930879997
 21
1.32403627662755
 31
0.0
  0
LINE
  5
7DE1B343D9D516D
330
7DE1B343D9D51C6
100
AcDbEntity
  8
TEXT
100
AcDbLine
 10
1.537548897023905
 20
1.289648359033412
 30
0.0
 11
1.465749930879997
 21
1.289648359033412
 31
0.0
  0
LINE
  5
7DE1B343D9D516E
330
7DE1B343D9D51C6
100
AcDbEntity
  8
TEXT
100
AcDbLine
 10
1.685049693655084
 20
1.289648359033412
 30
0.0
 11
1.654927780861708
 21
1.289648359033412
 31
0.0
  0
LINE
  5
7DE1B343D9D516F
330
7DE1B343D9D51C6
100
AcDbEntity
  8
TEXT
100
AcDbLine
 10
1.685049693655084
 20
1.357659836772222
 30
0.0
 11
1.685049693655084
 21
1.289648359033412
 31
0.0
  0
LINE
  5
7DE1B343D9D5170
330
7DE1B343D9D51C6
100
AcDbEntity
  8
TEXT
100
AcDbLine
 10
1.751858406221449
 20
1.357659836772222
 30
0.0
 11
1.685049693655084
 21
1.357659836772222
 31
0.0
  0
LWPOLYLINE
  5
7DE1B343D9D5171
330
7DE1B343D9D51C6
100
AcDbEntity
  8
TEXT
100
AcDbPolyline
 90
        3
 70
     0
 43
0.0
 10
2.072270165819452
 20
1.289648359033415
 10
1.953970007003407
 20
1.289648359033415
 10
1.953970007003407
 20
1.262480862272519
 42
-1.960274751411753
  0
LINE
  5
7DE1B343D9D5176
330
7DE1B343D9D51C6
100
AcDbEntity
  8
TEXT
100
AcDbLine
 10
1.918188316290246
 20
1.289648359033412
 30
0.0
 11
1.784170260359109
 21
1.289648359033412
 31
0.0
  0
LWPOLYLINE
  5
7DE1B343D9D5177
330
7DE1B343D9D51C6
100
AcDbEntity
  8
TEXT
100
AcDbPolyline
 90
        2
 70
     0
 43
0.0
 10
1.918188316290246
 20
1.289648359033415
 42
-0.3328679258950098
 10
1.953970007003407
 20
1.262480862272519
 42
6.772930709997214
  0
LINE
  5
7DE1B343D9D517B
330
7DE1B343D9D51C6
100
AcDbEntity
  8
TEXT
100
AcDbLine
 10
2.108051856532618
 20
1.289648359033412
 30
0.0
 11
2.108051856532618
 21
1.261325813263768
 31
0.0
  0
LWPOLYLINE
  5
7DE1B343D9D517C
330
7DE1B343D9D51C6
100
AcDbEntity
  8
TEXT
100
AcDbPolyline
 90
        2
 70
     0
 43
0.0
 10
2.072270165819452
 20
1.289648359033415
 42
-0.3277054968067132
 10
2.108051856532616
 20
1.261325813263771
 42
6.667889725900311
  0
LINE
  5
7DE1B343D9D5180
330
7DE1B343D9D51C6
100
AcDbEntity
  8
TEXT
100
AcDbLine
 10
2.321843704624718
 20
1.184436380479984
 30
0.0
 11
2.278092933442817
 21
1.26668665647613
 31
0.0
  0
LINE
  5
7DE1B343D9D5181
330
7DE1B343D9D51C6
100
AcDbEntity
  8
TEXT
100
AcDbLine
 10
2.321843704624718
 20
1.289648359033412
 30
0.0
 11
2.321843704624718
 21
1.184436380479984
 31
0.0
  0
LINE
  5
7DE1B343D9D5182
330
7DE1B343D9D51C6
100
AcDbEntity
  8
TEXT
100
AcDbLine
 10
2.549527443563087
 20
1.213783032621874
 30
0.0
 11
2.549527443563087
 21
1.355112564801012
 31
0.0
  0
LINE
  5
7DE1B343D9D5183
330
7DE1B343D9D51C6
100
AcDbEntity
  8
TEXT
100
AcDbLine
 10
2.596625602119072
 20
1.289648359033412
 30
0.0
 11
2.549527443563087
 21
1.213783032621874
 31
0.0
  0
LINE
  5
7DE1B343D9D5184
330
7DE1B343D9D51C6
100
AcDbEntity
  8
TEXT
100
AcDbLine
 10
2.607060318882995
 20
1.179755116092438
 30
0.0
 11
2.6716174348487
 21
1.289648359033412
 31
0.0
  0
LINE
  5
7DE1B343D9D5185
330
7DE1B343D9D51C6
100
AcDbEntity
  8
TEXT
100
AcDbLine
 10
2.485692452340314
 20
1.023175326044901
 30
0.0
 11
2.550070636658935
 21
1.023175326044901
 31
0.0
  0
LWPOLYLINE
  5
7DE1B343D9D5186
330
7DE1B343D9D51C6
100
AcDbEntity
  8
TEXT
100
AcDbPolyline
 90
        2
 70
     0
 43
0.0
 10
2.325783381929756
 20
1.066666270995339
 42
-0.2901071551932486
 10
2.282707449062112
 20
1.023175326044901
 42
-5.328517124445184
  0
ARC
  5
7DE1B343D9D518A
330
7DE1B343D9D51C6
100
AcDbEntity
  8
TEXT
100
AcDbCircle
 10
2.213852867405197
 20
1.197012289376649
 30
0.0
 40
0.028359375
100
AcDbArc
 50
25.78218179591245
 51
90.0
  0
LINE
  5
7DE1B343D9D518B
330
7DE1B343D9D51C6
100
AcDbEntity
  8
TEXT
100
AcDbLine
 10
2.24965394270932
 20
1.188096690914514
 30
0.0
 11
2.239389182295756
 21
1.209347230487208
 31
0.0
  0
LINE
  5
7DE1B343D9D518C
330
7DE1B343D9D51C6
100
AcDbEntity
  8
TEXT
100
AcDbLine
 10
2.167365952925937
 20
1.188096690914514
 30
0.0
 11
2.24965394270932
 21
1.188096690914514
 31
0.0
  0
LWPOLYLINE
  5
7DE1B343D9D518D
330
7DE1B343D9D51C6
100
AcDbEntity
  8
TEXT
100
AcDbPolyline
 90
        4
 70
     1
 43
0.0
 10
2.262584983992219
 20
1.126139304028926
 10
2.173924665332361
 20
1.126139304028926
 42
0.9999999999999998
 10
2.173924665332361
 20
1.083740763525065
 10
2.262584983992219
 20
1.083740763525065
 42
1.0
  0
LWPOLYLINE
  5
7DE1B343D9D5193
330
7DE1B343D9D51C6
100
AcDbEntity
  8
TEXT
100
AcDbPolyline
 90
        2
 70
     0
 43
0.0
 10
2.148690031430735
 20
1.023175326044901
 10
2.282707449062112
 20
1.023175326044901
 42
0.9999999999999998
  0
LINE
  5
7DE1B343D9D5197
330
7DE1B343D9D51C6
100
AcDbEntity
  8
TEXT
100
AcDbLine
 10
2.409044471047751
 20
1.225371664376646
 30
0.0
 11
2.485692452340309
 21
1.225371664376646
 31
0.0
  0
LINE
  5
7DE1B343D9D5198
330
7DE1B343D9D51C6
100
AcDbEntity
  8
TEXT
100
AcDbLine
 10
2.485692452340309
 20
1.225371664376646
 30
0.0
 11
2.485692452340314
 21
1.023175326044901
 31
0.0
  0
ARC
  5
7DE1B343D9D5199
330
7DE1B343D9D51C6
100
AcDbEntity
  8
TEXT
100
AcDbCircle
 10
2.409044471047749
 20
1.200465789093984
 30
0.0
 40
0.0249058752826653
100
AcDbArc
 50
89.99971217465335
 51
179.9999999999985
  0
LINE
  5
7DE1B343D9D519A
330
7DE1B343D9D51C6
100
AcDbEntity
  8
TEXT
100
AcDbLine
 10
2.384138595765092
 20
1.023175326044901
 30
0.0
 11
2.384138595765087
 21
1.200465831476369
 31
0.0
  0
LWPOLYLINE
  5
7DE1B343D9D519B
330
7DE1B343D9D51C6
100
AcDbEntity
  8
TEXT
100
AcDbPolyline
 90
        2
 70
     0
 43
0.0
 10
2.325783381929756
 20
1.023175326044901
 10
2.38413859576509
 20
1.023175326044901
  0
LWPOLYLINE
  5
7DE1B343D9D519F
330
7DE1B343D9D51C6
100
AcDbEntity
  8
TEXT
100
AcDbPolyline
 90
        2
 70
     0
 43
0.0
 10
2.325783381929756
 20
1.066666270995339
 10
2.325783381929756
 20
1.023175326044901
  0
LINE
  5
7DE1B343D9D51A3
330
7DE1B343D9D51C6
100
AcDbEntity
  8
TEXT
100
AcDbLine
 10
2.702552542246605
 20
1.023175326044901
 30
0.0
 11
2.607060318882995
 21
1.179755116092438
 31
0.0
  0
LINE
  5
7DE1B343D9D51A4
330
7DE1B343D9D51C6
100
AcDbEntity
  8
TEXT
100
AcDbLine
 10
2.625974169870399
 20
1.023175326044901
 30
0.0
 11
2.702552542246605
 21
1.023175326044901
 31
0.0
  0
LINE
  5
7DE1B343D9D51A5
330
7DE1B343D9D51C6
100
AcDbEntity
  8
TEXT
100
AcDbLine
 10
2.550070636658935
 20
1.154754894521081
 30
0.0
 11
2.625974169870399
 21
1.023175326044901
 31
0.0
  0
LINE
  5
7DE1B343D9D51A6
330
7DE1B343D9D51C6
100
AcDbEntity
  8
TEXT
100
AcDbLine
 10
2.550070636658935
 20
1.023175326044901
 30
0.0
 11
2.550070636658935
 21
1.154754894521081
 31
0.0
  0
LINE
  5
7DE1B343D9D51A7
330
7DE1B343D9D51C6
100
AcDbEntity
  8
TEXT
100
AcDbLine
 10
2.549527443563087
 20
1.355112564801012
 30
0.0
 11
2.481212565013814
 21
1.355112564801012
 31
0.0
  0
ARC
  5
7DE1B343D9D51A8
330
7DE1B343D9D51C6
100
AcDbEntity
  8
TEXT
100
AcDbCircle
 10
2.240856825972608
 20
1.248064791912509
 30
0.0
 40
0.0416329381542859
100
AcDbArc
 50
26.56974201007528
 51
87.20939649401342
  0
LINE
  5
7DE1B343D9D51A9
330
7DE1B343D9D51C6
100
AcDbEntity
  8
TEXT
100
AcDbLine
 10
2.385740610924219
 20
1.289648359033412
 30
0.0
 11
2.321843704624718
 21
1.289648359033412
 31
0.0
  0
LINE
  5
7DE1B343D9D51AA
330
7DE1B343D9D51C6
100
AcDbEntity
  8
TEXT
100
AcDbLine
 10
2.385740610924219
 20
1.262100709172537
 30
0.0
 11
2.385740610924219
 21
1.289648359033412
 31
0.0
  0
ARC
  5
7DE1B343D9D51AB
330
7DE1B343D9D51C6
100
AcDbEntity
  8
TEXT
100
AcDbCircle
 10
2.416933427987327
 20
1.258402631751147
 30
0.0
 40
0.0314112657011332
100
AcDbArc
 50
95.88484768694724
 51
173.2388340632136
  0
LINE
  5
7DE1B343D9D51AC
330
7DE1B343D9D51C6
100
AcDbEntity
  8
TEXT
100
AcDbLine
 10
2.481212565013809
 20
1.289648359033412
 30
0.0
 11
2.413712847364292
 21
1.289648359033412
 31
0.0
  0
LINE
  5
7DE1B343D9D51AD
330
7DE1B343D9D51C6
100
AcDbEntity
  8
TEXT
100
AcDbLine
 10
2.481212565013814
 20
1.355112564801012
 30
0.0
 11
2.481212565013809
 21
1.289648359033412
 31
0.0
  0
LINE
  5
7DE1B343D9D51AE
330
7DE1B343D9D51C6
100
AcDbEntity
  8
TEXT
100
AcDbLine
 10
2.6716174348487
 20
1.289648359033412
 30
0.0
 11
2.596625602119074
 21
1.289648359033412
 31
0.0
  0
ENDSEC
  0
SECTION
  2
OBJECTS
  0
DICTIONARY
  5
7DE1B343D9D51BA
330
0
100
AcDbDictionary
  3
ACAD_GROUP
350
7DE1B343D9D51BB
  3
ACAD_LAYOUT
350
7DE1B343D9D51E0
  3
ACAD_MLINESTYLE
350
7DE1B343D9D51BC
  3
ACAD_PLOTSETTINGS
350
7DE1B343D9D51E1
  3
ACAD_PLOTSTYLENAME
350
7DE1B343D9D51DE
  3
ACDBHEADERROUNDTRIPXREC
350
7DE1B343D9D51EB
  3
ACDBVARIABLEDICTIONARY
350
7DE1B343D9D51E8
  0
DICTIONARY
  5
7DE1B343D9D520D
330
7DE1B343D9D51C6
100
AcDbDictionary
280
     1
  3
ACAD_LAYOUTSELFREF
360
7DE1B343D9D520E
  0
DICTIONARY
  5
7DE1B343D9D520B
330
7DE1B343D9D51C3
100
AcDbDictionary
280
     1
  3
ACAD_LAYOUTSELFREF
360
7DE1B343D9D520C
  0
DICTIONARY
  5
7DE1B343D9D51BB
102
{ACAD_REACTORS
330
7DE1B343D9D51BA
102
}
330
7DE1B343D9D51BA
100
AcDbDictionary
  0
DICTIONARY
  5
7DE1B343D9D51E0
102
{ACAD_REACTORS
330
7DE1B343D9D51BA
102
}
330
7DE1B343D9D51BA
100
AcDbDictionary
  0
DICTIONARY
  5
7DE1B343D9D51BC
102
{ACAD_REACTORS
330
7DE1B343D9D51BA
102
}
330
7DE1B343D9D51BA
100
AcDbDictionary
  3
STANDARD
350
7DE1B343D9D51C9
  0
DICTIONARY
  5
7DE1B343D9D51E1
102
{ACAD_REACTORS
330
7DE1B343D9D51BA
102
}
330
7DE1B343D9D51BA
100
AcDbDictionary
  0
ACDBDICTIONARYWDFLT
  5
7DE1B343D9D51DE
102
{ACAD_REACTORS
330
7DE1B343D9D51BA
102
}
330
7DE1B343D9D51BA
100
AcDbDictionary
281
     1
  3
Normal
350
7DE1B343D9D51DF
100
AcDbDictionaryWithDefault
340
7DE1B343D9D51DF
  0
DICTIONARY
  5
7DE1B343D9D51EB
102
{ACAD_REACTORS
330
7DE1B343D9D51BA
102
}
330
7DE1B343D9D51BA
100
AcDbDictionary
  3
CEPSNTYPE
350
7DE1B343D9D51F5
  3
FINGERPRINTGUID
350
7DE1B343D9D51F6
  3
HYPERLINKBASE
350
7DE1B343D9D51EE
  3
INSUNITS
350
7DE1B343D9D51F4
  3
LAYOUTDICT
350
7DE1B343D9D51F0
  3
LWETCUNION
350
7DE1B343D9D51F3
  3
PLOTSETDICT
350
7DE1B343D9D51F1
  3
PLOTSTYLNAMDICT
350
7DE1B343D9D51F2
  3
PSVPSCALE
350
7DE1B343D9D51F8
  3
PUCSBASE
350
7DE1B343D9D51FB
  3
PUCSORGBACK
350
7DE1B343D9D5201
  3
PUCSORGBOTTOM
350
7DE1B343D9D51FD
  3
PUCSORGFRONT
350
7DE1B343D9D5200
  3
PUCSORGLEFT
350
7DE1B343D9D51FE
  3
PUCSORGRIGHT
350
7DE1B343D9D51FF
  3
PUCSORGTOP
350
7DE1B343D9D51FC
  3
PUCSORTHOREF
350
7DE1B343D9D51F9
  3
PUCSORTHOVIEW
350
7DE1B343D9D51FA
  3
STYLESHEET
350
7DE1B343D9D51EF
  3
TSTACKALIGN
350
7DE1B343D9D51EC
  3
TSTACKSIZE
350
7DE1B343D9D51ED
  3
UCSBASE
350
7DE1B343D9D5204
  3
UCSORGBACK
350
7DE1B343D9D520A
  3
UCSORGBOTTOM
350
7DE1B343D9D5206
  3
UCSORGFRONT
350
7DE1B343D9D5209
  3
UCSORGLEFT
350
7DE1B343D9D5207
  3
UCSORGRIGHT
350
7DE1B343D9D5208
  3
UCSORGTOP
350
7DE1B343D9D5205
  3
UCSORTHOREF
350
7DE1B343D9D5202
  3
UCSORTHOVIEW
350
7DE1B343D9D5203
  3
VERSIONGUID
350
7DE1B343D9D51F7
  0
DICTIONARY
  5
7DE1B343D9D51E8
102
{ACAD_REACTORS
330
7DE1B343D9D51BA
102
}
330
7DE1B343D9D51BA
100
AcDbDictionary
  3
DIMASSOC
350
7DE1B343D9D51E9
  0
XRECORD
  5
7DE1B343D9D520E
102
{ACAD_REACTORS
330
7DE1B343D9D520D
102
}
330
7DE1B343D9D520D
100
AcDbXrecord
340
7DE1B343D9D51C6
  0
XRECORD
  5
7DE1B343D9D520C
102
{ACAD_REACTORS
330
7DE1B343D9D520B
102
}
330
7DE1B343D9D520B
100
AcDbXrecord
340
7DE1B343D9D51C3
  0
MLINESTYLE
  5
7DE1B343D9D51C9
102
{ACAD_REACTORS
330
7DE1B343D9D51BC
102
}
330
7DE1B343D9D51BC
100
AcDbMlineStyle
  2
STANDARD
 70
     0
  3

 62
     0
 51
90.0
 52
90.0
 71
     2
 49
0.5
 62
   256
  6
BYLAYER
 49
-0.5
 62
   256
  6
BYLAYER
  0
ACDBPLACEHOLDER
  5
7DE1B343D9D51DF
102
{ACAD_REACTORS
330
7DE1B343D9D51DE
102
}
330
7DE1B343D9D51DE
100
AcDbPlaceHolder
280
     0
  0
XRECORD
  5
7DE1B343D9D51F5
102
{ACAD_REACTORS
330
7DE1B343D9D51EB
102
}
330
7DE1B343D9D51EB
100
AcDbXrecord
 90
        0
  0
XRECORD
  5
7DE1B343D9D51F6
102
{ACAD_REACTORS
330
7DE1B343D9D51EB
102
}
330
7DE1B343D9D51EB
100
AcDbXrecord
  1
{C7800530-8DB4-11D6-88E6-0090279574E7}
  0
XRECORD
  5
7DE1B343D9D51EE
102
{ACAD_REACTORS
330
7DE1B343D9D51EB
102
}
330
7DE1B343D9D51EB
100
AcDbXrecord
  1

  0
XRECORD
  5
7DE1B343D9D51F4
102
{ACAD_REACTORS
330
7DE1B343D9D51EB
102
}
330
7DE1B343D9D51EB
100
AcDbXrecord
 90
        0
  0
XRECORD
  5
7DE1B343D9D51F0
102
{ACAD_REACTORS
330
7DE1B343D9D51EB
102
}
330
7DE1B343D9D51EB
100
AcDbXrecord
340
7DE1B343D9D51E0
  0
XRECORD
  5
7DE1B343D9D51F3
102
{ACAD_REACTORS
330
7DE1B343D9D51EB
102
}
330
7DE1B343D9D51EB
100
AcDbXrecord
 90
    14877
  0
XRECORD
  5
7DE1B343D9D51F1
102
{ACAD_REACTORS
330
7DE1B343D9D51EB
102
}
330
7DE1B343D9D51EB
100
AcDbXrecord
340
7DE1B343D9D51E1
  0
XRECORD
  5
7DE1B343D9D51F2
102
{ACAD_REACTORS
330
7DE1B343D9D51EB
102
}
330
7DE1B343D9D51EB
100
AcDbXrecord
340
7DE1B343D9D51DE
  0
XRECORD
  5
7DE1B343D9D51F8
102
{ACAD_REACTORS
330
7DE1B343D9D51EB
102
}
330
7DE1B343D9D51EB
100
AcDbXrecord
 40
0.0
  0
XRECORD
  5
7DE1B343D9D51FB
102
{ACAD_REACTORS
330
7DE1B343D9D51EB
102
}
330
7DE1B343D9D51EB
100
AcDbXrecord
340
0
  0
XRECORD
  5
7DE1B343D9D5201
102
{ACAD_REACTORS
330
7DE1B343D9D51EB
102
}
330
7DE1B343D9D51EB
100
AcDbXrecord
 10
0.0
 20
0.0
 30
0.0
  0
XRECORD
  5
7DE1B343D9D51FD
102
{ACAD_REACTORS
330
7DE1B343D9D51EB
102
}
330
7DE1B343D9D51EB
100
AcDbXrecord
 10
0.0
 20
0.0
 30
0.0
  0
XRECORD
  5
7DE1B343D9D5200
102
{ACAD_REACTORS
330
7DE1B343D9D51EB
102
}
330
7DE1B343D9D51EB
100
AcDbXrecord
 10
0.0
 20
0.0
 30
0.0
  0
XRECORD
  5
7DE1B343D9D51FE
102
{ACAD_REACTORS
330
7DE1B343D9D51EB
102
}
330
7DE1B343D9D51EB
100
AcDbXrecord
 10
0.0
 20
0.0
 30
0.0
  0
XRECORD
  5
7DE1B343D9D51FF
102
{ACAD_REACTORS
330
7DE1B343D9D51EB
102
}
330
7DE1B343D9D51EB
100
AcDbXrecord
 10
0.0
 20
0.0
 30
0.0
  0
XRECORD
  5
7DE1B343D9D51FC
102
{ACAD_REACTORS
330
7DE1B343D9D51EB
102
}
330
7DE1B343D9D51EB
100
AcDbXrecord
 10
0.0
 20
0.0
 30
0.0
  0
XRECORD
  5
7DE1B343D9D51F9
102
{ACAD_REACTORS
330
7DE1B343D9D51EB
102
}
330
7DE1B343D9D51EB
100
AcDbXrecord
340
0
  0
XRECORD
  5
7DE1B343D9D51FA
102
{ACAD_REACTORS
330
7DE1B343D9D51EB
102
}
330
7DE1B343D9D51EB
100
AcDbXrecord
 70
     0
  0
XRECORD
  5
7DE1B343D9D51EF
102
{ACAD_REACTORS
330
7DE1B343D9D51EB
102
}
330
7DE1B343D9D51EB
100
AcDbXrecord
  1

  0
XRECORD
  5
7DE1B343D9D51EC
102
{ACAD_REACTORS
330
7DE1B343D9D51EB
102
}
330
7DE1B343D9D51EB
100
AcDbXrecord
 90
        1
  0
XRECORD
  5
7DE1B343D9D51ED
102
{ACAD_REACTORS
330
7DE1B343D9D51EB
102
}
330
7DE1B343D9D51EB
100
AcDbXrecord
 90
       70
  0
XRECORD
  5
7DE1B343D9D5204
102
{ACAD_REACTORS
330
7DE1B343D9D51EB
102
}
330
7DE1B343D9D51EB
100
AcDbXrecord
340
0
  0
XRECORD
  5
7DE1B343D9D520A
102
{ACAD_REACTORS
330
7DE1B343D9D51EB
102
}
330
7DE1B343D9D51EB
100
AcDbXrecord
 10
0.0
 20
0.0
 30
0.0
  0
XRECORD
  5
7DE1B343D9D5206
102
{ACAD_REACTORS
330
7DE1B343D9D51EB
102
}
330
7DE1B343D9D51EB
100
AcDbXrecord
 10
0.0
 20
0.0
 30
0.0
  0
XRECORD
  5
7DE1B343D9D5209
102
{ACAD_REACTORS
330
7DE1B343D9D51EB
102
}
330
7DE1B343D9D51EB
100
AcDbXrecord
 10
0.0
 20
0.0
 30
0.0
  0
XRECORD
  5
7DE1B343D9D5207
102
{ACAD_REACTORS
330
7DE1B343D9D51EB
102
}
330
7DE1B343D9D51EB
100
AcDbXrecord
 10
0.0
 20
0.0
 30
0.0
  0
XRECORD
  5
7DE1B343D9D5208
102
{ACAD_REACTORS
330
7DE1B343D9D51EB
102
}
330
7DE1B343D9D51EB
100
AcDbXrecord
 10
0.0
 20
0.0
 30
0.0
  0
XRECORD
  5
7DE1B343D9D5205
102
{ACAD_REACTORS
330
7DE1B343D9D51EB
102
}
330
7DE1B343D9D51EB
100
AcDbXrecord
 10
0.0
 20
0.0
 30
0.0
  0
XRECORD
  5
7DE1B343D9D5202
102
{ACAD_REACTORS
330
7DE1B343D9D51EB
102
}
330
7DE1B343D9D51EB
100
AcDbXrecord
340
0
  0
XRECORD
  5
7DE1B343D9D5203
102
{ACAD_REACTORS
330
7DE1B343D9D51EB
102
}
330
7DE1B343D9D51EB
100
AcDbXrecord
 70
     0
  0
XRECORD
  5
7DE1B343D9D51F7
102
{ACAD_REACTORS
330
7DE1B343D9D51EB
102
}
330
7DE1B343D9D51EB
100
AcDbXrecord
  1
{C7800532-8DB4-11D6-88E6-0090279574E7}
  0
DICTIONARYVAR
  5
7DE1B343D9D51E9
102
{ACAD_REACTORS
330
7DE1B343D9D51E8
102
}
330
7DE1B343D9D51E8
100
DictionaryVariables
280
     0
  1
1
  0
ENDSEC
  0
EOF
