  0
SECTION
  2
HEADER
  9
$ACADVER
  1
AC1014
  9
$ACADMAINTVER
 70
     9
  9
$DWGCODEPAGE
  3
ANSI_1252
  9
$INSBASE
 10
2.692073179907461
 20
1.721399163402329
 30
0.0
  9
$EXTMIN
 10
0.9125062203948576
 20
0.7149701989085394
 30
0.0
  9
$EXTMAX
 10
4.397725542141987
 20
2.304646180927128
 30
0.0
  9
$LIMMIN
 10
0.0
 20
0.0
  9
$LIMMAX
 10
18.0
 20
12.0
  9
$ORTHOMODE
 70
     1
  9
$REGENMODE
 70
     1
  9
$FILLMODE
 70
     1
  9
$QTEXTMODE
 70
     0
  9
$MIRRTEXT
 70
     0
  9
$DRAGMODE
 70
     2
  9
$LTSCALE
 40
1.0
  9
$OSMODE
 70
    39
  9
$ATTMODE
 70
     1
  9
$TEXTSIZE
 40
0.125
  9
$TRACEWID
 40
0.05
  9
$TEXTSTYLE
  7
ROMANS
  9
$CLAYER
  8
0
  9
$CELTYPE
  6
BYLAYER
  9
$CECOLOR
 62
   256
  9
$CELTSCALE
 40
1.0
  9
$DELOBJ
 70
     1
  9
$DISPSILH
 70
     1
  9
$DIMSCALE
 40
1.0
  9
$DIMASZ
 40
0.125
  9
$DIMEXO
 40
0.125
  9
$DIMDLI
 40
0.375
  9
$DIMRND
 40
0.0
  9
$DIMDLE
 40
0.0
  9
$DIMEXE
 40
0.125
  9
$DIMTP
 40
0.0
  9
$DIMTM
 40
0.0
  9
$DIMTXT
 40
0.125
  9
$DIMCEN
 40
-0.125
  9
$DIMTSZ
 40
0.0
  9
$DIMTOL
 70
     0
  9
$DIMLIM
 70
     0
  9
$DIMTIH
 70
     1
  9
$DIMTOH
 70
     1
  9
$DIMSE1
 70
     0
  9
$DIMSE2
 70
     0
  9
$DIMTAD
 70
     0
  9
$DIMZIN
 70
     4
  9
$DIMBLK
  1

  9
$DIMASO
 70
     1
  9
$DIMSHO
 70
     1
  9
$DIMPOST
  1

  9
$DIMAPOST
  1

  9
$DIMALT
 70
     0
  9
$DIMALTD
 70
     2
  9
$DIMALTF
 40
25.4
  9
$DIMLFAC
 40
1.0
  9
$DIMTOFL
 70
     0
  9
$DIMTVP
 40
0.0
  9
$DIMTIX
 70
     1
  9
$DIMSOXD
 70
     0
  9
$DIMSAH
 70
     0
  9
$DIMBLK1
  1

  9
$DIMBLK2
  1

  9
$DIMSTYLE
  2
STANDARD
  9
$DIMCLRD
 70
     0
  9
$DIMCLRE
 70
     0
  9
$DIMCLRT
 70
     0
  9
$DIMTFAC
 40
1.0
  9
$DIMGAP
 40
0.09
  9
$DIMJUST
 70
     0
  9
$DIMSD1
 70
     0
  9
$DIMSD2
 70
     0
  9
$DIMTOLJ
 70
     1
  9
$DIMTZIN
 70
     4
  9
$DIMALTZ
 70
     0
  9
$DIMALTTZ
 70
     0
  9
$DIMFIT
 70
     3
  9
$DIMUPT
 70
     0
  9
$DIMUNIT
 70
     2
  9
$DIMDEC
 70
     3
  9
$DIMTDEC
 70
     3
  9
$DIMALTU
 70
     2
  9
$DIMALTTD
 70
     2
  9
$DIMTXSTY
  7
ROMANS
  9
$DIMAUNIT
 70
     0
  9
$LUNITS
 70
     2
  9
$LUPREC
 70
     3
  9
$SKETCHINC
 40
0.1
  9
$FILLETRAD
 40
0.03125
  9
$AUNITS
 70
     0
  9
$AUPREC
 70
     0
  9
$MENU
  1
ACAD
  9
$ELEVATION
 40
0.0
  9
$PELEVATION
 40
0.0
  9
$THICKNESS
 40
0.0
  9
$LIMCHECK
 70
     0
  9
$BLIPMODE
 70
     0
  9
$CHAMFERA
 40
0.0
  9
$CHAMFERB
 40
0.0
  9
$CHAMFERC
 40
0.0
  9
$CHAMFERD
 40
0.0
  9
$SKPOLY
 70
     0
  9
$TDCREATE
 40
2448994.370851273
  9
$TDUPDATE
 40
2452458.299294803
  9
$TDINDWG
 40
0.0005936921
  9
$TDUSRTIMER
 40
0.0005936921
  9
$USRTIMER
 70
     1
  9
$ANGBASE
 50
0.0
  9
$ANGDIR
 70
     0
  9
$PDMODE
 70
     0
  9
$PDSIZE
 40
0.0
  9
$PLINEWID
 40
0.0
  9
$COORDS
 70
     2
  9
$SPLFRAME
 70
     0
  9
$SPLINETYPE
 70
     6
  9
$SPLINESEGS
 70
     8
  9
$ATTDIA
 70
     0
  9
$ATTREQ
 70
     1
  9
$HANDLING
 70
 22529
  9
$HANDSEED
  5
7DE1B343D9D4EB0
  9
$SURFTAB1
 70
     6
  9
$SURFTAB2
 70
     6
  9
$SURFTYPE
 70
     6
  9
$SURFU
 70
     6
  9
$SURFV
 70
     6
  9
$UCSNAME
  2

  9
$UCSORG
 10
0.0
 20
0.0
 30
0.0
  9
$UCSXDIR
 10
1.0
 20
0.0
 30
0.0
  9
$UCSYDIR
 10
0.0
 20
1.0
 30
0.0
  9
$PUCSNAME
  2

  9
$PUCSORG
 10
0.0
 20
0.0
 30
0.0
  9
$PUCSXDIR
 10
1.0
 20
0.0
 30
0.0
  9
$PUCSYDIR
 10
0.0
 20
1.0
 30
0.0
  9
$USERI1
 70
     0
  9
$USERI2
 70
     0
  9
$USERI3
 70
     0
  9
$USERI4
 70
     0
  9
$USERI5
 70
     0
  9
$USERR1
 40
0.0
  9
$USERR2
 40
0.0
  9
$USERR3
 40
0.0
  9
$USERR4
 40
0.0
  9
$USERR5
 40
0.0
  9
$WORLDVIEW
 70
     1
  9
$SHADEDGE
 70
     3
  9
$SHADEDIF
 70
    70
  9
$TILEMODE
 70
     1
  9
$MAXACTVP
 70
    16
  9
$PINSBASE
 10
0.8439425991766299
 20
50.00000000000001
 30
1.734756088010298
  9
$PLIMCHECK
 70
     0
  9
$PEXTMIN
 10
1.000000000000000E+20
 20
1.000000000000000E+20
 30
1.000000000000000E+20
  9
$PEXTMAX
 10
-1.000000000000000E+20
 20
-1.000000000000000E+20
 30
-1.000000000000000E+20
  9
$PLIMMIN
 10
0.0
 20
0.0
  9
$PLIMMAX
 10
12.0
 20
9.0
  9
$UNITMODE
 70
     0
  9
$VISRETAIN
 70
     0
  9
$PLINEGEN
 70
     1
  9
$PSLTSCALE
 70
     0
  9
$TREEDEPTH
 70
  3020
  9
$PICKSTYLE
 70
     1
  9
$CMLSTYLE
  2
STANDARD
  9
$CMLJUST
 70
     0
  9
$CMLSCALE
 40
1.0
  9
$PROXYGRAPHICS
 70
     1
  9
$MEASUREMENT
 70
     0
  0
ENDSEC
  0
SECTION
  2
CLASSES
  0
CLASS
  1
LWPOLYLINE
  2
AcDbPolyline
  3
AutoCAD 2000
 90
        0
280
     0
281
     1
  0
CLASS
  1
ACDBDICTIONARYWDFLT
  2
AcDbDictionaryWithDefault
  3
AutoCAD 2000
 90
        0
280
     0
281
     0
  0
CLASS
  1
ACDBPLACEHOLDER
  2
AcDbPlaceHolder
  3
AutoCAD 2000
 90
        0
280
     0
281
     0
  0
CLASS
  1
LAYOUT
  2
AcDbLayout
  3
AutoCAD 2000
 90
        0
280
     0
281
     0
  0
CLASS
  1
DICTIONARYVAR
  2
AcDbDictionaryVar
  3
AutoCAD 2000
 90
        0
280
     0
281
     0
  0
CLASS
  1
LONG_TRANSACTION
  2
AcDbLongTransaction
  3
AutoCAD 2000
 90
        0
280
     0
281
     0
  0
CLASS
  1
LWPOLYLINE
  2
AcDbPolyline
  3
AutoCAD 2000
 90
        0
280
     0
281
     1
  0
CLASS
  1
HATCH
  2
AcDbHatch
  3
AutoCAD 2000
 90
        0
280
     0
281
     1
  0
CLASS
  1
XRECORD
  2
AcDbXrecord
  3
AutoCAD 2000
 90
        0
280
     0
281
     0
  0
ENDSEC
  0
SECTION
  2
TABLES
  0
TABLE
  2
VPORT
  5
7DE1B343D9D4E57
330
0
100
AcDbSymbolTable
 70
     2
  0
VPORT
  5
7DE1B343D9D4E8B
330
7DE1B343D9D4E57
100
AcDbSymbolTableRecord
100
AcDbViewportTableRecord
  2
*ACTIVE
 70
     0
 10
0.0
 20
0.0
 11
1.0
 21
1.0
 12
5.631045185865919
 22
1.509796165290516
 13
0.0
 23
0.0
 14
0.015625
 24
0.015625
 15
0.0
 25
0.0
 16
0.0
 26
0.0
 36
1.0
 17
0.0
 27
0.0
 37
0.0
 40
2.282647215150728
 41
4.320930232558139
 42
50.0
 43
0.0
 44
0.0
 50
0.0
 51
0.0
 71
     0
 72
  2000
 73
     1
 74
     0
 75
     0
 76
     0
 77
     0
 78
     0
  0
ENDTAB
  0
TABLE
  2
LTYPE
  5
7DE1B343D9D4E54
330
0
100
AcDbSymbolTable
 70
     1
  0
LTYPE
  5
7DE1B343D9D4E61
330
7DE1B343D9D4E54
100
AcDbSymbolTableRecord
100
AcDbLinetypeTableRecord
  2
BYBLOCK
 70
     0
  3

 72
    65
 73
     0
 40
0.0
  0
LTYPE
  5
7DE1B343D9D4E62
330
7DE1B343D9D4E54
100
AcDbSymbolTableRecord
100
AcDbLinetypeTableRecord
  2
BYLAYER
 70
     0
  3

 72
    65
 73
     0
 40
0.0
  0
LTYPE
  5
7DE1B343D9D4E63
330
7DE1B343D9D4E54
100
AcDbSymbolTableRecord
100
AcDbLinetypeTableRecord
  2
CONTINUOUS
 70
     0
  3
Solid line
 72
    65
 73
     0
 40
0.0
  0
ENDTAB
  0
TABLE
  2
LAYER
  5
7DE1B343D9D4E51
330
0
100
AcDbSymbolTable
 70
     2
  0
LAYER
  5
7DE1B343D9D4E5E
330
7DE1B343D9D4E51
100
AcDbSymbolTableRecord
100
AcDbLayerTableRecord
  2
0
 70
     0
 62
     7
  6
CONTINUOUS
  0
LAYER
  5
7DE1B343D9D4E6E
330
7DE1B343D9D4E51
100
AcDbSymbolTableRecord
100
AcDbLayerTableRecord
  2
TEXT
 70
     0
 62
     3
  6
CONTINUOUS
  0
ENDTAB
  0
TABLE
  2
STYLE
  5
7DE1B343D9D4E52
330
0
100
AcDbSymbolTable
 70
     3
  0
STYLE
  5
7DE1B343D9D4E5F
330
7DE1B343D9D4E52
100
AcDbSymbolTableRecord
100
AcDbTextStyleTableRecord
  2
STANDARD
 70
     0
 40
0.0
 41
1.0
 50
0.0
 71
     0
 42
0.3125
  3
txt
  4

  0
STYLE
  5
7DE1B343D9D4E6B
330
7DE1B343D9D4E52
100
AcDbSymbolTableRecord
100
AcDbTextStyleTableRecord
  2
ITALICC
 70
     0
 40
0.0
 41
1.0
 50
0.0
 71
     0
 42
0.125
  3
italicc
  4

  0
STYLE
  5
7DE1B343D9D4E7B
330
7DE1B343D9D4E52
100
AcDbSymbolTableRecord
100
AcDbTextStyleTableRecord
  2
ROMANS
 70
     0
 40
0.0
 41
1.0
 50
0.0
 71
     0
 42
0.125
  3
romans.shx
  4

  0
ENDTAB
  0
TABLE
  2
VIEW
  5
7DE1B343D9D4E55
330
0
100
AcDbSymbolTable
 70
     0
  0
ENDTAB
  0
TABLE
  2
UCS
  5
7DE1B343D9D4E56
330
0
100
AcDbSymbolTable
 70
     0
  0
ENDTAB
  0
TABLE
  2
APPID
  5
7DE1B343D9D4E58
330
0
100
AcDbSymbolTable
 70
     1
  0
APPID
  5
7DE1B343D9D4E60
330
7DE1B343D9D4E58
100
AcDbSymbolTableRecord
100
AcDbRegAppTableRecord
  2
ACAD
 70
     0
  0
ENDTAB
  0
TABLE
  2
DIMSTYLE
  5
7DE1B343D9D4E59
330
0
100
AcDbSymbolTable
 70
     1
  0
DIMSTYLE
105
7DE1B343D9D4E73
330
7DE1B343D9D4E59
100
AcDbSymbolTableRecord
100
AcDbDimStyleTableRecord
  2
STANDARD
 70
     0
  3

  4

  5

  6

  7

 40
1.0
 41
0.125
 42
0.125
 43
0.375
 44
0.125
 45
0.0
 46
0.0
 47
0.0
 48
0.0
140
0.125
141
-0.125
142
0.0
143
25.4
144
1.0
145
0.0
146
1.0
147
0.09
 71
     0
 72
     0
 73
     1
 74
     1
 75
     0
 76
     0
 77
     0
 78
     4
170
     0
171
     2
172
     0
173
     0
174
     1
175
     0
176
     0
177
     0
178
     0
270
     2
271
     3
272
     3
273
     2
274
     2
340
7DE1B343D9D4E7B
275
     0
280
     0
281
     0
282
     0
283
     1
284
     4
285
     0
286
     0
287
     3
288
     0
  0
ENDTAB
  0
TABLE
  2
BLOCK_RECORD
  5
7DE1B343D9D4E50
330
0
100
AcDbSymbolTable
 70
     0
  0
BLOCK_RECORD
  5
7DE1B343D9D4E67
102
{ACAD_XDICTIONARY
360
7DE1B343D9D4EAE
102
}
330
7DE1B343D9D4E50
100
AcDbSymbolTableRecord
100
AcDbBlockTableRecord
  2
*MODEL_SPACE
  0
BLOCK_RECORD
  5
7DE1B343D9D4E64
102
{ACAD_XDICTIONARY
360
7DE1B343D9D4EAC
102
}
330
7DE1B343D9D4E50
100
AcDbSymbolTableRecord
100
AcDbBlockTableRecord
  2
*PAPER_SPACE
  0
ENDTAB
  0
ENDSEC
  0
SECTION
  2
BLOCKS
  0
BLOCK
  5
7DE1B343D9D4E71
330
7DE1B343D9D4E67
100
AcDbEntity
  8
0
100
AcDbBlockBegin
  2
*MODEL_SPACE
 70
     0
 10
0.0
 20
0.0
 30
0.0
  3
*MODEL_SPACE
  1

  0
ENDBLK
  5
7DE1B343D9D4E72
330
7DE1B343D9D4E67
100
AcDbEntity
  8
0
100
AcDbBlockEnd
  0
BLOCK
  5
7DE1B343D9D4E6F
330
7DE1B343D9D4E64
100
AcDbEntity
 67
     1
  8
0
100
AcDbBlockBegin
  2
*PAPER_SPACE
 70
     0
 10
0.0
 20
0.0
 30
0.0
  3
*PAPER_SPACE
  1

  0
ENDBLK
  5
7DE1B343D9D4E70
330
7DE1B343D9D4E64
100
AcDbEntity
 67
     1
  8
0
100
AcDbBlockEnd
  0
ENDSEC
  0
SECTION
  2
ENTITIES
  0
LWPOLYLINE
  5
7DE1B343D9D387B
330
7DE1B343D9D4E67
100
AcDbEntity
  8
0
100
AcDbPolyline
 90
       29
 70
     1
 43
0.0
 10
2.077497119794793
 20
1.841573887625986
 10
2.224997119794794
 20
1.841573887625986
 10
2.234997119794793
 20
1.851573887625986
 10
2.244997119794793
 20
1.841573887625986
 10
2.382497119794793
 20
1.841573887625986
 10
2.382497119794793
 20
1.740648660507104
 10
2.416834633673403
 20
1.720823887625986
 42
-3.732050807568881
 10
2.416834633673398
 20
1.662323887625983
 10
2.382497119794793
 20
1.642499114744869
 10
2.382497119794793
 20
1.541573887625987
 10
2.077497119794793
 20
1.541573887625986
 42
1.0
 10
2.077497119794793
 20
1.481573887625986
 10
2.779070712923602
 20
1.481573887625987
 42
0.1989123673796582
 10
2.800283916359198
 20
1.49036068419039
 10
3.296371361561989
 20
1.986448129393182
 42
1.0
 10
3.253944954690796
 20
2.028874536264375
 10
3.038277386428899
 20
1.813206968002478
 10
2.966912473940345
 20
1.884571880491032
 10
2.928613953687977
 20
1.874309822918102
 42
-3.732050807568881
 10
2.887248206988558
 20
1.915675569617514
 10
2.897510264561489
 20
1.953974089869888
 10
2.826145352072935
 20
2.025339002358441
 10
2.923372534486085
 20
2.122566184771593
 10
2.923372534486085
 20
2.136708320395322
 10
2.937514670109816
 20
2.136708320395322
 10
3.041812920334832
 20
2.241006570620339
 42
1.0
 10
2.999386513463639
 20
2.283432977491532
 10
2.617527423598094
 20
1.901573887625986
 10
2.077497119794793
 20
1.901573887625986
 42
1.0
  0
TEXT
  5
7DE1B343D9D4D12
330
7DE1B343D9D4E67
100
AcDbEntity
  8
TEXT
100
AcDbText
 10
1.914416371050572
 20
1.17298880299112
 30
0.0
 40
0.125
  1
PART #110181
  7
ITALICC
 72
     1
 11
2.655487799622
 21
1.17298880299112
 31
0.0
100
AcDbText
  0
TEXT
  5
7DE1B343D9D4D13
330
7DE1B343D9D4E67
100
AcDbEntity
  8
TEXT
100
AcDbText
 10
3.068792957872321
 20
0.7260661603187458
 30
0.0
 40
0.0522247191011236
  1
Phone  1-800-328-2495
 41
1.27232142857143
 72
     5
 11
4.397725542141985
 21
0.7260661603187458
 31
0.0
100
AcDbText
  0
TEXT
  5
7DE1B343D9D4D14
330
7DE1B343D9D4E67
100
AcDbEntity
  8
TEXT
100
AcDbText
 10
3.068792957872321
 20
1.005841441217622
 30
0.0
 40
0.0522247191011236
  1
Stylmark  Incorporated
 41
1.221428571428573
 72
     5
 11
4.397725542141985
 21
1.005841441217622
 31
0.0
100
AcDbText
  0
TEXT
  5
7DE1B343D9D4D15
330
7DE1B343D9D4E67
100
AcDbEntity
  8
TEXT
100
AcDbText
 10
3.068792957872321
 20
0.9125830142513301
 30
0.0
 40
0.0522247191011236
  1
6536 Main St. N.E. * P.O. Box 32008
 41
0.8388932496075367
 72
     5
 11
4.397725542141985
 21
0.9125830142513301
 31
0.0
100
AcDbText
  0
TEXT
  5
7DE1B343D9D4D16
330
7DE1B343D9D4E67
100
AcDbEntity
  8
TEXT
100
AcDbText
 10
3.068792957872321
 20
0.8193245872850379
 30
0.0
 40
0.0522247191011236
  1
Minneapolis, MN 55432-0008
 41
1.11444212721585
 72
     5
 11
4.397725542141985
 21
0.8193245872850379
 31
0.0
100
AcDbText
  0
LWPOLYLINE
  5
7DE1B343D9D4D17
330
7DE1B343D9D4E67
100
AcDbEntity
  8
TEXT
100
AcDbPolyline
 90
        3
 70
     0
 43
0.0006660908203125
 10
0.9128392658050138
 20
0.8397109229561806
 10
0.9128392658050138
 20
0.7264754835030529
 10
1.026074705258136
 20
0.7264754835030529
  0
LWPOLYLINE
  5
7DE1B343D9D4D1C
330
7DE1B343D9D4E67
100
AcDbEntity
  8
TEXT
100
AcDbPolyline
 90
        3
 70
     0
 43
0.0006660908203125
 10
0.9394828986175113
 20
0.8397109229561806
 10
0.9394828986175113
 20
0.753119116315554
 10
1.026074705258136
 20
0.753119116315554
  0
LWPOLYLINE
  5
7DE1B343D9D4D21
330
7DE1B343D9D4E67
100
AcDbEntity
  8
TEXT
100
AcDbPolyline
 90
        2
 70
     0
 43
0.0001332181640625
 10
0.9861092560393881
 20
0.8497022852608658
 10
0.9128392658050138
 20
0.8397109229561806
  0
LWPOLYLINE
  5
7DE1B343D9D4D25
330
7DE1B343D9D4E67
100
AcDbEntity
  8
TEXT
100
AcDbPolyline
 90
        2
 70
     0
 43
0.0001332181640625
 10
0.9394828986175113
 20
0.8397109229561806
 10
0.9994310724456386
 20
0.8497022852608658
  0
LWPOLYLINE
  5
7DE1B343D9D4D29
330
7DE1B343D9D4E67
100
AcDbEntity
  8
TEXT
100
AcDbPolyline
 90
        2
 70
     0
 43
0.0001332181640625
 10
0.9394828986175113
 20
0.753119116315554
 10
0.9994310724456386
 20
0.8130672901436795
  0
LWPOLYLINE
  5
7DE1B343D9D4D2D
330
7DE1B343D9D4E67
100
AcDbEntity
  8
TEXT
100
AcDbPolyline
 90
        3
 70
     0
 43
0.0006660908203125
 10
1.026074705258136
 20
0.9929118116280562
 10
0.9128392658050138
 20
0.9929118116280562
 10
0.9128392658050138
 20
0.8796763721749286
  0
LWPOLYLINE
  5
7DE1B343D9D4D32
330
7DE1B343D9D4E67
100
AcDbEntity
  8
TEXT
100
AcDbPolyline
 90
        3
 70
     0
 43
0.0006660908203125
 10
1.026074705258136
 20
0.9662681788155552
 10
0.9394828986175113
 20
0.9662681788155552
 10
0.9394828986175113
 20
0.8796763721749286
  0
LWPOLYLINE
  5
7DE1B343D9D4D37
330
7DE1B343D9D4E67
100
AcDbEntity
  8
TEXT
100
AcDbPolyline
 90
        2
 70
     0
 43
0.0001332181640625
 10
0.9394828986175113
 20
0.9662681788155552
 10
0.9994310724456369
 20
0.9063200049874296
  0
LWPOLYLINE
  5
7DE1B343D9D4D3B
330
7DE1B343D9D4E67
100
AcDbEntity
  8
TEXT
100
AcDbPolyline
 90
        2
 70
     0
 43
0.0001332181640625
 10
0.9394828986175113
 20
0.8796763721749286
 10
0.9994310724456369
 20
0.8696850098702398
  0
LWPOLYLINE
  5
7DE1B343D9D4D3F
330
7DE1B343D9D4E67
100
AcDbEntity
  8
TEXT
100
AcDbPolyline
 90
        2
 70
     0
 43
0.0001332181640625
 10
0.9128392658050138
 20
0.8796763721749286
 10
0.9861092560393881
 20
0.8696850098702398
  0
LWPOLYLINE
  5
7DE1B343D9D4D43
330
7DE1B343D9D4E67
100
AcDbEntity
  8
TEXT
100
AcDbPolyline
 90
        2
 70
     0
 43
0.0006660908203125
 10
0.9394828986175113
 20
0.8397109229561806
 10
0.9128392658050138
 20
0.8397109229561806
  0
LWPOLYLINE
  5
7DE1B343D9D4D47
330
7DE1B343D9D4E67
100
AcDbEntity
  8
TEXT
100
AcDbPolyline
 90
        2
 70
     0
 43
0.0006660908203125
 10
0.9394828986175113
 20
0.8796763721749286
 10
0.9128392658050138
 20
0.8796763721749286
  0
LINE
  5
7DE1B343D9D4D4B
330
7DE1B343D9D4E67
100
AcDbEntity
  8
TEXT
100
AcDbLine
 10
2.428029694931511
 20
0.9286351169712872
 30
0.0
 11
2.320823421544222
 21
0.9286351169712872
 31
0.0
  0
LINE
  5
7DE1B343D9D4D4C
330
7DE1B343D9D4E67
100
AcDbEntity
  8
TEXT
100
AcDbLine
 10
2.457060593275989
 20
0.9929118116280527
 30
0.0
 11
2.32222868405893
 21
0.9929118116280527
 31
0.0
  0
ARC
  5
7DE1B343D9D4D4D
330
7DE1B343D9D4E67
100
AcDbEntity
  8
TEXT
100
AcDbCircle
 10
2.381542780452247
 20
0.8236745623650364
 30
0.0
 40
0.0676855811441166
100
AcDbArc
 50
90.0
 51
153.7768192527749
  0
LWPOLYLINE
  5
7DE1B343D9D4D4E
330
7DE1B343D9D4E67
100
AcDbEntity
  8
TEXT
100
AcDbPolyline
 90
        2
 70
     0
 43
0.0
 10
2.319790926089412
 20
0.7699297235899798
 42
0.2901071551932823
 10
2.362866858957047
 20
0.7264387786395417
 42
5.328517124445801
  0
ARC
  5
7DE1B343D9D4D52
330
7DE1B343D9D4E67
100
AcDbEntity
  8
TEXT
100
AcDbCircle
 10
1.676411402780761
 20
0.7862311699775915
 30
0.0
 40
0.0601160179737537
100
AcDbArc
 50
180.0000000000003
 51
264.0521544866073
  0
LINE
  5
7DE1B343D9D4D53
330
7DE1B343D9D4E67
100
AcDbEntity
  8
TEXT
100
AcDbLine
 10
1.679926758406309
 20
1.02729972922219
 30
0.0
 11
1.619884153562302
 21
1.02729972922219
 31
0.0
  0
ARC
  5
7DE1B343D9D4D54
330
7DE1B343D9D4E67
100
AcDbEntity
  8
TEXT
100
AcDbCircle
 10
1.444152400663791
 20
0.9108243521815509
 30
0.0
 40
0.0820874594465043
100
AcDbArc
 50
90.0
 51
270.0
  0
LWPOLYLINE
  5
7DE1B343D9D4D55
330
7DE1B343D9D4E67
100
AcDbEntity
  8
TEXT
100
AcDbPolyline
 90
        2
 70
     0
 43
0.0001332181640625
 10
1.036066067562826
 20
0.9196418213936766
 10
1.026074705258136
 20
0.9929118116280562
  0
LWPOLYLINE
  5
7DE1B343D9D4D59
330
7DE1B343D9D4E67
100
AcDbEntity
  8
TEXT
100
AcDbPolyline
 90
        2
 70
     0
 43
0.0001332181640625
 10
1.026074705258136
 20
0.9662681788155552
 10
1.036066067562826
 20
0.9063200049874296
  0
LWPOLYLINE
  5
7DE1B343D9D4D5D
330
7DE1B343D9D4E67
100
AcDbEntity
  8
TEXT
100
AcDbPolyline
 90
        3
 70
     0
 43
0.0006660908203125
 10
1.179275593930013
 20
0.8796763721749286
 10
1.179275593930013
 20
0.9929118116280562
 10
1.066040154476887
 20
0.9929118116280562
  0
LWPOLYLINE
  5
7DE1B343D9D4D62
330
7DE1B343D9D4E67
100
AcDbEntity
  8
TEXT
100
AcDbPolyline
 90
        3
 70
     0
 43
0.0006660908203125
 10
1.152631961117512
 20
0.8796763721749286
 10
1.152631961117512
 20
0.9662681788155552
 10
1.066040154476887
 20
0.9662681788155552
  0
LWPOLYLINE
  5
7DE1B343D9D4D67
330
7DE1B343D9D4E67
100
AcDbEntity
  8
TEXT
100
AcDbPolyline
 90
        2
 70
     0
 43
0.0001332181640625
 10
1.152631961117512
 20
0.9662681788155552
 10
1.092683787289388
 20
0.9063200049874296
  0
LWPOLYLINE
  5
7DE1B343D9D4D6B
330
7DE1B343D9D4E67
100
AcDbEntity
  8
TEXT
100
AcDbPolyline
 90
        2
 70
     0
 43
0.0001332181640625
 10
1.066040154476887
 20
0.9662681788155552
 10
1.056048792172199
 20
0.9063200049874296
  0
LWPOLYLINE
  5
7DE1B343D9D4D6F
330
7DE1B343D9D4E67
100
AcDbEntity
  8
TEXT
100
AcDbPolyline
 90
        2
 70
     0
 43
0.0001332181640625
 10
1.066040154476887
 20
0.9929118116280562
 10
1.056048792172199
 20
0.9196418213936766
  0
LWPOLYLINE
  5
7DE1B343D9D4D73
330
7DE1B343D9D4E67
100
AcDbEntity
  8
TEXT
100
AcDbPolyline
 90
        2
 70
     0
 43
0.0001332181640625
 10
1.106005603695637
 20
0.8696850098702398
 10
1.179275593930013
 20
0.8796763721749286
  0
LWPOLYLINE
  5
7DE1B343D9D4D77
330
7DE1B343D9D4E67
100
AcDbEntity
  8
TEXT
100
AcDbPolyline
 90
        2
 70
     0
 43
0.0001332181640625
 10
1.152631961117512
 20
0.8796763721749286
 10
1.092683787289388
 20
0.8696850098702398
  0
LWPOLYLINE
  5
7DE1B343D9D4D7B
330
7DE1B343D9D4E67
100
AcDbEntity
  8
TEXT
100
AcDbPolyline
 90
        2
 70
     0
 43
0.0001332181640625
 10
1.179275593930013
 20
0.8397109229561806
 10
1.106005603695637
 20
0.8497022852608658
  0
LWPOLYLINE
  5
7DE1B343D9D4D7F
330
7DE1B343D9D4E67
100
AcDbEntity
  8
TEXT
100
AcDbPolyline
 90
        2
 70
     0
 43
0.0001332181640625
 10
1.152631961117512
 20
0.8397109229561806
 10
1.092683787289388
 20
0.8497022852608658
  0
LWPOLYLINE
  5
7DE1B343D9D4D83
330
7DE1B343D9D4E67
100
AcDbEntity
  8
TEXT
100
AcDbPolyline
 90
        2
 70
     0
 43
0.0001332181640625
 10
1.152631961117512
 20
0.753119116315554
 10
1.092683787289388
 20
0.8130672901436795
  0
LWPOLYLINE
  5
7DE1B343D9D4D87
330
7DE1B343D9D4E67
100
AcDbEntity
  8
TEXT
100
AcDbPolyline
 90
        3
 70
     0
 43
0.0006660908203125
 10
1.066040154476887
 20
0.753119116315554
 10
1.152631961117512
 20
0.753119116315554
 10
1.152631961117512
 20
0.8397109229561806
  0
LWPOLYLINE
  5
7DE1B343D9D4D8C
330
7DE1B343D9D4E67
100
AcDbEntity
  8
TEXT
100
AcDbPolyline
 90
        3
 70
     0
 43
0.0006660908203125
 10
1.066040154476887
 20
0.7264754835030529
 10
1.179275593930013
 20
0.7264754835030529
 10
1.179275593930013
 20
0.8397109229561806
  0
LWPOLYLINE
  5
7DE1B343D9D4D91
330
7DE1B343D9D4E67
100
AcDbEntity
  8
TEXT
100
AcDbPolyline
 90
        5
 70
     0
 43
0.0001332181640625
 10
1.036066067562826
 20
0.799745473737429
 10
1.036066067562826
 20
0.8130672901436795
 10
0.9994310724456386
 20
0.8130672901436795
 10
0.9994310724456386
 20
0.8497022852608658
 10
0.9861092560393881
 20
0.8497022852608658
  0
LWPOLYLINE
  5
7DE1B343D9D4D98
330
7DE1B343D9D4E67
100
AcDbEntity
  8
TEXT
100
AcDbPolyline
 90
        2
 70
     0
 43
0.0006660908203125
 10
1.026074705258136
 20
0.753119116315554
 10
1.026074705258136
 20
0.7264754835030529
  0
LWPOLYLINE
  5
7DE1B343D9D4D9C
330
7DE1B343D9D4E67
100
AcDbEntity
  8
TEXT
100
AcDbPolyline
 90
        2
 70
     0
 43
0.0001332181640625
 10
1.026074705258136
 20
0.753119116315554
 10
1.036066067562826
 20
0.8130672901436795
  0
LWPOLYLINE
  5
7DE1B343D9D4DA0
330
7DE1B343D9D4E67
100
AcDbEntity
  8
TEXT
100
AcDbPolyline
 90
        2
 70
     0
 43
0.0001332181640625
 10
1.026074705258136
 20
0.7264754835030529
 10
1.036066067562826
 20
0.799745473737429
  0
LWPOLYLINE
  5
7DE1B343D9D4DA4
330
7DE1B343D9D4E67
100
AcDbEntity
  8
TEXT
100
AcDbPolyline
 90
        5
 70
     0
 43
0.0001332181640625
 10
0.9861092560393881
 20
0.8696850098702398
 10
0.9994310724456369
 20
0.8696850098702398
 10
0.9994310724456369
 20
0.9063200049874296
 10
1.036066067562826
 20
0.9063200049874296
 10
1.036066067562826
 20
0.9196418213936766
  0
LWPOLYLINE
  5
7DE1B343D9D4DAB
330
7DE1B343D9D4E67
100
AcDbEntity
  8
TEXT
100
AcDbPolyline
 90
        5
 70
     0
 43
0.0001332181640625
 10
1.056048792172199
 20
0.9196418213936766
 10
1.056048792172199
 20
0.9063200049874296
 10
1.092683787289388
 20
0.9063200049874296
 10
1.092683787289388
 20
0.8696850098702398
 10
1.106005603695637
 20
0.8696850098702398
  0
LWPOLYLINE
  5
7DE1B343D9D4DB2
330
7DE1B343D9D4E67
100
AcDbEntity
  8
TEXT
100
AcDbPolyline
 90
        2
 70
     0
 43
0.0001332181640625
 10
1.066040154476887
 20
0.753119116315554
 10
1.056048792172199
 20
0.8130672901436795
  0
LWPOLYLINE
  5
7DE1B343D9D4DB6
330
7DE1B343D9D4E67
100
AcDbEntity
  8
TEXT
100
AcDbPolyline
 90
        2
 70
     0
 43
0.0001332181640625
 10
1.056048792172199
 20
0.799745473737429
 10
1.066040154476887
 20
0.7264754835030529
  0
LWPOLYLINE
  5
7DE1B343D9D4DBA
330
7DE1B343D9D4E67
100
AcDbEntity
  8
TEXT
100
AcDbPolyline
 90
        2
 70
     0
 43
0.0006660908203125
 10
1.066040154476887
 20
0.753119116315554
 10
1.066040154476887
 20
0.7264754835030529
  0
LWPOLYLINE
  5
7DE1B343D9D4DBE
330
7DE1B343D9D4E67
100
AcDbEntity
  8
TEXT
100
AcDbPolyline
 90
        5
 70
     0
 43
0.0001332181640625
 10
1.106005603695637
 20
0.8497022852608658
 10
1.092683787289388
 20
0.8497022852608658
 10
1.092683787289388
 20
0.8130672901436795
 10
1.056048792172199
 20
0.8130672901436795
 10
1.056048792172199
 20
0.799745473737429
  0
LWPOLYLINE
  5
7DE1B343D9D4DC5
330
7DE1B343D9D4E67
100
AcDbEntity
  8
TEXT
100
AcDbPolyline
 90
        2
 70
     0
 43
0.0006660908203125
 10
1.152631961117512
 20
0.8796763721749286
 10
1.179275593930013
 20
0.8796763721749286
  0
LWPOLYLINE
  5
7DE1B343D9D4DC9
330
7DE1B343D9D4E67
100
AcDbEntity
  8
TEXT
100
AcDbPolyline
 90
        2
 70
     0
 43
0.0006660908203125
 10
1.152631961117512
 20
0.8397109229561806
 10
1.179275593930013
 20
0.8397109229561806
  0
LINE
  5
7DE1B343D9D4DCD
330
7DE1B343D9D4E67
100
AcDbEntity
  8
TEXT
100
AcDbLine
 10
1.449389730778038
 20
0.9286351169712872
 30
0.0
 11
1.616295384807009
 21
0.9286351169712872
 31
0.0
  0
LINE
  5
7DE1B343D9D4DCE
330
7DE1B343D9D4E67
100
AcDbEntity
  8
TEXT
100
AcDbLine
 10
1.514989867022339
 20
0.8928303953606594
 30
0.0
 11
1.449389730778038
 21
0.8928303953606594
 31
0.0
  0
LINE
  5
7DE1B343D9D4DCF
330
7DE1B343D9D4E67
100
AcDbEntity
  8
TEXT
100
AcDbLine
 10
1.362064941217286
 20
0.7264387786395417
 30
0.0
 11
1.514989867022339
 21
0.7264387786395417
 31
0.0
  0
LINE
  5
7DE1B343D9D4DD0
330
7DE1B343D9D4E67
100
AcDbEntity
  8
TEXT
100
AcDbLine
 10
1.519930240928619
 20
0.794795784972981
 30
0.0
 11
1.362064941217285
 21
0.794795784972981
 31
0.0
  0
LINE
  5
7DE1B343D9D4DD1
330
7DE1B343D9D4E67
100
AcDbEntity
  8
TEXT
100
AcDbLine
 10
1.44415240066379
 20
0.8287368927350456
 30
0.0
 11
1.519930240928619
 21
0.8287368927350456
 31
0.0
  0
ARC
  5
7DE1B343D9D4DD2
330
7DE1B343D9D4E67
100
AcDbEntity
  8
TEXT
100
AcDbCircle
 10
1.449389730778039
 20
0.9107327561659751
 30
0.0
 40
0.017902360805315
100
AcDbArc
 50
90.0
 51
270.0
  0
LINE
  5
7DE1B343D9D4DD3
330
7DE1B343D9D4E67
100
AcDbEntity
  8
TEXT
100
AcDbLine
 10
1.362064941217285
 20
0.794795784972981
 30
0.0
 11
1.362064941217286
 21
0.7264387786395417
 31
0.0
  0
LINE
  5
7DE1B343D9D4DD4
330
7DE1B343D9D4E67
100
AcDbEntity
  8
TEXT
100
AcDbLine
 10
1.616295384807009
 20
0.9286351169712872
 30
0.0
 11
1.616295384807009
 21
0.7862311699775915
 31
0.0
  0
ARC
  5
7DE1B343D9D4DD5
330
7DE1B343D9D4E67
100
AcDbEntity
  8
TEXT
100
AcDbCircle
 10
1.51498986702234
 20
0.8096345870000988
 30
0.0
 40
0.0831958083605586
100
AcDbArc
 50
270.0
 51
90.0
  0
ARC
  5
7DE1B343D9D4DD6
330
7DE1B343D9D4E67
100
AcDbEntity
  8
TEXT
100
AcDbCircle
 10
1.51993024092862
 20
0.8117663388540151
 30
0.0
 40
0.0169705538810321
100
AcDbArc
 50
270.0
 51
90.0
  0
LWPOLYLINE
  5
7DE1B343D9D4DD7
330
7DE1B343D9D4E67
100
AcDbEntity
  8
TEXT
100
AcDbPolyline
 90
        2
 70
     0
 43
0.0006660908203125
 10
1.026074705258136
 20
0.9662681788155552
 10
1.026074705258136
 20
0.9929118116280562
  0
LWPOLYLINE
  5
7DE1B343D9D4DDB
330
7DE1B343D9D4E67
100
AcDbEntity
  8
TEXT
100
AcDbPolyline
 90
        2
 70
     0
 43
0.0006660908203125
 10
1.066040154476887
 20
0.9662681788155552
 10
1.066040154476887
 20
0.9929118116280562
  0
LINE
  5
7DE1B343D9D4DDF
330
7DE1B343D9D4E67
100
AcDbEntity
  8
TEXT
100
AcDbLine
 10
1.619884153562302
 20
0.9929118116280527
 30
0.0
 11
1.44415240066379
 21
0.9929118116280527
 31
0.0
  0
LINE
  5
7DE1B343D9D4DE0
330
7DE1B343D9D4E67
100
AcDbEntity
  8
TEXT
100
AcDbLine
 10
1.619884153562302
 20
1.02729972922219
 30
0.0
 11
1.619884153562302
 21
0.9929118116280527
 31
0.0
  0
LINE
  5
7DE1B343D9D4DE1
330
7DE1B343D9D4E67
100
AcDbEntity
  8
TEXT
100
AcDbLine
 10
1.810356045582155
 20
0.8920398155149321
 30
0.0
 11
1.751725724550217
 21
0.9929118116280527
 31
0.0
  0
LINE
  5
7DE1B343D9D4DE2
330
7DE1B343D9D4E67
100
AcDbEntity
  8
TEXT
100
AcDbLine
 10
1.86910460838802
 20
0.9929118116280527
 30
0.0
 11
1.810356045582155
 21
0.8920398155149321
 31
0.0
  0
LINE
  5
7DE1B343D9D4DE3
330
7DE1B343D9D4E67
100
AcDbEntity
  8
TEXT
100
AcDbLine
 10
1.966035233747761
 20
0.8088266167425409
 30
0.0
 11
1.966035233747761
 21
1.060923289366863
 31
0.0
  0
LINE
  5
7DE1B343D9D4DE4
330
7DE1B343D9D4E67
100
AcDbEntity
  8
TEXT
100
AcDbLine
 10
1.998347087885422
 20
0.9929118116280527
 30
0.0
 11
1.998347087885422
 21
0.7920476048956444
 31
0.0
  0
LINE
  5
7DE1B343D9D4DE5
330
7DE1B343D9D4E67
100
AcDbEntity
  8
TEXT
100
AcDbLine
 10
1.998347087885422
 20
0.7920476048956444
 30
0.0
 11
1.98135345100082
 21
0.7920476048956444
 31
0.0
  0
LINE
  5
7DE1B343D9D4DE6
330
7DE1B343D9D4E67
100
AcDbEntity
  8
TEXT
100
AcDbLine
 10
1.967174807243956
 20
0.7264387786395417
 30
0.0
 11
2.065178140943391
 21
0.7264387786395417
 31
0.0
  0
LINE
  5
7DE1B343D9D4DE7
330
7DE1B343D9D4E67
100
AcDbEntity
  8
TEXT
100
AcDbLine
 10
1.8007558085852
 20
0.7463972847445546
 30
0.0
 11
1.898055514678645
 21
0.9107474956798228
 31
0.0
  0
ARC
  5
7DE1B343D9D4DE8
330
7DE1B343D9D4E67
100
AcDbEntity
  8
TEXT
100
AcDbCircle
 10
1.766712248672986
 20
0.7659865009132374
 30
0.0
 40
0.0392772371940762
100
AcDbArc
 50
270.1604552698595
 51
330.0831797321295
  0
LINE
  5
7DE1B343D9D4DE9
330
7DE1B343D9D4E67
100
AcDbEntity
  8
TEXT
100
AcDbLine
 10
1.670181992287115
 20
0.7264387786395417
 30
0.0
 11
1.766822243362109
 21
0.726709417737824
 31
0.0
  0
LWPOLYLINE
  5
7DE1B343D9D4DEA
330
7DE1B343D9D4E67
100
AcDbEntity
  8
TEXT
100
AcDbPolyline
 90
        6
 70
     1
 43
0.0
 10
1.712705795862265
 20
0.9286351169712872
 10
1.682389201642056
 20
0.9286351169712872
 10
1.682389201642056
 20
0.8055241189163929
 42
0.407328721240804
 10
1.693932852803533
 20
0.7937052042400068
 10
1.754554551848264
 20
0.7937052042400068
 10
1.772019892255582
 20
0.826517433283486
  0
LINE
  5
7DE1B343D9D4DF2
330
7DE1B343D9D4E67
100
AcDbEntity
  8
TEXT
100
AcDbLine
 10
1.898055514678645
 20
0.9107474956798228
 30
0.0
 11
1.898055514678645
 21
0.7779901208544664
 31
0.0
  0
ARC
  5
7DE1B343D9D4DF3
330
7DE1B343D9D4E67
100
AcDbEntity
  8
TEXT
100
AcDbCircle
 10
1.981353451000818
 20
0.8074294111390699
 30
0.0
 40
0.0153818062434269
100
AcDbArc
 50
174.7883570302258
 51
270.0
  0
LWPOLYLINE
  5
7DE1B343D9D4DF4
330
7DE1B343D9D4E67
100
AcDbEntity
  8
TEXT
100
AcDbPolyline
 90
        2
 70
     0
 43
0.0
 10
1.898055514678643
 20
0.77799012085447
 42
0.3318488747599744
 10
1.967174807243956
 20
0.7264387786395417
 42
-6.868794160588311
  0
LINE
  5
7DE1B343D9D4DF8
330
7DE1B343D9D4E67
100
AcDbEntity
  8
TEXT
100
AcDbLine
 10
2.122567209932652
 20
0.7264387786395417
 30
0.0
 11
2.189625256714492
 21
0.7264387786395417
 31
0.0
  0
LINE
  5
7DE1B343D9D4DF9
330
7DE1B343D9D4E67
100
AcDbEntity
  8
TEXT
100
AcDbLine
 10
2.122567209932652
 20
0.9210813278051773
 30
0.0
 11
2.122567209932652
 21
0.7264387786395417
 31
0.0
  0
LINE
  5
7DE1B343D9D4DFA
330
7DE1B343D9D4E67
100
AcDbEntity
  8
TEXT
100
AcDbLine
 10
2.065178140943391
 20
0.9286351169712872
 30
0.0
 11
2.115013420766538
 21
0.9286351169712872
 31
0.0
  0
LINE
  5
7DE1B343D9D4DFB
330
7DE1B343D9D4E67
100
AcDbEntity
  8
TEXT
100
AcDbLine
 10
2.065178140943391
 20
0.7264387786395417
 30
0.0
 11
2.065178140943391
 21
0.9286351169712872
 31
0.0
  0
LWPOLYLINE
  5
7DE1B343D9D4DFC
330
7DE1B343D9D4E67
100
AcDbEntity
  8
TEXT
100
AcDbPolyline
 90
        2
 70
     0
 43
0.0
 10
2.115013420766536
 20
0.9286351169712872
 42
-0.4142135623731017
 10
2.12256720993265
 20
0.9210813278051773
 42
-0.9999999999999998
  0
LINE
  5
7DE1B343D9D4E00
330
7DE1B343D9D4E67
100
AcDbEntity
  8
TEXT
100
AcDbLine
 10
2.320823421544222
 20
0.9286351169712872
 30
0.0
 11
2.320823421544222
 21
0.8535827108970806
 31
0.0
  0
LINE
  5
7DE1B343D9D4E01
330
7DE1B343D9D4E67
100
AcDbEntity
  8
TEXT
100
AcDbLine
 10
2.189625256714492
 20
0.9286351169712872
 30
0.0
 11
2.243758853635442
 21
0.9286351169712872
 31
0.0
  0
LINE
  5
7DE1B343D9D4E02
330
7DE1B343D9D4E67
100
AcDbEntity
  8
TEXT
100
AcDbLine
 10
2.189625256714492
 20
0.7264387786395417
 30
0.0
 11
2.189625256714492
 21
0.9286351169712872
 31
0.0
  0
LWPOLYLINE
  5
7DE1B343D9D4E03
330
7DE1B343D9D4E67
100
AcDbEntity
  8
TEXT
100
AcDbPolyline
 90
        2
 70
     0
 43
0.0
 10
2.24375885363544
 20
0.9286351169712872
 42
-0.4142135623731017
 10
2.251312642801554
 20
0.9210813278051773
 42
-0.9999999999999998
  0
LWPOLYLINE
  5
7DE1B343D9D4E07
330
7DE1B343D9D4E67
100
AcDbEntity
  8
TEXT
100
AcDbPolyline
 90
        4
 70
     0
 43
0.0
 10
2.251312642801554
 20
0.9210813278051773
 10
2.251312642801554
 20
0.7264387786395417
 10
2.319790926089412
 20
0.7264387786395417
 10
2.319790926089412
 20
0.7699297235899798
 42
-1.714843617202739
  0
LINE
  5
7DE1B343D9D4E0D
330
7DE1B343D9D4E67
100
AcDbEntity
  8
TEXT
100
AcDbLine
 10
1.679926758406309
 20
0.9929118116280527
 30
0.0
 11
1.679926758406309
 21
1.02729972922219
 31
0.0
  0
LINE
  5
7DE1B343D9D4E0E
330
7DE1B343D9D4E67
100
AcDbEntity
  8
TEXT
100
AcDbLine
 10
1.751725724550217
 20
0.9929118116280527
 30
0.0
 11
1.679926758406309
 21
0.9929118116280527
 31
0.0
  0
LINE
  5
7DE1B343D9D4E0F
330
7DE1B343D9D4E67
100
AcDbEntity
  8
TEXT
100
AcDbLine
 10
1.899226521181396
 20
0.9929118116280527
 30
0.0
 11
1.86910460838802
 21
0.9929118116280527
 31
0.0
  0
LINE
  5
7DE1B343D9D4E10
330
7DE1B343D9D4E67
100
AcDbEntity
  8
TEXT
100
AcDbLine
 10
1.899226521181396
 20
1.060923289366863
 30
0.0
 11
1.899226521181396
 21
0.9929118116280527
 31
0.0
  0
LINE
  5
7DE1B343D9D4E11
330
7DE1B343D9D4E67
100
AcDbEntity
  8
TEXT
100
AcDbLine
 10
1.966035233747761
 20
1.060923289366863
 30
0.0
 11
1.899226521181396
 21
1.060923289366863
 31
0.0
  0
LWPOLYLINE
  5
7DE1B343D9D4E12
330
7DE1B343D9D4E67
100
AcDbEntity
  8
TEXT
100
AcDbPolyline
 90
        3
 70
     0
 43
0.0
 10
2.286446993345764
 20
0.9929118116280562
 10
2.168146834529719
 20
0.9929118116280562
 10
2.168146834529719
 20
0.9657443148671603
 42
-1.960274751411753
  0
LINE
  5
7DE1B343D9D4E17
330
7DE1B343D9D4E67
100
AcDbEntity
  8
TEXT
100
AcDbLine
 10
2.132365143816558
 20
0.9929118116280527
 30
0.0
 11
1.998347087885422
 21
0.9929118116280527
 31
0.0
  0
LWPOLYLINE
  5
7DE1B343D9D4E18
330
7DE1B343D9D4E67
100
AcDbEntity
  8
TEXT
100
AcDbPolyline
 90
        2
 70
     0
 43
0.0
 10
2.132365143816558
 20
0.9929118116280562
 42
-0.3328679258950098
 10
2.168146834529719
 20
0.9657443148671603
 42
6.772930709997214
  0
LINE
  5
7DE1B343D9D4E1C
330
7DE1B343D9D4E67
100
AcDbEntity
  8
TEXT
100
AcDbLine
 10
2.32222868405893
 20
0.9929118116280527
 30
0.0
 11
2.32222868405893
 21
0.9645892658584088
 31
0.0
  0
LWPOLYLINE
  5
7DE1B343D9D4E1D
330
7DE1B343D9D4E67
100
AcDbEntity
  8
TEXT
100
AcDbPolyline
 90
        2
 70
     0
 43
0.0
 10
2.286446993345764
 20
0.9929118116280562
 42
-0.3277054968067132
 10
2.322228684058929
 20
0.9645892658584124
 42
6.667889725900311
  0
LINE
  5
7DE1B343D9D4E21
330
7DE1B343D9D4E67
100
AcDbEntity
  8
TEXT
100
AcDbLine
 10
2.53602053215103
 20
0.8876998330746253
 30
0.0
 11
2.492269760969129
 21
0.9699501090707705
 31
0.0
  0
LINE
  5
7DE1B343D9D4E22
330
7DE1B343D9D4E67
100
AcDbEntity
  8
TEXT
100
AcDbLine
 10
2.53602053215103
 20
0.9929118116280527
 30
0.0
 11
2.53602053215103
 21
0.8876998330746253
 31
0.0
  0
LINE
  5
7DE1B343D9D4E23
330
7DE1B343D9D4E67
100
AcDbEntity
  8
TEXT
100
AcDbLine
 10
2.763704271089399
 20
0.9170464852165146
 30
0.0
 11
2.763704271089399
 21
1.058376017395653
 31
0.0
  0
LINE
  5
7DE1B343D9D4E24
330
7DE1B343D9D4E67
100
AcDbEntity
  8
TEXT
100
AcDbLine
 10
2.810802429645384
 20
0.9929118116280527
 30
0.0
 11
2.763704271089399
 21
0.9170464852165146
 31
0.0
  0
LINE
  5
7DE1B343D9D4E25
330
7DE1B343D9D4E67
100
AcDbEntity
  8
TEXT
100
AcDbLine
 10
2.821237146409307
 20
0.8830185686870791
 30
0.0
 11
2.885794262375012
 21
0.9929118116280527
 31
0.0
  0
LINE
  5
7DE1B343D9D4E26
330
7DE1B343D9D4E67
100
AcDbEntity
  8
TEXT
100
AcDbLine
 10
2.699869279866626
 20
0.7264387786395417
 30
0.0
 11
2.764247464185247
 21
0.7264387786395417
 31
0.0
  0
LWPOLYLINE
  5
7DE1B343D9D4E27
330
7DE1B343D9D4E67
100
AcDbEntity
  8
TEXT
100
AcDbPolyline
 90
        2
 70
     0
 43
0.0
 10
2.539960209456068
 20
0.7699297235899798
 42
-0.2901071551932486
 10
2.496884276588424
 20
0.7264387786395417
 42
-5.328517124445184
  0
ARC
  5
7DE1B343D9D4E2B
330
7DE1B343D9D4E67
100
AcDbEntity
  8
TEXT
100
AcDbCircle
 10
2.428029694931509
 20
0.9002757419712899
 30
0.0
 40
0.028359375
100
AcDbArc
 50
25.78218179591245
 51
90.0
  0
LINE
  5
7DE1B343D9D4E2C
330
7DE1B343D9D4E67
100
AcDbEntity
  8
TEXT
100
AcDbLine
 10
2.463830770235632
 20
0.891360143509155
 30
0.0
 11
2.453566009822068
 21
0.9126106830818493
 31
0.0
  0
LINE
  5
7DE1B343D9D4E2D
330
7DE1B343D9D4E67
100
AcDbEntity
  8
TEXT
100
AcDbLine
 10
2.381542780452249
 20
0.891360143509155
 30
0.0
 11
2.463830770235632
 21
0.891360143509155
 31
0.0
  0
LWPOLYLINE
  5
7DE1B343D9D4E2E
330
7DE1B343D9D4E67
100
AcDbEntity
  8
TEXT
100
AcDbPolyline
 90
        4
 70
     1
 43
0.0
 10
2.476761811518531
 20
0.8294027566235669
 10
2.388101492858673
 20
0.8294027566235669
 42
0.9999999999999998
 10
2.388101492858673
 20
0.7870042161197062
 10
2.476761811518531
 20
0.7870042161197062
 42
1.0
  0
LWPOLYLINE
  5
7DE1B343D9D4E34
330
7DE1B343D9D4E67
100
AcDbEntity
  8
TEXT
100
AcDbPolyline
 90
        2
 70
     0
 43
0.0
 10
2.362866858957047
 20
0.7264387786395417
 10
2.496884276588424
 20
0.7264387786395417
 42
0.9999999999999998
  0
LINE
  5
7DE1B343D9D4E38
330
7DE1B343D9D4E67
100
AcDbEntity
  8
TEXT
100
AcDbLine
 10
2.623221298574063
 20
0.9286351169712872
 30
0.0
 11
2.699869279866621
 21
0.9286351169712872
 31
0.0
  0
LINE
  5
7DE1B343D9D4E39
330
7DE1B343D9D4E67
100
AcDbEntity
  8
TEXT
100
AcDbLine
 10
2.699869279866621
 20
0.9286351169712872
 30
0.0
 11
2.699869279866626
 21
0.7264387786395417
 31
0.0
  0
ARC
  5
7DE1B343D9D4E3A
330
7DE1B343D9D4E67
100
AcDbEntity
  8
TEXT
100
AcDbCircle
 10
2.623221298574061
 20
0.9037292416886245
 30
0.0
 40
0.0249058752826653
100
AcDbArc
 50
89.99971217465335
 51
179.9999999999985
  0
LINE
  5
7DE1B343D9D4E3B
330
7DE1B343D9D4E67
100
AcDbEntity
  8
TEXT
100
AcDbLine
 10
2.598315423291404
 20
0.7264387786395417
 30
0.0
 11
2.598315423291399
 21
0.9037292840710101
 31
0.0
  0
LWPOLYLINE
  5
7DE1B343D9D4E3C
330
7DE1B343D9D4E67
100
AcDbEntity
  8
TEXT
100
AcDbPolyline
 90
        2
 70
     0
 43
0.0
 10
2.539960209456068
 20
0.7264387786395417
 10
2.598315423291402
 20
0.7264387786395417
  0
LWPOLYLINE
  5
7DE1B343D9D4E40
330
7DE1B343D9D4E67
100
AcDbEntity
  8
TEXT
100
AcDbPolyline
 90
        2
 70
     0
 43
0.0
 10
2.539960209456068
 20
0.7699297235899798
 10
2.539960209456068
 20
0.7264387786395417
  0
LINE
  5
7DE1B343D9D4E44
330
7DE1B343D9D4E67
100
AcDbEntity
  8
TEXT
100
AcDbLine
 10
2.916729369772917
 20
0.7264387786395417
 30
0.0
 11
2.821237146409307
 21
0.8830185686870791
 31
0.0
  0
LINE
  5
7DE1B343D9D4E45
330
7DE1B343D9D4E67
100
AcDbEntity
  8
TEXT
100
AcDbLine
 10
2.840150997396711
 20
0.7264387786395417
 30
0.0
 11
2.916729369772917
 21
0.7264387786395417
 31
0.0
  0
LINE
  5
7DE1B343D9D4E46
330
7DE1B343D9D4E67
100
AcDbEntity
  8
TEXT
100
AcDbLine
 10
2.764247464185247
 20
0.8580183471157219
 30
0.0
 11
2.840150997396711
 21
0.7264387786395417
 31
0.0
  0
LINE
  5
7DE1B343D9D4E47
330
7DE1B343D9D4E67
100
AcDbEntity
  8
TEXT
100
AcDbLine
 10
2.764247464185247
 20
0.7264387786395417
 30
0.0
 11
2.764247464185247
 21
0.8580183471157219
 31
0.0
  0
LINE
  5
7DE1B343D9D4E48
330
7DE1B343D9D4E67
100
AcDbEntity
  8
TEXT
100
AcDbLine
 10
2.763704271089399
 20
1.058376017395653
 30
0.0
 11
2.695389392540126
 21
1.058376017395653
 31
0.0
  0
ARC
  5
7DE1B343D9D4E49
330
7DE1B343D9D4E67
100
AcDbEntity
  8
TEXT
100
AcDbCircle
 10
2.45503365349892
 20
0.9513282445071503
 30
0.0
 40
0.0416329381542859
100
AcDbArc
 50
26.56974201007528
 51
87.20939649401342
  0
LINE
  5
7DE1B343D9D4E4A
330
7DE1B343D9D4E67
100
AcDbEntity
  8
TEXT
100
AcDbLine
 10
2.599917438450531
 20
0.9929118116280527
 30
0.0
 11
2.53602053215103
 21
0.9929118116280527
 31
0.0
  0
LINE
  5
7DE1B343D9D4E4B
330
7DE1B343D9D4E67
100
AcDbEntity
  8
TEXT
100
AcDbLine
 10
2.599917438450531
 20
0.965364161767178
 30
0.0
 11
2.599917438450531
 21
0.9929118116280527
 31
0.0
  0
ARC
  5
7DE1B343D9D4E4C
330
7DE1B343D9D4E67
100
AcDbEntity
  8
TEXT
100
AcDbCircle
 10
2.631110255513639
 20
0.9616660843457879
 30
0.0
 40
0.0314112657011332
100
AcDbArc
 50
95.88484768694724
 51
173.2388340632136
  0
LINE
  5
7DE1B343D9D4E4D
330
7DE1B343D9D4E67
100
AcDbEntity
  8
TEXT
100
AcDbLine
 10
2.695389392540121
 20
0.9929118116280527
 30
0.0
 11
2.627889674890604
 21
0.9929118116280527
 31
0.0
  0
LINE
  5
7DE1B343D9D4E4E
330
7DE1B343D9D4E67
100
AcDbEntity
  8
TEXT
100
AcDbLine
 10
2.695389392540126
 20
1.058376017395653
 30
0.0
 11
2.695389392540121
 21
0.9929118116280527
 31
0.0
  0
LINE
  5
7DE1B343D9D4E4F
330
7DE1B343D9D4E67
100
AcDbEntity
  8
TEXT
100
AcDbLine
 10
2.885794262375012
 20
0.9929118116280527
 30
0.0
 11
2.810802429645386
 21
0.9929118116280527
 31
0.0
  0
ENDSEC
  0
SECTION
  2
OBJECTS
  0
DICTIONARY
  5
7DE1B343D9D4E5B
330
0
100
AcDbDictionary
  3
ACAD_GROUP
350
7DE1B343D9D4E5C
  3
ACAD_LAYOUT
350
7DE1B343D9D4E81
  3
ACAD_MLINESTYLE
350
7DE1B343D9D4E5D
  3
ACAD_PLOTSETTINGS
350
7DE1B343D9D4E82
  3
ACAD_PLOTSTYLENAME
350
7DE1B343D9D4E7F
  3
ACDBHEADERROUNDTRIPXREC
350
7DE1B343D9D4E8C
  3
ACDBVARIABLEDICTIONARY
350
7DE1B343D9D4E89
  0
DICTIONARY
  5
7DE1B343D9D4EAE
330
7DE1B343D9D4E67
100
AcDbDictionary
280
     1
  3
ACAD_LAYOUTSELFREF
360
7DE1B343D9D4EAF
  0
DICTIONARY
  5
7DE1B343D9D4EAC
330
7DE1B343D9D4E64
100
AcDbDictionary
280
     1
  3
ACAD_LAYOUTSELFREF
360
7DE1B343D9D4EAD
  0
DICTIONARY
  5
7DE1B343D9D4E5C
102
{ACAD_REACTORS
330
7DE1B343D9D4E5B
102
}
330
7DE1B343D9D4E5B
100
AcDbDictionary
  0
DICTIONARY
  5
7DE1B343D9D4E81
102
{ACAD_REACTORS
330
7DE1B343D9D4E5B
102
}
330
7DE1B343D9D4E5B
100
AcDbDictionary
  0
DICTIONARY
  5
7DE1B343D9D4E5D
102
{ACAD_REACTORS
330
7DE1B343D9D4E5B
102
}
330
7DE1B343D9D4E5B
100
AcDbDictionary
  3
STANDARD
350
7DE1B343D9D4E6A
  0
DICTIONARY
  5
7DE1B343D9D4E82
102
{ACAD_REACTORS
330
7DE1B343D9D4E5B
102
}
330
7DE1B343D9D4E5B
100
AcDbDictionary
  0
ACDBDICTIONARYWDFLT
  5
7DE1B343D9D4E7F
102
{ACAD_REACTORS
330
7DE1B343D9D4E5B
102
}
330
7DE1B343D9D4E5B
100
AcDbDictionary
281
     1
  3
Normal
350
7DE1B343D9D4E80
100
AcDbDictionaryWithDefault
340
7DE1B343D9D4E80
  0
DICTIONARY
  5
7DE1B343D9D4E8C
102
{ACAD_REACTORS
330
7DE1B343D9D4E5B
102
}
330
7DE1B343D9D4E5B
100
AcDbDictionary
  3
CEPSNTYPE
350
7DE1B343D9D4E96
  3
FINGERPRINTGUID
350
7DE1B343D9D4E97
  3
HYPERLINKBASE
350
7DE1B343D9D4E8F
  3
INSUNITS
350
7DE1B343D9D4E95
  3
LAYOUTDICT
350
7DE1B343D9D4E91
  3
LWETCUNION
350
7DE1B343D9D4E94
  3
PLOTSETDICT
350
7DE1B343D9D4E92
  3
PLOTSTYLNAMDICT
350
7DE1B343D9D4E93
  3
PSVPSCALE
350
7DE1B343D9D4E99
  3
PUCSBASE
350
7DE1B343D9D4E9C
  3
PUCSORGBACK
350
7DE1B343D9D4EA2
  3
PUCSORGBOTTOM
350
7DE1B343D9D4E9E
  3
PUCSORGFRONT
350
7DE1B343D9D4EA1
  3
PUCSORGLEFT
350
7DE1B343D9D4E9F
  3
PUCSORGRIGHT
350
7DE1B343D9D4EA0
  3
PUCSORGTOP
350
7DE1B343D9D4E9D
  3
PUCSORTHOREF
350
7DE1B343D9D4E9A
  3
PUCSORTHOVIEW
350
7DE1B343D9D4E9B
  3
STYLESHEET
350
7DE1B343D9D4E90
  3
TSTACKALIGN
350
7DE1B343D9D4E8D
  3
TSTACKSIZE
350
7DE1B343D9D4E8E
  3
UCSBASE
350
7DE1B343D9D4EA5
  3
UCSORGBACK
350
7DE1B343D9D4EAB
  3
UCSORGBOTTOM
350
7DE1B343D9D4EA7
  3
UCSORGFRONT
350
7DE1B343D9D4EAA
  3
UCSORGLEFT
350
7DE1B343D9D4EA8
  3
UCSORGRIGHT
350
7DE1B343D9D4EA9
  3
UCSORGTOP
350
7DE1B343D9D4EA6
  3
UCSORTHOREF
350
7DE1B343D9D4EA3
  3
UCSORTHOVIEW
350
7DE1B343D9D4EA4
  3
VERSIONGUID
350
7DE1B343D9D4E98
  0
DICTIONARY
  5
7DE1B343D9D4E89
102
{ACAD_REACTORS
330
7DE1B343D9D4E5B
102
}
330
7DE1B343D9D4E5B
100
AcDbDictionary
  3
DIMASSOC
350
7DE1B343D9D4E8A
  0
XRECORD
  5
7DE1B343D9D4EAF
102
{ACAD_REACTORS
330
7DE1B343D9D4EAE
102
}
330
7DE1B343D9D4EAE
100
AcDbXrecord
340
7DE1B343D9D4E67
  0
XRECORD
  5
7DE1B343D9D4EAD
102
{ACAD_REACTORS
330
7DE1B343D9D4EAC
102
}
330
7DE1B343D9D4EAC
100
AcDbXrecord
340
7DE1B343D9D4E64
  0
MLINESTYLE
  5
7DE1B343D9D4E6A
102
{ACAD_REACTORS
330
7DE1B343D9D4E5D
102
}
330
7DE1B343D9D4E5D
100
AcDbMlineStyle
  2
STANDARD
 70
     0
  3

 62
     0
 51
90.0
 52
90.0
 71
     2
 49
0.5
 62
   256
  6
BYLAYER
 49
-0.5
 62
   256
  6
BYLAYER
  0
ACDBPLACEHOLDER
  5
7DE1B343D9D4E80
102
{ACAD_REACTORS
330
7DE1B343D9D4E7F
102
}
330
7DE1B343D9D4E7F
100
AcDbPlaceHolder
280
     0
  0
XRECORD
  5
7DE1B343D9D4E96
102
{ACAD_REACTORS
330
7DE1B343D9D4E8C
102
}
330
7DE1B343D9D4E8C
100
AcDbXrecord
 90
        0
  0
XRECORD
  5
7DE1B343D9D4E97
102
{ACAD_REACTORS
330
7DE1B343D9D4E8C
102
}
330
7DE1B343D9D4E8C
100
AcDbXrecord
  1
{C356F380-8DB4-11D6-88E6-0090279574E7}
  0
XRECORD
  5
7DE1B343D9D4E8F
102
{ACAD_REACTORS
330
7DE1B343D9D4E8C
102
}
330
7DE1B343D9D4E8C
100
AcDbXrecord
  1

  0
XRECORD
  5
7DE1B343D9D4E95
102
{ACAD_REACTORS
330
7DE1B343D9D4E8C
102
}
330
7DE1B343D9D4E8C
100
AcDbXrecord
 90
        0
  0
XRECORD
  5
7DE1B343D9D4E91
102
{ACAD_REACTORS
330
7DE1B343D9D4E8C
102
}
330
7DE1B343D9D4E8C
100
AcDbXrecord
340
7DE1B343D9D4E81
  0
XRECORD
  5
7DE1B343D9D4E94
102
{ACAD_REACTORS
330
7DE1B343D9D4E8C
102
}
330
7DE1B343D9D4E8C
100
AcDbXrecord
 90
    14877
  0
XRECORD
  5
7DE1B343D9D4E92
102
{ACAD_REACTORS
330
7DE1B343D9D4E8C
102
}
330
7DE1B343D9D4E8C
100
AcDbXrecord
340
7DE1B343D9D4E82
  0
XRECORD
  5
7DE1B343D9D4E93
102
{ACAD_REACTORS
330
7DE1B343D9D4E8C
102
}
330
7DE1B343D9D4E8C
100
AcDbXrecord
340
7DE1B343D9D4E7F
  0
XRECORD
  5
7DE1B343D9D4E99
102
{ACAD_REACTORS
330
7DE1B343D9D4E8C
102
}
330
7DE1B343D9D4E8C
100
AcDbXrecord
 40
0.0
  0
XRECORD
  5
7DE1B343D9D4E9C
102
{ACAD_REACTORS
330
7DE1B343D9D4E8C
102
}
330
7DE1B343D9D4E8C
100
AcDbXrecord
340
0
  0
XRECORD
  5
7DE1B343D9D4EA2
102
{ACAD_REACTORS
330
7DE1B343D9D4E8C
102
}
330
7DE1B343D9D4E8C
100
AcDbXrecord
 10
0.0
 20
0.0
 30
0.0
  0
XRECORD
  5
7DE1B343D9D4E9E
102
{ACAD_REACTORS
330
7DE1B343D9D4E8C
102
}
330
7DE1B343D9D4E8C
100
AcDbXrecord
 10
0.0
 20
0.0
 30
0.0
  0
XRECORD
  5
7DE1B343D9D4EA1
102
{ACAD_REACTORS
330
7DE1B343D9D4E8C
102
}
330
7DE1B343D9D4E8C
100
AcDbXrecord
 10
0.0
 20
0.0
 30
0.0
  0
XRECORD
  5
7DE1B343D9D4E9F
102
{ACAD_REACTORS
330
7DE1B343D9D4E8C
102
}
330
7DE1B343D9D4E8C
100
AcDbXrecord
 10
0.0
 20
0.0
 30
0.0
  0
XRECORD
  5
7DE1B343D9D4EA0
102
{ACAD_REACTORS
330
7DE1B343D9D4E8C
102
}
330
7DE1B343D9D4E8C
100
AcDbXrecord
 10
0.0
 20
0.0
 30
0.0
  0
XRECORD
  5
7DE1B343D9D4E9D
102
{ACAD_REACTORS
330
7DE1B343D9D4E8C
102
}
330
7DE1B343D9D4E8C
100
AcDbXrecord
 10
0.0
 20
0.0
 30
0.0
  0
XRECORD
  5
7DE1B343D9D4E9A
102
{ACAD_REACTORS
330
7DE1B343D9D4E8C
102
}
330
7DE1B343D9D4E8C
100
AcDbXrecord
340
0
  0
XRECORD
  5
7DE1B343D9D4E9B
102
{ACAD_REACTORS
330
7DE1B343D9D4E8C
102
}
330
7DE1B343D9D4E8C
100
AcDbXrecord
 70
     0
  0
XRECORD
  5
7DE1B343D9D4E90
102
{ACAD_REACTORS
330
7DE1B343D9D4E8C
102
}
330
7DE1B343D9D4E8C
100
AcDbXrecord
  1

  0
XRECORD
  5
7DE1B343D9D4E8D
102
{ACAD_REACTORS
330
7DE1B343D9D4E8C
102
}
330
7DE1B343D9D4E8C
100
AcDbXrecord
 90
        1
  0
XRECORD
  5
7DE1B343D9D4E8E
102
{ACAD_REACTORS
330
7DE1B343D9D4E8C
102
}
330
7DE1B343D9D4E8C
100
AcDbXrecord
 90
       70
  0
XRECORD
  5
7DE1B343D9D4EA5
102
{ACAD_REACTORS
330
7DE1B343D9D4E8C
102
}
330
7DE1B343D9D4E8C
100
AcDbXrecord
340
0
  0
XRECORD
  5
7DE1B343D9D4EAB
102
{ACAD_REACTORS
330
7DE1B343D9D4E8C
102
}
330
7DE1B343D9D4E8C
100
AcDbXrecord
 10
0.0
 20
0.0
 30
0.0
  0
XRECORD
  5
7DE1B343D9D4EA7
102
{ACAD_REACTORS
330
7DE1B343D9D4E8C
102
}
330
7DE1B343D9D4E8C
100
AcDbXrecord
 10
0.0
 20
0.0
 30
0.0
  0
XRECORD
  5
7DE1B343D9D4EAA
102
{ACAD_REACTORS
330
7DE1B343D9D4E8C
102
}
330
7DE1B343D9D4E8C
100
AcDbXrecord
 10
0.0
 20
0.0
 30
0.0
  0
XRECORD
  5
7DE1B343D9D4EA8
102
{ACAD_REACTORS
330
7DE1B343D9D4E8C
102
}
330
7DE1B343D9D4E8C
100
AcDbXrecord
 10
0.0
 20
0.0
 30
0.0
  0
XRECORD
  5
7DE1B343D9D4EA9
102
{ACAD_REACTORS
330
7DE1B343D9D4E8C
102
}
330
7DE1B343D9D4E8C
100
AcDbXrecord
 10
0.0
 20
0.0
 30
0.0
  0
XRECORD
  5
7DE1B343D9D4EA6
102
{ACAD_REACTORS
330
7DE1B343D9D4E8C
102
}
330
7DE1B343D9D4E8C
100
AcDbXrecord
 10
0.0
 20
0.0
 30
0.0
  0
XRECORD
  5
7DE1B343D9D4EA3
102
{ACAD_REACTORS
330
7DE1B343D9D4E8C
102
}
330
7DE1B343D9D4E8C
100
AcDbXrecord
340
0
  0
XRECORD
  5
7DE1B343D9D4EA4
102
{ACAD_REACTORS
330
7DE1B343D9D4E8C
102
}
330
7DE1B343D9D4E8C
100
AcDbXrecord
 70
     0
  0
XRECORD
  5
7DE1B343D9D4E98
102
{ACAD_REACTORS
330
7DE1B343D9D4E8C
102
}
330
7DE1B343D9D4E8C
100
AcDbXrecord
  1
{C356F382-8DB4-11D6-88E6-0090279574E7}
  0
DICTIONARYVAR
  5
7DE1B343D9D4E8A
102
{ACAD_REACTORS
330
7DE1B343D9D4E89
102
}
330
7DE1B343D9D4E89
100
DictionaryVariables
280
     0
  1
1
  0
ENDSEC
  0
EOF
