  0
SECTION
  2
HEADER
  9
$ACADVER
  1
AC1014
  9
$ACADMAINTVER
 70
     9
  9
$DWGCODEPAGE
  3
ANSI_1252
  9
$INSBASE
 10
2.53062586006709
 20
1.746831543981185
 30
0.0
  9
$EXTMIN
 10
1.100144280839946
 20
1.026794656049087
 30
0.0
  9
$EXTMAX
 10
4.585363602587076
 20
2.184331543981185
 30
0.0
  9
$LIMMIN
 10
0.0
 20
0.0
  9
$LIMMAX
 10
18.0
 20
12.0
  9
$ORTHOMODE
 70
     1
  9
$REGENMODE
 70
     1
  9
$FILLMODE
 70
     1
  9
$QTEXTMODE
 70
     0
  9
$MIRRTEXT
 70
     0
  9
$DRAGMODE
 70
     2
  9
$LTSCALE
 40
1.0
  9
$OSMODE
 70
    39
  9
$ATTMODE
 70
     1
  9
$TEXTSIZE
 40
0.125
  9
$TRACEWID
 40
0.05
  9
$TEXTSTYLE
  7
ROMANS
  9
$CLAYER
  8
0
  9
$CELTYPE
  6
BYLAYER
  9
$CECOLOR
 62
   256
  9
$CELTSCALE
 40
1.0
  9
$DELOBJ
 70
     1
  9
$DISPSILH
 70
     1
  9
$DIMSCALE
 40
1.0
  9
$DIMASZ
 40
0.125
  9
$DIMEXO
 40
0.125
  9
$DIMDLI
 40
0.375
  9
$DIMRND
 40
0.0
  9
$DIMDLE
 40
0.0
  9
$DIMEXE
 40
0.125
  9
$DIMTP
 40
0.0
  9
$DIMTM
 40
0.0
  9
$DIMTXT
 40
0.125
  9
$DIMCEN
 40
-0.125
  9
$DIMTSZ
 40
0.0
  9
$DIMTOL
 70
     0
  9
$DIMLIM
 70
     0
  9
$DIMTIH
 70
     1
  9
$DIMTOH
 70
     1
  9
$DIMSE1
 70
     0
  9
$DIMSE2
 70
     0
  9
$DIMTAD
 70
     0
  9
$DIMZIN
 70
     4
  9
$DIMBLK
  1

  9
$DIMASO
 70
     1
  9
$DIMSHO
 70
     1
  9
$DIMPOST
  1

  9
$DIMAPOST
  1

  9
$DIMALT
 70
     0
  9
$DIMALTD
 70
     2
  9
$DIMALTF
 40
25.4
  9
$DIMLFAC
 40
1.0
  9
$DIMTOFL
 70
     0
  9
$DIMTVP
 40
0.0
  9
$DIMTIX
 70
     1
  9
$DIMSOXD
 70
     0
  9
$DIMSAH
 70
     0
  9
$DIMBLK1
  1

  9
$DIMBLK2
  1

  9
$DIMSTYLE
  2
STANDARD
  9
$DIMCLRD
 70
     0
  9
$DIMCLRE
 70
     0
  9
$DIMCLRT
 70
     0
  9
$DIMTFAC
 40
1.0
  9
$DIMGAP
 40
0.09
  9
$DIMJUST
 70
     0
  9
$DIMSD1
 70
     0
  9
$DIMSD2
 70
     0
  9
$DIMTOLJ
 70
     1
  9
$DIMTZIN
 70
     4
  9
$DIMALTZ
 70
     0
  9
$DIMALTTZ
 70
     0
  9
$DIMFIT
 70
     3
  9
$DIMUPT
 70
     0
  9
$DIMUNIT
 70
     2
  9
$DIMDEC
 70
     3
  9
$DIMTDEC
 70
     3
  9
$DIMALTU
 70
     2
  9
$DIMALTTD
 70
     2
  9
$DIMTXSTY
  7
ROMANS
  9
$DIMAUNIT
 70
     0
  9
$LUNITS
 70
     2
  9
$LUPREC
 70
     3
  9
$SKETCHINC
 40
0.1
  9
$FILLETRAD
 40
0.03125
  9
$AUNITS
 70
     0
  9
$AUPREC
 70
     0
  9
$MENU
  1
ACAD
  9
$ELEVATION
 40
0.0
  9
$PELEVATION
 40
0.0
  9
$THICKNESS
 40
0.0
  9
$LIMCHECK
 70
     0
  9
$BLIPMODE
 70
     0
  9
$CHAMFERA
 40
0.0
  9
$CHAMFERB
 40
0.0
  9
$CHAMFERC
 40
0.0
  9
$CHAMFERD
 40
0.0
  9
$SKPOLY
 70
     0
  9
$TDCREATE
 40
2448994.369981018
  9
$TDUPDATE
 40
2452458.299204051
  9
$TDINDWG
 40
0.0009068287
  9
$TDUSRTIMER
 40
0.0009068287
  9
$USRTIMER
 70
     1
  9
$ANGBASE
 50
0.0
  9
$ANGDIR
 70
     0
  9
$PDMODE
 70
     0
  9
$PDSIZE
 40
0.0
  9
$PLINEWID
 40
0.0
  9
$COORDS
 70
     2
  9
$SPLFRAME
 70
     0
  9
$SPLINETYPE
 70
     6
  9
$SPLINESEGS
 70
     8
  9
$ATTDIA
 70
     0
  9
$ATTREQ
 70
     1
  9
$HANDLING
 70
 22529
  9
$HANDSEED
  5
7DE1B343D9D4A2F
  9
$SURFTAB1
 70
     6
  9
$SURFTAB2
 70
     6
  9
$SURFTYPE
 70
     6
  9
$SURFU
 70
     6
  9
$SURFV
 70
     6
  9
$UCSNAME
  2

  9
$UCSORG
 10
0.0
 20
0.0
 30
0.0
  9
$UCSXDIR
 10
1.0
 20
0.0
 30
0.0
  9
$UCSYDIR
 10
0.0
 20
1.0
 30
0.0
  9
$PUCSNAME
  2

  9
$PUCSORG
 10
0.0
 20
0.0
 30
0.0
  9
$PUCSXDIR
 10
1.0
 20
0.0
 30
0.0
  9
$PUCSYDIR
 10
0.0
 20
1.0
 30
0.0
  9
$USERI1
 70
     0
  9
$USERI2
 70
     0
  9
$USERI3
 70
     0
  9
$USERI4
 70
     0
  9
$USERI5
 70
     0
  9
$USERR1
 40
0.0
  9
$USERR2
 40
0.0
  9
$USERR3
 40
0.0
  9
$USERR4
 40
0.0
  9
$USERR5
 40
0.0
  9
$WORLDVIEW
 70
     1
  9
$SHADEDGE
 70
     3
  9
$SHADEDIF
 70
    70
  9
$TILEMODE
 70
     1
  9
$MAXACTVP
 70
    16
  9
$PINSBASE
 10
0.7403539705512045
 20
50.00000000000001
 30
1.484756102612428
  9
$PLIMCHECK
 70
     0
  9
$PEXTMIN
 10
1.000000000000000E+20
 20
1.000000000000000E+20
 30
1.000000000000000E+20
  9
$PEXTMAX
 10
-1.000000000000000E+20
 20
-1.000000000000000E+20
 30
-1.000000000000000E+20
  9
$PLIMMIN
 10
0.0
 20
0.0
  9
$PLIMMAX
 10
12.0
 20
9.0
  9
$UNITMODE
 70
     0
  9
$VISRETAIN
 70
     0
  9
$PLINEGEN
 70
     1
  9
$PSLTSCALE
 70
     0
  9
$TREEDEPTH
 70
  3020
  9
$PICKSTYLE
 70
     1
  9
$CMLSTYLE
  2
STANDARD
  9
$CMLJUST
 70
     0
  9
$CMLSCALE
 40
1.0
  9
$PROXYGRAPHICS
 70
     1
  9
$MEASUREMENT
 70
     0
  0
ENDSEC
  0
SECTION
  2
CLASSES
  0
CLASS
  1
LWPOLYLINE
  2
AcDbPolyline
  3
AutoCAD 2000
 90
        0
280
     0
281
     1
  0
CLASS
  1
ACDBDICTIONARYWDFLT
  2
AcDbDictionaryWithDefault
  3
AutoCAD 2000
 90
        0
280
     0
281
     0
  0
CLASS
  1
ACDBPLACEHOLDER
  2
AcDbPlaceHolder
  3
AutoCAD 2000
 90
        0
280
     0
281
     0
  0
CLASS
  1
LAYOUT
  2
AcDbLayout
  3
AutoCAD 2000
 90
        0
280
     0
281
     0
  0
CLASS
  1
DICTIONARYVAR
  2
AcDbDictionaryVar
  3
AutoCAD 2000
 90
        0
280
     0
281
     0
  0
CLASS
  1
LONG_TRANSACTION
  2
AcDbLongTransaction
  3
AutoCAD 2000
 90
        0
280
     0
281
     0
  0
CLASS
  1
LWPOLYLINE
  2
AcDbPolyline
  3
AutoCAD 2000
 90
        0
280
     0
281
     1
  0
CLASS
  1
HATCH
  2
AcDbHatch
  3
AutoCAD 2000
 90
        0
280
     0
281
     1
  0
CLASS
  1
XRECORD
  2
AcDbXrecord
  3
AutoCAD 2000
 90
        0
280
     0
281
     0
  0
ENDSEC
  0
SECTION
  2
TABLES
  0
TABLE
  2
VPORT
  5
7DE1B343D9D49D6
330
0
100
AcDbSymbolTable
 70
     2
  0
VPORT
  5
7DE1B343D9D4A0A
330
7DE1B343D9D49D6
100
AcDbSymbolTableRecord
100
AcDbViewportTableRecord
  2
*ACTIVE
 70
     0
 10
0.0
 20
0.0
 11
1.0
 21
1.0
 12
5.819186055225569
 22
1.605468772823769
 13
0.0
 23
0.0
 14
0.015625
 24
0.015625
 15
0.0
 25
0.0
 16
0.0
 26
0.0
 36
1.0
 17
0.0
 27
0.0
 37
0.0
 40
2.282647215150728
 41
4.320930232558139
 42
50.0
 43
0.0
 44
0.0
 50
0.0
 51
0.0
 71
     0
 72
  2000
 73
     1
 74
     0
 75
     0
 76
     0
 77
     0
 78
     0
  0
ENDTAB
  0
TABLE
  2
LTYPE
  5
7DE1B343D9D49D3
330
0
100
AcDbSymbolTable
 70
     1
  0
LTYPE
  5
7DE1B343D9D49E0
330
7DE1B343D9D49D3
100
AcDbSymbolTableRecord
100
AcDbLinetypeTableRecord
  2
BYBLOCK
 70
     0
  3

 72
    65
 73
     0
 40
0.0
  0
LTYPE
  5
7DE1B343D9D49E1
330
7DE1B343D9D49D3
100
AcDbSymbolTableRecord
100
AcDbLinetypeTableRecord
  2
BYLAYER
 70
     0
  3

 72
    65
 73
     0
 40
0.0
  0
LTYPE
  5
7DE1B343D9D49E2
330
7DE1B343D9D49D3
100
AcDbSymbolTableRecord
100
AcDbLinetypeTableRecord
  2
CONTINUOUS
 70
     0
  3
Solid line
 72
    65
 73
     0
 40
0.0
  0
ENDTAB
  0
TABLE
  2
LAYER
  5
7DE1B343D9D49D0
330
0
100
AcDbSymbolTable
 70
     2
  0
LAYER
  5
7DE1B343D9D49DD
330
7DE1B343D9D49D0
100
AcDbSymbolTableRecord
100
AcDbLayerTableRecord
  2
0
 70
     0
 62
     7
  6
CONTINUOUS
  0
LAYER
  5
7DE1B343D9D49ED
330
7DE1B343D9D49D0
100
AcDbSymbolTableRecord
100
AcDbLayerTableRecord
  2
TEXT
 70
     0
 62
     3
  6
CONTINUOUS
  0
ENDTAB
  0
TABLE
  2
STYLE
  5
7DE1B343D9D49D1
330
0
100
AcDbSymbolTable
 70
     3
  0
STYLE
  5
7DE1B343D9D49DE
330
7DE1B343D9D49D1
100
AcDbSymbolTableRecord
100
AcDbTextStyleTableRecord
  2
STANDARD
 70
     0
 40
0.0
 41
1.0
 50
0.0
 71
     0
 42
0.3125
  3
txt
  4

  0
STYLE
  5
7DE1B343D9D49EA
330
7DE1B343D9D49D1
100
AcDbSymbolTableRecord
100
AcDbTextStyleTableRecord
  2
ITALICC
 70
     0
 40
0.0
 41
1.0
 50
0.0
 71
     0
 42
0.125
  3
italicc
  4

  0
STYLE
  5
7DE1B343D9D49FA
330
7DE1B343D9D49D1
100
AcDbSymbolTableRecord
100
AcDbTextStyleTableRecord
  2
ROMANS
 70
     0
 40
0.0
 41
1.0
 50
0.0
 71
     0
 42
0.125
  3
romans.shx
  4

  0
ENDTAB
  0
TABLE
  2
VIEW
  5
7DE1B343D9D49D4
330
0
100
AcDbSymbolTable
 70
     0
  0
ENDTAB
  0
TABLE
  2
UCS
  5
7DE1B343D9D49D5
330
0
100
AcDbSymbolTable
 70
     0
  0
ENDTAB
  0
TABLE
  2
APPID
  5
7DE1B343D9D49D7
330
0
100
AcDbSymbolTable
 70
     1
  0
APPID
  5
7DE1B343D9D49DF
330
7DE1B343D9D49D7
100
AcDbSymbolTableRecord
100
AcDbRegAppTableRecord
  2
ACAD
 70
     0
  0
ENDTAB
  0
TABLE
  2
DIMSTYLE
  5
7DE1B343D9D49D8
330
0
100
AcDbSymbolTable
 70
     1
  0
DIMSTYLE
105
7DE1B343D9D49F2
330
7DE1B343D9D49D8
100
AcDbSymbolTableRecord
100
AcDbDimStyleTableRecord
  2
STANDARD
 70
     0
  3

  4

  5

  6

  7

 40
1.0
 41
0.125
 42
0.125
 43
0.375
 44
0.125
 45
0.0
 46
0.0
 47
0.0
 48
0.0
140
0.125
141
-0.125
142
0.0
143
25.4
144
1.0
145
0.0
146
1.0
147
0.09
 71
     0
 72
     0
 73
     1
 74
     1
 75
     0
 76
     0
 77
     0
 78
     4
170
     0
171
     2
172
     0
173
     0
174
     1
175
     0
176
     0
177
     0
178
     0
270
     2
271
     3
272
     3
273
     2
274
     2
340
7DE1B343D9D49FA
275
     0
280
     0
281
     0
282
     0
283
     1
284
     4
285
     0
286
     0
287
     3
288
     0
  0
ENDTAB
  0
TABLE
  2
BLOCK_RECORD
  5
7DE1B343D9D49CF
330
0
100
AcDbSymbolTable
 70
     0
  0
BLOCK_RECORD
  5
7DE1B343D9D49E6
102
{ACAD_XDICTIONARY
360
7DE1B343D9D4A2D
102
}
330
7DE1B343D9D49CF
100
AcDbSymbolTableRecord
100
AcDbBlockTableRecord
  2
*MODEL_SPACE
  0
BLOCK_RECORD
  5
7DE1B343D9D49E3
102
{ACAD_XDICTIONARY
360
7DE1B343D9D4A2B
102
}
330
7DE1B343D9D49CF
100
AcDbSymbolTableRecord
100
AcDbBlockTableRecord
  2
*PAPER_SPACE
  0
ENDTAB
  0
ENDSEC
  0
SECTION
  2
BLOCKS
  0
BLOCK
  5
7DE1B343D9D49F0
330
7DE1B343D9D49E6
100
AcDbEntity
  8
0
100
AcDbBlockBegin
  2
*MODEL_SPACE
 70
     0
 10
0.0
 20
0.0
 30
0.0
  3
*MODEL_SPACE
  1

  0
ENDBLK
  5
7DE1B343D9D49F1
330
7DE1B343D9D49E6
100
AcDbEntity
  8
0
100
AcDbBlockEnd
  0
BLOCK
  5
7DE1B343D9D49EE
330
7DE1B343D9D49E3
100
AcDbEntity
 67
     1
  8
0
100
AcDbBlockBegin
  2
*PAPER_SPACE
 70
     0
 10
0.0
 20
0.0
 30
0.0
  3
*PAPER_SPACE
  1

  0
ENDBLK
  5
7DE1B343D9D49EF
330
7DE1B343D9D49E3
100
AcDbEntity
 67
     1
  8
0
100
AcDbBlockEnd
  0
ENDSEC
  0
SECTION
  2
ENTITIES
  0
LWPOLYLINE
  5
7DE1B343D9D3617
330
7DE1B343D9D49E6
100
AcDbEntity
  8
0
100
AcDbPolyline
 90
        6
 70
     1
 43
0.0
 10
2.593125860067091
 20
2.184331543981185
 10
2.53062586006709
 20
2.184331543981185
 10
2.53062586006709
 20
1.746831543981185
 10
3.15562586006709
 20
1.746831543981184
 10
3.15562586006709
 20
1.809331543981184
 10
2.59312586006709
 20
1.809331543981185
  0
TEXT
  5
7DE1B343D9D4891
330
7DE1B343D9D49E6
100
AcDbEntity
  8
TEXT
100
AcDbText
 10
2.090149669590899
 20
1.484813260131668
 30
0.0
 40
0.125
  1
PART #110180
  7
ITALICC
 72
     1
 11
2.84312586006709
 21
1.484813260131668
 31
0.0
100
AcDbText
  0
TEXT
  5
7DE1B343D9D4892
330
7DE1B343D9D49E6
100
AcDbEntity
  8
TEXT
100
AcDbText
 10
3.25643101831741
 20
1.037890617459293
 30
0.0
 40
0.0522247191011236
  1
Phone  1-800-328-2495
 41
1.272321428571429
 72
     5
 11
4.585363602587074
 21
1.037890617459293
 31
0.0
100
AcDbText
  0
TEXT
  5
7DE1B343D9D4893
330
7DE1B343D9D49E6
100
AcDbEntity
  8
TEXT
100
AcDbText
 10
3.25643101831741
 20
1.317665898358169
 30
0.0
 40
0.0522247191011236
  1
Stylmark  Incorporated
 41
1.221428571428573
 72
     5
 11
4.585363602587074
 21
1.317665898358169
 31
0.0
100
AcDbText
  0
TEXT
  5
7DE1B343D9D4894
330
7DE1B343D9D49E6
100
AcDbEntity
  8
TEXT
100
AcDbText
 10
3.25643101831741
 20
1.224407471391877
 30
0.0
 40
0.0522247191011236
  1
6536 Main St. N.E. * P.O. Box 32008
 41
0.8388932496075366
 72
     5
 11
4.585363602587074
 21
1.224407471391877
 31
0.0
100
AcDbText
  0
TEXT
  5
7DE1B343D9D4895
330
7DE1B343D9D49E6
100
AcDbEntity
  8
TEXT
100
AcDbText
 10
3.25643101831741
 20
1.131149044425585
 30
0.0
 40
0.0522247191011236
  1
Minneapolis, MN 55432-0008
 41
1.11444212721585
 72
     5
 11
4.585363602587074
 21
1.131149044425585
 31
0.0
100
AcDbText
  0
LWPOLYLINE
  5
7DE1B343D9D4896
330
7DE1B343D9D49E6
100
AcDbEntity
  8
TEXT
100
AcDbPolyline
 90
        3
 70
     0
 43
0.0006660908203125
 10
1.100477326250103
 20
1.151535380096728
 10
1.100477326250103
 20
1.0382999406436
 10
1.213712765703225
 20
1.0382999406436
  0
LWPOLYLINE
  5
7DE1B343D9D489B
330
7DE1B343D9D49E6
100
AcDbEntity
  8
TEXT
100
AcDbPolyline
 90
        3
 70
     0
 43
0.0006660908203125
 10
1.1271209590626
 20
1.151535380096728
 10
1.1271209590626
 20
1.064943573456101
 10
1.213712765703225
 20
1.064943573456101
  0
LWPOLYLINE
  5
7DE1B343D9D48A0
330
7DE1B343D9D49E6
100
AcDbEntity
  8
TEXT
100
AcDbPolyline
 90
        2
 70
     0
 43
0.0001332181640625
 10
1.173747316484477
 20
1.161526742401413
 10
1.100477326250103
 20
1.151535380096728
  0
LWPOLYLINE
  5
7DE1B343D9D48A4
330
7DE1B343D9D49E6
100
AcDbEntity
  8
TEXT
100
AcDbPolyline
 90
        2
 70
     0
 43
0.0001332181640625
 10
1.1271209590626
 20
1.151535380096728
 10
1.187069132890727
 20
1.161526742401413
  0
LWPOLYLINE
  5
7DE1B343D9D48A8
330
7DE1B343D9D49E6
100
AcDbEntity
  8
TEXT
100
AcDbPolyline
 90
        2
 70
     0
 43
0.0001332181640625
 10
1.1271209590626
 20
1.064943573456101
 10
1.187069132890727
 20
1.124891747284227
  0
LWPOLYLINE
  5
7DE1B343D9D48AC
330
7DE1B343D9D49E6
100
AcDbEntity
  8
TEXT
100
AcDbPolyline
 90
        3
 70
     0
 43
0.0006660908203125
 10
1.213712765703225
 20
1.304736268768603
 10
1.100477326250103
 20
1.304736268768603
 10
1.100477326250103
 20
1.191500829315476
  0
LWPOLYLINE
  5
7DE1B343D9D48B1
330
7DE1B343D9D49E6
100
AcDbEntity
  8
TEXT
100
AcDbPolyline
 90
        3
 70
     0
 43
0.0006660908203125
 10
1.213712765703225
 20
1.278092635956102
 10
1.1271209590626
 20
1.278092635956102
 10
1.1271209590626
 20
1.191500829315476
  0
LWPOLYLINE
  5
7DE1B343D9D48B6
330
7DE1B343D9D49E6
100
AcDbEntity
  8
TEXT
100
AcDbPolyline
 90
        2
 70
     0
 43
0.0001332181640625
 10
1.1271209590626
 20
1.278092635956102
 10
1.187069132890726
 20
1.218144462127977
  0
LWPOLYLINE
  5
7DE1B343D9D48BA
330
7DE1B343D9D49E6
100
AcDbEntity
  8
TEXT
100
AcDbPolyline
 90
        2
 70
     0
 43
0.0001332181640625
 10
1.1271209590626
 20
1.191500829315476
 10
1.187069132890726
 20
1.181509467010787
  0
LWPOLYLINE
  5
7DE1B343D9D48BE
330
7DE1B343D9D49E6
100
AcDbEntity
  8
TEXT
100
AcDbPolyline
 90
        2
 70
     0
 43
0.0001332181640625
 10
1.100477326250103
 20
1.191500829315476
 10
1.173747316484477
 20
1.181509467010787
  0
LWPOLYLINE
  5
7DE1B343D9D48C2
330
7DE1B343D9D49E6
100
AcDbEntity
  8
TEXT
100
AcDbPolyline
 90
        2
 70
     0
 43
0.0006660908203125
 10
1.1271209590626
 20
1.151535380096728
 10
1.100477326250103
 20
1.151535380096728
  0
LWPOLYLINE
  5
7DE1B343D9D48C6
330
7DE1B343D9D49E6
100
AcDbEntity
  8
TEXT
100
AcDbPolyline
 90
        2
 70
     0
 43
0.0006660908203125
 10
1.1271209590626
 20
1.191500829315476
 10
1.100477326250103
 20
1.191500829315476
  0
LINE
  5
7DE1B343D9D48CA
330
7DE1B343D9D49E6
100
AcDbEntity
  8
TEXT
100
AcDbLine
 10
2.6156677553766
 20
1.240459574111834
 30
0.0
 11
2.508461481989311
 21
1.240459574111834
 31
0.0
  0
LINE
  5
7DE1B343D9D48CB
330
7DE1B343D9D49E6
100
AcDbEntity
  8
TEXT
100
AcDbLine
 10
2.644698653721079
 20
1.3047362687686
 30
0.0
 11
2.509866744504019
 21
1.3047362687686
 31
0.0
  0
ARC
  5
7DE1B343D9D48CC
330
7DE1B343D9D49E6
100
AcDbEntity
  8
TEXT
100
AcDbCircle
 10
2.569180840897336
 20
1.135499019505584
 30
0.0
 40
0.0676855811441166
100
AcDbArc
 50
90.0
 51
153.7768192527749
  0
LWPOLYLINE
  5
7DE1B343D9D48CD
330
7DE1B343D9D49E6
100
AcDbEntity
  8
TEXT
100
AcDbPolyline
 90
        2
 70
     0
 43
0.0
 10
2.507428986534501
 20
1.081754180730527
 42
0.2901071551932823
 10
2.550504919402136
 20
1.038263235780089
 42
5.328517124445801
  0
ARC
  5
7DE1B343D9D48D1
330
7DE1B343D9D49E6
100
AcDbEntity
  8
TEXT
100
AcDbCircle
 10
1.864049463225851
 20
1.098055627118139
 30
0.0
 40
0.0601160179737537
100
AcDbArc
 50
180.0000000000003
 51
264.0521544866073
  0
LINE
  5
7DE1B343D9D48D2
330
7DE1B343D9D49E6
100
AcDbEntity
  8
TEXT
100
AcDbLine
 10
1.867564818851398
 20
1.339124186362738
 30
0.0
 11
1.807522214007391
 21
1.339124186362738
 31
0.0
  0
ARC
  5
7DE1B343D9D48D3
330
7DE1B343D9D49E6
100
AcDbEntity
  8
TEXT
100
AcDbCircle
 10
1.63179046110888
 20
1.222648809322098
 30
0.0
 40
0.0820874594465043
100
AcDbArc
 50
90.0
 51
270.0
  0
LWPOLYLINE
  5
7DE1B343D9D48D4
330
7DE1B343D9D49E6
100
AcDbEntity
  8
TEXT
100
AcDbPolyline
 90
        2
 70
     0
 43
0.0001332181640625
 10
1.223704128007915
 20
1.231466278534224
 10
1.213712765703225
 20
1.304736268768603
  0
LWPOLYLINE
  5
7DE1B343D9D48D8
330
7DE1B343D9D49E6
100
AcDbEntity
  8
TEXT
100
AcDbPolyline
 90
        2
 70
     0
 43
0.0001332181640625
 10
1.213712765703225
 20
1.278092635956102
 10
1.223704128007915
 20
1.218144462127977
  0
LWPOLYLINE
  5
7DE1B343D9D48DC
330
7DE1B343D9D49E6
100
AcDbEntity
  8
TEXT
100
AcDbPolyline
 90
        3
 70
     0
 43
0.0006660908203125
 10
1.366913654375102
 20
1.191500829315476
 10
1.366913654375102
 20
1.304736268768603
 10
1.253678214921976
 20
1.304736268768603
  0
LWPOLYLINE
  5
7DE1B343D9D48E1
330
7DE1B343D9D49E6
100
AcDbEntity
  8
TEXT
100
AcDbPolyline
 90
        3
 70
     0
 43
0.0006660908203125
 10
1.340270021562601
 20
1.191500829315476
 10
1.340270021562601
 20
1.278092635956102
 10
1.253678214921976
 20
1.278092635956102
  0
LWPOLYLINE
  5
7DE1B343D9D48E6
330
7DE1B343D9D49E6
100
AcDbEntity
  8
TEXT
100
AcDbPolyline
 90
        2
 70
     0
 43
0.0001332181640625
 10
1.340270021562601
 20
1.278092635956102
 10
1.280321847734477
 20
1.218144462127977
  0
LWPOLYLINE
  5
7DE1B343D9D48EA
330
7DE1B343D9D49E6
100
AcDbEntity
  8
TEXT
100
AcDbPolyline
 90
        2
 70
     0
 43
0.0001332181640625
 10
1.253678214921976
 20
1.278092635956102
 10
1.243686852617288
 20
1.218144462127977
  0
LWPOLYLINE
  5
7DE1B343D9D48EE
330
7DE1B343D9D49E6
100
AcDbEntity
  8
TEXT
100
AcDbPolyline
 90
        2
 70
     0
 43
0.0001332181640625
 10
1.253678214921976
 20
1.304736268768603
 10
1.243686852617288
 20
1.231466278534224
  0
LWPOLYLINE
  5
7DE1B343D9D48F2
330
7DE1B343D9D49E6
100
AcDbEntity
  8
TEXT
100
AcDbPolyline
 90
        2
 70
     0
 43
0.0001332181640625
 10
1.293643664140726
 20
1.181509467010787
 10
1.366913654375102
 20
1.191500829315476
  0
LWPOLYLINE
  5
7DE1B343D9D48F6
330
7DE1B343D9D49E6
100
AcDbEntity
  8
TEXT
100
AcDbPolyline
 90
        2
 70
     0
 43
0.0001332181640625
 10
1.340270021562601
 20
1.191500829315476
 10
1.280321847734477
 20
1.181509467010787
  0
LWPOLYLINE
  5
7DE1B343D9D48FA
330
7DE1B343D9D49E6
100
AcDbEntity
  8
TEXT
100
AcDbPolyline
 90
        2
 70
     0
 43
0.0001332181640625
 10
1.366913654375102
 20
1.151535380096728
 10
1.293643664140726
 20
1.161526742401413
  0
LWPOLYLINE
  5
7DE1B343D9D48FE
330
7DE1B343D9D49E6
100
AcDbEntity
  8
TEXT
100
AcDbPolyline
 90
        2
 70
     0
 43
0.0001332181640625
 10
1.340270021562601
 20
1.151535380096728
 10
1.280321847734477
 20
1.161526742401413
  0
LWPOLYLINE
  5
7DE1B343D9D4902
330
7DE1B343D9D49E6
100
AcDbEntity
  8
TEXT
100
AcDbPolyline
 90
        2
 70
     0
 43
0.0001332181640625
 10
1.340270021562601
 20
1.064943573456101
 10
1.280321847734477
 20
1.124891747284227
  0
LWPOLYLINE
  5
7DE1B343D9D4906
330
7DE1B343D9D49E6
100
AcDbEntity
  8
TEXT
100
AcDbPolyline
 90
        3
 70
     0
 43
0.0006660908203125
 10
1.253678214921976
 20
1.064943573456101
 10
1.340270021562601
 20
1.064943573456101
 10
1.340270021562601
 20
1.151535380096728
  0
LWPOLYLINE
  5
7DE1B343D9D490B
330
7DE1B343D9D49E6
100
AcDbEntity
  8
TEXT
100
AcDbPolyline
 90
        3
 70
     0
 43
0.0006660908203125
 10
1.253678214921976
 20
1.0382999406436
 10
1.366913654375102
 20
1.0382999406436
 10
1.366913654375102
 20
1.151535380096728
  0
LWPOLYLINE
  5
7DE1B343D9D4910
330
7DE1B343D9D49E6
100
AcDbEntity
  8
TEXT
100
AcDbPolyline
 90
        5
 70
     0
 43
0.0001332181640625
 10
1.223704128007915
 20
1.111569930877976
 10
1.223704128007915
 20
1.124891747284227
 10
1.187069132890727
 20
1.124891747284227
 10
1.187069132890727
 20
1.161526742401413
 10
1.173747316484477
 20
1.161526742401413
  0
LWPOLYLINE
  5
7DE1B343D9D4917
330
7DE1B343D9D49E6
100
AcDbEntity
  8
TEXT
100
AcDbPolyline
 90
        2
 70
     0
 43
0.0006660908203125
 10
1.213712765703225
 20
1.064943573456101
 10
1.213712765703225
 20
1.0382999406436
  0
LWPOLYLINE
  5
7DE1B343D9D491B
330
7DE1B343D9D49E6
100
AcDbEntity
  8
TEXT
100
AcDbPolyline
 90
        2
 70
     0
 43
0.0001332181640625
 10
1.213712765703225
 20
1.064943573456101
 10
1.223704128007915
 20
1.124891747284227
  0
LWPOLYLINE
  5
7DE1B343D9D491F
330
7DE1B343D9D49E6
100
AcDbEntity
  8
TEXT
100
AcDbPolyline
 90
        2
 70
     0
 43
0.0001332181640625
 10
1.213712765703225
 20
1.0382999406436
 10
1.223704128007915
 20
1.111569930877976
  0
LWPOLYLINE
  5
7DE1B343D9D4923
330
7DE1B343D9D49E6
100
AcDbEntity
  8
TEXT
100
AcDbPolyline
 90
        5
 70
     0
 43
0.0001332181640625
 10
1.173747316484477
 20
1.181509467010787
 10
1.187069132890726
 20
1.181509467010787
 10
1.187069132890726
 20
1.218144462127977
 10
1.223704128007915
 20
1.218144462127977
 10
1.223704128007915
 20
1.231466278534224
  0
LWPOLYLINE
  5
7DE1B343D9D492A
330
7DE1B343D9D49E6
100
AcDbEntity
  8
TEXT
100
AcDbPolyline
 90
        5
 70
     0
 43
0.0001332181640625
 10
1.243686852617288
 20
1.231466278534224
 10
1.243686852617288
 20
1.218144462127977
 10
1.280321847734477
 20
1.218144462127977
 10
1.280321847734477
 20
1.181509467010787
 10
1.293643664140726
 20
1.181509467010787
  0
LWPOLYLINE
  5
7DE1B343D9D4931
330
7DE1B343D9D49E6
100
AcDbEntity
  8
TEXT
100
AcDbPolyline
 90
        2
 70
     0
 43
0.0001332181640625
 10
1.253678214921976
 20
1.064943573456101
 10
1.243686852617288
 20
1.124891747284227
  0
LWPOLYLINE
  5
7DE1B343D9D4935
330
7DE1B343D9D49E6
100
AcDbEntity
  8
TEXT
100
AcDbPolyline
 90
        2
 70
     0
 43
0.0001332181640625
 10
1.243686852617288
 20
1.111569930877976
 10
1.253678214921976
 20
1.0382999406436
  0
LWPOLYLINE
  5
7DE1B343D9D4939
330
7DE1B343D9D49E6
100
AcDbEntity
  8
TEXT
100
AcDbPolyline
 90
        2
 70
     0
 43
0.0006660908203125
 10
1.253678214921976
 20
1.064943573456101
 10
1.253678214921976
 20
1.0382999406436
  0
LWPOLYLINE
  5
7DE1B343D9D493D
330
7DE1B343D9D49E6
100
AcDbEntity
  8
TEXT
100
AcDbPolyline
 90
        5
 70
     0
 43
0.0001332181640625
 10
1.293643664140726
 20
1.161526742401413
 10
1.280321847734477
 20
1.161526742401413
 10
1.280321847734477
 20
1.124891747284227
 10
1.243686852617288
 20
1.124891747284227
 10
1.243686852617288
 20
1.111569930877976
  0
LWPOLYLINE
  5
7DE1B343D9D4944
330
7DE1B343D9D49E6
100
AcDbEntity
  8
TEXT
100
AcDbPolyline
 90
        2
 70
     0
 43
0.0006660908203125
 10
1.340270021562601
 20
1.191500829315476
 10
1.366913654375102
 20
1.191500829315476
  0
LWPOLYLINE
  5
7DE1B343D9D4948
330
7DE1B343D9D49E6
100
AcDbEntity
  8
TEXT
100
AcDbPolyline
 90
        2
 70
     0
 43
0.0006660908203125
 10
1.340270021562601
 20
1.151535380096728
 10
1.366913654375102
 20
1.151535380096728
  0
LINE
  5
7DE1B343D9D494C
330
7DE1B343D9D49E6
100
AcDbEntity
  8
TEXT
100
AcDbLine
 10
1.637027791223127
 20
1.240459574111834
 30
0.0
 11
1.803933445252098
 21
1.240459574111834
 31
0.0
  0
LINE
  5
7DE1B343D9D494D
330
7DE1B343D9D49E6
100
AcDbEntity
  8
TEXT
100
AcDbLine
 10
1.702627927467428
 20
1.204654852501207
 30
0.0
 11
1.637027791223127
 21
1.204654852501207
 31
0.0
  0
LINE
  5
7DE1B343D9D494E
330
7DE1B343D9D49E6
100
AcDbEntity
  8
TEXT
100
AcDbLine
 10
1.549703001662376
 20
1.038263235780089
 30
0.0
 11
1.702627927467428
 21
1.038263235780089
 31
0.0
  0
LINE
  5
7DE1B343D9D494F
330
7DE1B343D9D49E6
100
AcDbEntity
  8
TEXT
100
AcDbLine
 10
1.707568301373708
 20
1.106620242113528
 30
0.0
 11
1.549703001662374
 21
1.106620242113528
 31
0.0
  0
LINE
  5
7DE1B343D9D4950
330
7DE1B343D9D49E6
100
AcDbEntity
  8
TEXT
100
AcDbLine
 10
1.631790461108879
 20
1.140561349875593
 30
0.0
 11
1.707568301373708
 21
1.140561349875593
 31
0.0
  0
ARC
  5
7DE1B343D9D4951
330
7DE1B343D9D49E6
100
AcDbEntity
  8
TEXT
100
AcDbCircle
 10
1.637027791223128
 20
1.222557213306522
 30
0.0
 40
0.017902360805315
100
AcDbArc
 50
90.0
 51
270.0
  0
LINE
  5
7DE1B343D9D4952
330
7DE1B343D9D49E6
100
AcDbEntity
  8
TEXT
100
AcDbLine
 10
1.549703001662374
 20
1.106620242113528
 30
0.0
 11
1.549703001662376
 21
1.038263235780089
 31
0.0
  0
LINE
  5
7DE1B343D9D4953
330
7DE1B343D9D49E6
100
AcDbEntity
  8
TEXT
100
AcDbLine
 10
1.803933445252098
 20
1.240459574111834
 30
0.0
 11
1.803933445252098
 21
1.098055627118139
 31
0.0
  0
ARC
  5
7DE1B343D9D4954
330
7DE1B343D9D49E6
100
AcDbEntity
  8
TEXT
100
AcDbCircle
 10
1.702627927467429
 20
1.121459044140646
 30
0.0
 40
0.0831958083605586
100
AcDbArc
 50
270.0
 51
90.0
  0
ARC
  5
7DE1B343D9D4955
330
7DE1B343D9D49E6
100
AcDbEntity
  8
TEXT
100
AcDbCircle
 10
1.707568301373709
 20
1.123590795994562
 30
0.0
 40
0.0169705538810321
100
AcDbArc
 50
270.0
 51
90.0
  0
LWPOLYLINE
  5
7DE1B343D9D4956
330
7DE1B343D9D49E6
100
AcDbEntity
  8
TEXT
100
AcDbPolyline
 90
        2
 70
     0
 43
0.0006660908203125
 10
1.213712765703225
 20
1.278092635956102
 10
1.213712765703225
 20
1.304736268768603
  0
LWPOLYLINE
  5
7DE1B343D9D495A
330
7DE1B343D9D49E6
100
AcDbEntity
  8
TEXT
100
AcDbPolyline
 90
        2
 70
     0
 43
0.0006660908203125
 10
1.253678214921976
 20
1.278092635956102
 10
1.253678214921976
 20
1.304736268768603
  0
LINE
  5
7DE1B343D9D495E
330
7DE1B343D9D49E6
100
AcDbEntity
  8
TEXT
100
AcDbLine
 10
1.807522214007391
 20
1.3047362687686
 30
0.0
 11
1.631790461108879
 21
1.3047362687686
 31
0.0
  0
LINE
  5
7DE1B343D9D495F
330
7DE1B343D9D49E6
100
AcDbEntity
  8
TEXT
100
AcDbLine
 10
1.807522214007391
 20
1.339124186362738
 30
0.0
 11
1.807522214007391
 21
1.3047362687686
 31
0.0
  0
LINE
  5
7DE1B343D9D4960
330
7DE1B343D9D49E6
100
AcDbEntity
  8
TEXT
100
AcDbLine
 10
1.997994106027244
 20
1.203864272655479
 30
0.0
 11
1.939363784995306
 21
1.3047362687686
 31
0.0
  0
LINE
  5
7DE1B343D9D4961
330
7DE1B343D9D49E6
100
AcDbEntity
  8
TEXT
100
AcDbLine
 10
2.056742668833109
 20
1.3047362687686
 30
0.0
 11
1.997994106027244
 21
1.203864272655479
 31
0.0
  0
LINE
  5
7DE1B343D9D4962
330
7DE1B343D9D49E6
100
AcDbEntity
  8
TEXT
100
AcDbLine
 10
2.15367329419285
 20
1.120651073883088
 30
0.0
 11
2.15367329419285
 21
1.37274774650741
 31
0.0
  0
LINE
  5
7DE1B343D9D4963
330
7DE1B343D9D49E6
100
AcDbEntity
  8
TEXT
100
AcDbLine
 10
2.185985148330511
 20
1.3047362687686
 30
0.0
 11
2.185985148330511
 21
1.103872062036192
 31
0.0
  0
LINE
  5
7DE1B343D9D4964
330
7DE1B343D9D49E6
100
AcDbEntity
  8
TEXT
100
AcDbLine
 10
2.185985148330511
 20
1.103872062036192
 30
0.0
 11
2.168991511445909
 21
1.103872062036192
 31
0.0
  0
LINE
  5
7DE1B343D9D4965
330
7DE1B343D9D49E6
100
AcDbEntity
  8
TEXT
100
AcDbLine
 10
2.154812867689045
 20
1.038263235780089
 30
0.0
 11
2.25281620138848
 21
1.038263235780089
 31
0.0
  0
LINE
  5
7DE1B343D9D4966
330
7DE1B343D9D49E6
100
AcDbEntity
  8
TEXT
100
AcDbLine
 10
1.988393869030289
 20
1.058221741885102
 30
0.0
 11
2.085693575123734
 21
1.22257195282037
 31
0.0
  0
ARC
  5
7DE1B343D9D4967
330
7DE1B343D9D49E6
100
AcDbEntity
  8
TEXT
100
AcDbCircle
 10
1.954350309118075
 20
1.077810958053785
 30
0.0
 40
0.0392772371940762
100
AcDbArc
 50
270.1604552698595
 51
330.0831797321295
  0
LINE
  5
7DE1B343D9D4968
330
7DE1B343D9D49E6
100
AcDbEntity
  8
TEXT
100
AcDbLine
 10
1.857820052732204
 20
1.038263235780089
 30
0.0
 11
1.954460303807199
 21
1.038533874878371
 31
0.0
  0
LWPOLYLINE
  5
7DE1B343D9D4969
330
7DE1B343D9D49E6
100
AcDbEntity
  8
TEXT
100
AcDbPolyline
 90
        6
 70
     1
 43
0.0
 10
1.900343856307354
 20
1.240459574111834
 10
1.870027262087146
 20
1.240459574111834
 10
1.870027262087146
 20
1.11734857605694
 42
0.407328721240804
 10
1.881570913248622
 20
1.105529661380554
 10
1.942192612293353
 20
1.105529661380554
 10
1.959657952700671
 20
1.138341890424033
  0
LINE
  5
7DE1B343D9D4971
330
7DE1B343D9D49E6
100
AcDbEntity
  8
TEXT
100
AcDbLine
 10
2.085693575123734
 20
1.22257195282037
 30
0.0
 11
2.085693575123734
 21
1.089814577995014
 31
0.0
  0
ARC
  5
7DE1B343D9D4972
330
7DE1B343D9D49E6
100
AcDbEntity
  8
TEXT
100
AcDbCircle
 10
2.168991511445907
 20
1.119253868279617
 30
0.0
 40
0.0153818062434269
100
AcDbArc
 50
174.7883570302258
 51
270.0
  0
LWPOLYLINE
  5
7DE1B343D9D4973
330
7DE1B343D9D49E6
100
AcDbEntity
  8
TEXT
100
AcDbPolyline
 90
        2
 70
     0
 43
0.0
 10
2.085693575123732
 20
1.089814577995017
 42
0.3318488747599744
 10
2.154812867689045
 20
1.038263235780089
 42
-6.868794160588311
  0
LINE
  5
7DE1B343D9D4977
330
7DE1B343D9D49E6
100
AcDbEntity
  8
TEXT
100
AcDbLine
 10
2.310205270377741
 20
1.038263235780089
 30
0.0
 11
2.377263317159581
 21
1.038263235780089
 31
0.0
  0
LINE
  5
7DE1B343D9D4978
330
7DE1B343D9D49E6
100
AcDbEntity
  8
TEXT
100
AcDbLine
 10
2.310205270377741
 20
1.232905784945725
 30
0.0
 11
2.310205270377741
 21
1.038263235780089
 31
0.0
  0
LINE
  5
7DE1B343D9D4979
330
7DE1B343D9D49E6
100
AcDbEntity
  8
TEXT
100
AcDbLine
 10
2.25281620138848
 20
1.240459574111834
 30
0.0
 11
2.302651481211627
 21
1.240459574111834
 31
0.0
  0
LINE
  5
7DE1B343D9D497A
330
7DE1B343D9D49E6
100
AcDbEntity
  8
TEXT
100
AcDbLine
 10
2.25281620138848
 20
1.038263235780089
 30
0.0
 11
2.25281620138848
 21
1.240459574111834
 31
0.0
  0
LWPOLYLINE
  5
7DE1B343D9D497B
330
7DE1B343D9D49E6
100
AcDbEntity
  8
TEXT
100
AcDbPolyline
 90
        2
 70
     0
 43
0.0
 10
2.302651481211626
 20
1.240459574111834
 42
-0.4142135623731017
 10
2.310205270377739
 20
1.232905784945725
 42
-0.9999999999999998
  0
LINE
  5
7DE1B343D9D497F
330
7DE1B343D9D49E6
100
AcDbEntity
  8
TEXT
100
AcDbLine
 10
2.508461481989311
 20
1.240459574111834
 30
0.0
 11
2.508461481989311
 21
1.165407168037628
 31
0.0
  0
LINE
  5
7DE1B343D9D4980
330
7DE1B343D9D49E6
100
AcDbEntity
  8
TEXT
100
AcDbLine
 10
2.377263317159581
 20
1.240459574111834
 30
0.0
 11
2.431396914080531
 21
1.240459574111834
 31
0.0
  0
LINE
  5
7DE1B343D9D4981
330
7DE1B343D9D49E6
100
AcDbEntity
  8
TEXT
100
AcDbLine
 10
2.377263317159581
 20
1.038263235780089
 30
0.0
 11
2.377263317159581
 21
1.240459574111834
 31
0.0
  0
LWPOLYLINE
  5
7DE1B343D9D4982
330
7DE1B343D9D49E6
100
AcDbEntity
  8
TEXT
100
AcDbPolyline
 90
        2
 70
     0
 43
0.0
 10
2.431396914080529
 20
1.240459574111834
 42
-0.4142135623731017
 10
2.438950703246643
 20
1.232905784945725
 42
-0.9999999999999998
  0
LWPOLYLINE
  5
7DE1B343D9D4986
330
7DE1B343D9D49E6
100
AcDbEntity
  8
TEXT
100
AcDbPolyline
 90
        4
 70
     0
 43
0.0
 10
2.438950703246643
 20
1.232905784945725
 10
2.438950703246643
 20
1.038263235780089
 10
2.507428986534501
 20
1.038263235780089
 10
2.507428986534501
 20
1.081754180730527
 42
-1.714843617202739
  0
LINE
  5
7DE1B343D9D498C
330
7DE1B343D9D49E6
100
AcDbEntity
  8
TEXT
100
AcDbLine
 10
1.867564818851398
 20
1.3047362687686
 30
0.0
 11
1.867564818851398
 21
1.339124186362738
 31
0.0
  0
LINE
  5
7DE1B343D9D498D
330
7DE1B343D9D49E6
100
AcDbEntity
  8
TEXT
100
AcDbLine
 10
1.939363784995306
 20
1.3047362687686
 30
0.0
 11
1.867564818851398
 21
1.3047362687686
 31
0.0
  0
LINE
  5
7DE1B343D9D498E
330
7DE1B343D9D49E6
100
AcDbEntity
  8
TEXT
100
AcDbLine
 10
2.086864581626485
 20
1.3047362687686
 30
0.0
 11
2.056742668833109
 21
1.3047362687686
 31
0.0
  0
LINE
  5
7DE1B343D9D498F
330
7DE1B343D9D49E6
100
AcDbEntity
  8
TEXT
100
AcDbLine
 10
2.086864581626485
 20
1.37274774650741
 30
0.0
 11
2.086864581626485
 21
1.3047362687686
 31
0.0
  0
LINE
  5
7DE1B343D9D4990
330
7DE1B343D9D49E6
100
AcDbEntity
  8
TEXT
100
AcDbLine
 10
2.15367329419285
 20
1.37274774650741
 30
0.0
 11
2.086864581626485
 21
1.37274774650741
 31
0.0
  0
LWPOLYLINE
  5
7DE1B343D9D4991
330
7DE1B343D9D49E6
100
AcDbEntity
  8
TEXT
100
AcDbPolyline
 90
        3
 70
     0
 43
0.0
 10
2.474085053790853
 20
1.304736268768603
 10
2.355784894974808
 20
1.304736268768603
 10
2.355784894974808
 20
1.277568772007708
 42
-1.960274751411753
  0
LINE
  5
7DE1B343D9D4996
330
7DE1B343D9D49E6
100
AcDbEntity
  8
TEXT
100
AcDbLine
 10
2.320003204261647
 20
1.3047362687686
 30
0.0
 11
2.185985148330511
 21
1.3047362687686
 31
0.0
  0
LWPOLYLINE
  5
7DE1B343D9D4997
330
7DE1B343D9D49E6
100
AcDbEntity
  8
TEXT
100
AcDbPolyline
 90
        2
 70
     0
 43
0.0
 10
2.320003204261647
 20
1.304736268768603
 42
-0.3328679258950098
 10
2.355784894974808
 20
1.277568772007708
 42
6.772930709997214
  0
LINE
  5
7DE1B343D9D499B
330
7DE1B343D9D49E6
100
AcDbEntity
  8
TEXT
100
AcDbLine
 10
2.509866744504019
 20
1.3047362687686
 30
0.0
 11
2.509866744504019
 21
1.276413722998956
 31
0.0
  0
LWPOLYLINE
  5
7DE1B343D9D499C
330
7DE1B343D9D49E6
100
AcDbEntity
  8
TEXT
100
AcDbPolyline
 90
        2
 70
     0
 43
0.0
 10
2.474085053790853
 20
1.304736268768603
 42
-0.3277054968067132
 10
2.509866744504018
 20
1.27641372299896
 42
6.667889725900311
  0
LINE
  5
7DE1B343D9D49A0
330
7DE1B343D9D49E6
100
AcDbEntity
  8
TEXT
100
AcDbLine
 10
2.72365859259612
 20
1.199524290215173
 30
0.0
 11
2.679907821414218
 21
1.281774566211318
 31
0.0
  0
LINE
  5
7DE1B343D9D49A1
330
7DE1B343D9D49E6
100
AcDbEntity
  8
TEXT
100
AcDbLine
 10
2.72365859259612
 20
1.3047362687686
 30
0.0
 11
2.72365859259612
 21
1.199524290215173
 31
0.0
  0
LINE
  5
7DE1B343D9D49A2
330
7DE1B343D9D49E6
100
AcDbEntity
  8
TEXT
100
AcDbLine
 10
2.951342331534489
 20
1.228870942357062
 30
0.0
 11
2.951342331534489
 21
1.370200474536201
 31
0.0
  0
LINE
  5
7DE1B343D9D49A3
330
7DE1B343D9D49E6
100
AcDbEntity
  8
TEXT
100
AcDbLine
 10
2.998440490090473
 20
1.3047362687686
 30
0.0
 11
2.951342331534489
 21
1.228870942357062
 31
0.0
  0
LINE
  5
7DE1B343D9D49A4
330
7DE1B343D9D49E6
100
AcDbEntity
  8
TEXT
100
AcDbLine
 10
3.008875206854396
 20
1.194843025827626
 30
0.0
 11
3.073432322820101
 21
1.3047362687686
 31
0.0
  0
LINE
  5
7DE1B343D9D49A5
330
7DE1B343D9D49E6
100
AcDbEntity
  8
TEXT
100
AcDbLine
 10
2.887507340311715
 20
1.038263235780089
 30
0.0
 11
2.951885524630336
 21
1.038263235780089
 31
0.0
  0
LWPOLYLINE
  5
7DE1B343D9D49A6
330
7DE1B343D9D49E6
100
AcDbEntity
  8
TEXT
100
AcDbPolyline
 90
        2
 70
     0
 43
0.0
 10
2.727598269901157
 20
1.081754180730527
 42
-0.2901071551932486
 10
2.684522337033513
 20
1.038263235780089
 42
-5.328517124445184
  0
ARC
  5
7DE1B343D9D49AA
330
7DE1B343D9D49E6
100
AcDbEntity
  8
TEXT
100
AcDbCircle
 10
2.615667755376598
 20
1.212100199111837
 30
0.0
 40
0.028359375
100
AcDbArc
 50
25.78218179591245
 51
90.0
  0
LINE
  5
7DE1B343D9D49AB
330
7DE1B343D9D49E6
100
AcDbEntity
  8
TEXT
100
AcDbLine
 10
2.651468830680721
 20
1.203184600649702
 30
0.0
 11
2.641204070267157
 21
1.224435140222396
 31
0.0
  0
LINE
  5
7DE1B343D9D49AC
330
7DE1B343D9D49E6
100
AcDbEntity
  8
TEXT
100
AcDbLine
 10
2.569180840897338
 20
1.203184600649702
 30
0.0
 11
2.651468830680721
 21
1.203184600649702
 31
0.0
  0
LWPOLYLINE
  5
7DE1B343D9D49AD
330
7DE1B343D9D49E6
100
AcDbEntity
  8
TEXT
100
AcDbPolyline
 90
        4
 70
     1
 43
0.0
 10
2.66439987196362
 20
1.141227213764114
 10
2.575739553303762
 20
1.141227213764114
 42
0.9999999999999998
 10
2.575739553303762
 20
1.098828673260253
 10
2.66439987196362
 20
1.098828673260253
 42
1.0
  0
LWPOLYLINE
  5
7DE1B343D9D49B3
330
7DE1B343D9D49E6
100
AcDbEntity
  8
TEXT
100
AcDbPolyline
 90
        2
 70
     0
 43
0.0
 10
2.550504919402136
 20
1.038263235780089
 10
2.684522337033513
 20
1.038263235780089
 42
0.9999999999999998
  0
LINE
  5
7DE1B343D9D49B7
330
7DE1B343D9D49E6
100
AcDbEntity
  8
TEXT
100
AcDbLine
 10
2.810859359019152
 20
1.240459574111834
 30
0.0
 11
2.88750734031171
 21
1.240459574111834
 31
0.0
  0
LINE
  5
7DE1B343D9D49B8
330
7DE1B343D9D49E6
100
AcDbEntity
  8
TEXT
100
AcDbLine
 10
2.88750734031171
 20
1.240459574111834
 30
0.0
 11
2.887507340311715
 21
1.038263235780089
 31
0.0
  0
ARC
  5
7DE1B343D9D49B9
330
7DE1B343D9D49E6
100
AcDbEntity
  8
TEXT
100
AcDbCircle
 10
2.810859359019151
 20
1.215553698829172
 30
0.0
 40
0.0249058752826653
100
AcDbArc
 50
89.99971217465335
 51
179.9999999999985
  0
LINE
  5
7DE1B343D9D49BA
330
7DE1B343D9D49E6
100
AcDbEntity
  8
TEXT
100
AcDbLine
 10
2.785953483736493
 20
1.038263235780089
 30
0.0
 11
2.785953483736488
 21
1.215553741211557
 31
0.0
  0
LWPOLYLINE
  5
7DE1B343D9D49BB
330
7DE1B343D9D49E6
100
AcDbEntity
  8
TEXT
100
AcDbPolyline
 90
        2
 70
     0
 43
0.0
 10
2.727598269901157
 20
1.038263235780089
 10
2.785953483736491
 20
1.038263235780089
  0
LWPOLYLINE
  5
7DE1B343D9D49BF
330
7DE1B343D9D49E6
100
AcDbEntity
  8
TEXT
100
AcDbPolyline
 90
        2
 70
     0
 43
0.0
 10
2.727598269901157
 20
1.081754180730527
 10
2.727598269901157
 20
1.038263235780089
  0
LINE
  5
7DE1B343D9D49C3
330
7DE1B343D9D49E6
100
AcDbEntity
  8
TEXT
100
AcDbLine
 10
3.104367430218006
 20
1.038263235780089
 30
0.0
 11
3.008875206854396
 21
1.194843025827626
 31
0.0
  0
LINE
  5
7DE1B343D9D49C4
330
7DE1B343D9D49E6
100
AcDbEntity
  8
TEXT
100
AcDbLine
 10
3.0277890578418
 20
1.038263235780089
 30
0.0
 11
3.104367430218006
 21
1.038263235780089
 31
0.0
  0
LINE
  5
7DE1B343D9D49C5
330
7DE1B343D9D49E6
100
AcDbEntity
  8
TEXT
100
AcDbLine
 10
2.951885524630336
 20
1.169842804256269
 30
0.0
 11
3.0277890578418
 21
1.038263235780089
 31
0.0
  0
LINE
  5
7DE1B343D9D49C6
330
7DE1B343D9D49E6
100
AcDbEntity
  8
TEXT
100
AcDbLine
 10
2.951885524630336
 20
1.038263235780089
 30
0.0
 11
2.951885524630336
 21
1.169842804256269
 31
0.0
  0
LINE
  5
7DE1B343D9D49C7
330
7DE1B343D9D49E6
100
AcDbEntity
  8
TEXT
100
AcDbLine
 10
2.951342331534489
 20
1.370200474536201
 30
0.0
 11
2.883027452985215
 21
1.370200474536201
 31
0.0
  0
ARC
  5
7DE1B343D9D49C8
330
7DE1B343D9D49E6
100
AcDbEntity
  8
TEXT
100
AcDbCircle
 10
2.642671713944009
 20
1.263152701647697
 30
0.0
 40
0.0416329381542859
100
AcDbArc
 50
26.56974201007528
 51
87.20939649401342
  0
LINE
  5
7DE1B343D9D49C9
330
7DE1B343D9D49E6
100
AcDbEntity
  8
TEXT
100
AcDbLine
 10
2.787555498895621
 20
1.3047362687686
 30
0.0
 11
2.72365859259612
 21
1.3047362687686
 31
0.0
  0
LINE
  5
7DE1B343D9D49CA
330
7DE1B343D9D49E6
100
AcDbEntity
  8
TEXT
100
AcDbLine
 10
2.787555498895621
 20
1.277188618907725
 30
0.0
 11
2.787555498895621
 21
1.3047362687686
 31
0.0
  0
ARC
  5
7DE1B343D9D49CB
330
7DE1B343D9D49E6
100
AcDbEntity
  8
TEXT
100
AcDbCircle
 10
2.818748315958728
 20
1.273490541486335
 30
0.0
 40
0.0314112657011332
100
AcDbArc
 50
95.88484768694724
 51
173.2388340632136
  0
LINE
  5
7DE1B343D9D49CC
330
7DE1B343D9D49E6
100
AcDbEntity
  8
TEXT
100
AcDbLine
 10
2.88302745298521
 20
1.3047362687686
 30
0.0
 11
2.815527735335694
 21
1.3047362687686
 31
0.0
  0
LINE
  5
7DE1B343D9D49CD
330
7DE1B343D9D49E6
100
AcDbEntity
  8
TEXT
100
AcDbLine
 10
2.883027452985215
 20
1.370200474536201
 30
0.0
 11
2.88302745298521
 21
1.3047362687686
 31
0.0
  0
LINE
  5
7DE1B343D9D49CE
330
7DE1B343D9D49E6
100
AcDbEntity
  8
TEXT
100
AcDbLine
 10
3.073432322820101
 20
1.3047362687686
 30
0.0
 11
2.998440490090475
 21
1.3047362687686
 31
0.0
  0
ENDSEC
  0
SECTION
  2
OBJECTS
  0
DICTIONARY
  5
7DE1B343D9D49DA
330
0
100
AcDbDictionary
  3
ACAD_GROUP
350
7DE1B343D9D49DB
  3
ACAD_LAYOUT
350
7DE1B343D9D4A00
  3
ACAD_MLINESTYLE
350
7DE1B343D9D49DC
  3
ACAD_PLOTSETTINGS
350
7DE1B343D9D4A01
  3
ACAD_PLOTSTYLENAME
350
7DE1B343D9D49FE
  3
ACDBHEADERROUNDTRIPXREC
350
7DE1B343D9D4A0B
  3
ACDBVARIABLEDICTIONARY
350
7DE1B343D9D4A08
  0
DICTIONARY
  5
7DE1B343D9D4A2D
330
7DE1B343D9D49E6
100
AcDbDictionary
280
     1
  3
ACAD_LAYOUTSELFREF
360
7DE1B343D9D4A2E
  0
DICTIONARY
  5
7DE1B343D9D4A2B
330
7DE1B343D9D49E3
100
AcDbDictionary
280
     1
  3
ACAD_LAYOUTSELFREF
360
7DE1B343D9D4A2C
  0
DICTIONARY
  5
7DE1B343D9D49DB
102
{ACAD_REACTORS
330
7DE1B343D9D49DA
102
}
330
7DE1B343D9D49DA
100
AcDbDictionary
  0
DICTIONARY
  5
7DE1B343D9D4A00
102
{ACAD_REACTORS
330
7DE1B343D9D49DA
102
}
330
7DE1B343D9D49DA
100
AcDbDictionary
  0
DICTIONARY
  5
7DE1B343D9D49DC
102
{ACAD_REACTORS
330
7DE1B343D9D49DA
102
}
330
7DE1B343D9D49DA
100
AcDbDictionary
  3
STANDARD
350
7DE1B343D9D49E9
  0
DICTIONARY
  5
7DE1B343D9D4A01
102
{ACAD_REACTORS
330
7DE1B343D9D49DA
102
}
330
7DE1B343D9D49DA
100
AcDbDictionary
  0
ACDBDICTIONARYWDFLT
  5
7DE1B343D9D49FE
102
{ACAD_REACTORS
330
7DE1B343D9D49DA
102
}
330
7DE1B343D9D49DA
100
AcDbDictionary
281
     1
  3
Normal
350
7DE1B343D9D49FF
100
AcDbDictionaryWithDefault
340
7DE1B343D9D49FF
  0
DICTIONARY
  5
7DE1B343D9D4A0B
102
{ACAD_REACTORS
330
7DE1B343D9D49DA
102
}
330
7DE1B343D9D49DA
100
AcDbDictionary
  3
CEPSNTYPE
350
7DE1B343D9D4A15
  3
FINGERPRINTGUID
350
7DE1B343D9D4A16
  3
HYPERLINKBASE
350
7DE1B343D9D4A0E
  3
INSUNITS
350
7DE1B343D9D4A14
  3
LAYOUTDICT
350
7DE1B343D9D4A10
  3
LWETCUNION
350
7DE1B343D9D4A13
  3
PLOTSETDICT
350
7DE1B343D9D4A11
  3
PLOTSTYLNAMDICT
350
7DE1B343D9D4A12
  3
PSVPSCALE
350
7DE1B343D9D4A18
  3
PUCSBASE
350
7DE1B343D9D4A1B
  3
PUCSORGBACK
350
7DE1B343D9D4A21
  3
PUCSORGBOTTOM
350
7DE1B343D9D4A1D
  3
PUCSORGFRONT
350
7DE1B343D9D4A20
  3
PUCSORGLEFT
350
7DE1B343D9D4A1E
  3
PUCSORGRIGHT
350
7DE1B343D9D4A1F
  3
PUCSORGTOP
350
7DE1B343D9D4A1C
  3
PUCSORTHOREF
350
7DE1B343D9D4A19
  3
PUCSORTHOVIEW
350
7DE1B343D9D4A1A
  3
STYLESHEET
350
7DE1B343D9D4A0F
  3
TSTACKALIGN
350
7DE1B343D9D4A0C
  3
TSTACKSIZE
350
7DE1B343D9D4A0D
  3
UCSBASE
350
7DE1B343D9D4A24
  3
UCSORGBACK
350
7DE1B343D9D4A2A
  3
UCSORGBOTTOM
350
7DE1B343D9D4A26
  3
UCSORGFRONT
350
7DE1B343D9D4A29
  3
UCSORGLEFT
350
7DE1B343D9D4A27
  3
UCSORGRIGHT
350
7DE1B343D9D4A28
  3
UCSORGTOP
350
7DE1B343D9D4A25
  3
UCSORTHOREF
350
7DE1B343D9D4A22
  3
UCSORTHOVIEW
350
7DE1B343D9D4A23
  3
VERSIONGUID
350
7DE1B343D9D4A17
  0
DICTIONARY
  5
7DE1B343D9D4A08
102
{ACAD_REACTORS
330
7DE1B343D9D49DA
102
}
330
7DE1B343D9D49DA
100
AcDbDictionary
  3
DIMASSOC
350
7DE1B343D9D4A09
  0
XRECORD
  5
7DE1B343D9D4A2E
102
{ACAD_REACTORS
330
7DE1B343D9D4A2D
102
}
330
7DE1B343D9D4A2D
100
AcDbXrecord
340
7DE1B343D9D49E6
  0
XRECORD
  5
7DE1B343D9D4A2C
102
{ACAD_REACTORS
330
7DE1B343D9D4A2B
102
}
330
7DE1B343D9D4A2B
100
AcDbXrecord
340
7DE1B343D9D49E3
  0
MLINESTYLE
  5
7DE1B343D9D49E9
102
{ACAD_REACTORS
330
7DE1B343D9D49DC
102
}
330
7DE1B343D9D49DC
100
AcDbMlineStyle
  2
STANDARD
 70
     0
  3

 62
     0
 51
90.0
 52
90.0
 71
     2
 49
0.5
 62
   256
  6
BYLAYER
 49
-0.5
 62
   256
  6
BYLAYER
  0
ACDBPLACEHOLDER
  5
7DE1B343D9D49FF
102
{ACAD_REACTORS
330
7DE1B343D9D49FE
102
}
330
7DE1B343D9D49FE
100
AcDbPlaceHolder
280
     0
  0
XRECORD
  5
7DE1B343D9D4A15
102
{ACAD_REACTORS
330
7DE1B343D9D4A0B
102
}
330
7DE1B343D9D4A0B
100
AcDbXrecord
 90
        0
  0
XRECORD
  5
7DE1B343D9D4A16
102
{ACAD_REACTORS
330
7DE1B343D9D4A0B
102
}
330
7DE1B343D9D4A0B
100
AcDbXrecord
  1
{BD882210-8DB4-11D6-88E6-0090279574E7}
  0
XRECORD
  5
7DE1B343D9D4A0E
102
{ACAD_REACTORS
330
7DE1B343D9D4A0B
102
}
330
7DE1B343D9D4A0B
100
AcDbXrecord
  1

  0
XRECORD
  5
7DE1B343D9D4A14
102
{ACAD_REACTORS
330
7DE1B343D9D4A0B
102
}
330
7DE1B343D9D4A0B
100
AcDbXrecord
 90
        0
  0
XRECORD
  5
7DE1B343D9D4A10
102
{ACAD_REACTORS
330
7DE1B343D9D4A0B
102
}
330
7DE1B343D9D4A0B
100
AcDbXrecord
340
7DE1B343D9D4A00
  0
XRECORD
  5
7DE1B343D9D4A13
102
{ACAD_REACTORS
330
7DE1B343D9D4A0B
102
}
330
7DE1B343D9D4A0B
100
AcDbXrecord
 90
    14877
  0
XRECORD
  5
7DE1B343D9D4A11
102
{ACAD_REACTORS
330
7DE1B343D9D4A0B
102
}
330
7DE1B343D9D4A0B
100
AcDbXrecord
340
7DE1B343D9D4A01
  0
XRECORD
  5
7DE1B343D9D4A12
102
{ACAD_REACTORS
330
7DE1B343D9D4A0B
102
}
330
7DE1B343D9D4A0B
100
AcDbXrecord
340
7DE1B343D9D49FE
  0
XRECORD
  5
7DE1B343D9D4A18
102
{ACAD_REACTORS
330
7DE1B343D9D4A0B
102
}
330
7DE1B343D9D4A0B
100
AcDbXrecord
 40
0.0
  0
XRECORD
  5
7DE1B343D9D4A1B
102
{ACAD_REACTORS
330
7DE1B343D9D4A0B
102
}
330
7DE1B343D9D4A0B
100
AcDbXrecord
340
0
  0
XRECORD
  5
7DE1B343D9D4A21
102
{ACAD_REACTORS
330
7DE1B343D9D4A0B
102
}
330
7DE1B343D9D4A0B
100
AcDbXrecord
 10
0.0
 20
0.0
 30
0.0
  0
XRECORD
  5
7DE1B343D9D4A1D
102
{ACAD_REACTORS
330
7DE1B343D9D4A0B
102
}
330
7DE1B343D9D4A0B
100
AcDbXrecord
 10
0.0
 20
0.0
 30
0.0
  0
XRECORD
  5
7DE1B343D9D4A20
102
{ACAD_REACTORS
330
7DE1B343D9D4A0B
102
}
330
7DE1B343D9D4A0B
100
AcDbXrecord
 10
0.0
 20
0.0
 30
0.0
  0
XRECORD
  5
7DE1B343D9D4A1E
102
{ACAD_REACTORS
330
7DE1B343D9D4A0B
102
}
330
7DE1B343D9D4A0B
100
AcDbXrecord
 10
0.0
 20
0.0
 30
0.0
  0
XRECORD
  5
7DE1B343D9D4A1F
102
{ACAD_REACTORS
330
7DE1B343D9D4A0B
102
}
330
7DE1B343D9D4A0B
100
AcDbXrecord
 10
0.0
 20
0.0
 30
0.0
  0
XRECORD
  5
7DE1B343D9D4A1C
102
{ACAD_REACTORS
330
7DE1B343D9D4A0B
102
}
330
7DE1B343D9D4A0B
100
AcDbXrecord
 10
0.0
 20
0.0
 30
0.0
  0
XRECORD
  5
7DE1B343D9D4A19
102
{ACAD_REACTORS
330
7DE1B343D9D4A0B
102
}
330
7DE1B343D9D4A0B
100
AcDbXrecord
340
0
  0
XRECORD
  5
7DE1B343D9D4A1A
102
{ACAD_REACTORS
330
7DE1B343D9D4A0B
102
}
330
7DE1B343D9D4A0B
100
AcDbXrecord
 70
     0
  0
XRECORD
  5
7DE1B343D9D4A0F
102
{ACAD_REACTORS
330
7DE1B343D9D4A0B
102
}
330
7DE1B343D9D4A0B
100
AcDbXrecord
  1

  0
XRECORD
  5
7DE1B343D9D4A0C
102
{ACAD_REACTORS
330
7DE1B343D9D4A0B
102
}
330
7DE1B343D9D4A0B
100
AcDbXrecord
 90
        1
  0
XRECORD
  5
7DE1B343D9D4A0D
102
{ACAD_REACTORS
330
7DE1B343D9D4A0B
102
}
330
7DE1B343D9D4A0B
100
AcDbXrecord
 90
       70
  0
XRECORD
  5
7DE1B343D9D4A24
102
{ACAD_REACTORS
330
7DE1B343D9D4A0B
102
}
330
7DE1B343D9D4A0B
100
AcDbXrecord
340
0
  0
XRECORD
  5
7DE1B343D9D4A2A
102
{ACAD_REACTORS
330
7DE1B343D9D4A0B
102
}
330
7DE1B343D9D4A0B
100
AcDbXrecord
 10
0.0
 20
0.0
 30
0.0
  0
XRECORD
  5
7DE1B343D9D4A26
102
{ACAD_REACTORS
330
7DE1B343D9D4A0B
102
}
330
7DE1B343D9D4A0B
100
AcDbXrecord
 10
0.0
 20
0.0
 30
0.0
  0
XRECORD
  5
7DE1B343D9D4A29
102
{ACAD_REACTORS
330
7DE1B343D9D4A0B
102
}
330
7DE1B343D9D4A0B
100
AcDbXrecord
 10
0.0
 20
0.0
 30
0.0
  0
XRECORD
  5
7DE1B343D9D4A27
102
{ACAD_REACTORS
330
7DE1B343D9D4A0B
102
}
330
7DE1B343D9D4A0B
100
AcDbXrecord
 10
0.0
 20
0.0
 30
0.0
  0
XRECORD
  5
7DE1B343D9D4A28
102
{ACAD_REACTORS
330
7DE1B343D9D4A0B
102
}
330
7DE1B343D9D4A0B
100
AcDbXrecord
 10
0.0
 20
0.0
 30
0.0
  0
XRECORD
  5
7DE1B343D9D4A25
102
{ACAD_REACTORS
330
7DE1B343D9D4A0B
102
}
330
7DE1B343D9D4A0B
100
AcDbXrecord
 10
0.0
 20
0.0
 30
0.0
  0
XRECORD
  5
7DE1B343D9D4A22
102
{ACAD_REACTORS
330
7DE1B343D9D4A0B
102
}
330
7DE1B343D9D4A0B
100
AcDbXrecord
340
0
  0
XRECORD
  5
7DE1B343D9D4A23
102
{ACAD_REACTORS
330
7DE1B343D9D4A0B
102
}
330
7DE1B343D9D4A0B
100
AcDbXrecord
 70
     0
  0
XRECORD
  5
7DE1B343D9D4A17
102
{ACAD_REACTORS
330
7DE1B343D9D4A0B
102
}
330
7DE1B343D9D4A0B
100
AcDbXrecord
  1
{BD882212-8DB4-11D6-88E6-0090279574E7}
  0
DICTIONARYVAR
  5
7DE1B343D9D4A09
102
{ACAD_REACTORS
330
7DE1B343D9D4A08
102
}
330
7DE1B343D9D4A08
100
DictionaryVariables
280
     0
  1
1
  0
ENDSEC
  0
EOF
