  0
SECTION
  2
HEADER
  9
$ACADVER
  1
AC1014
  9
$ACADMAINTVER
 70
     9
  9
$DWGCODEPAGE
  3
ANSI_1252
  9
$INSBASE
 10
1.808215954471959
 20
1.567741691179127
 30
0.0
  9
$EXTMIN
 10
0.0652343752448159
 20
0.8537982651726288
 30
0.0
  9
$EXTMAX
 10
3.550453696991943
 20
2.067741691179127
 30
0.0
  9
$LIMMIN
 10
0.0
 20
0.0
  9
$LIMMAX
 10
18.0
 20
12.0
  9
$ORTHOMODE
 70
     1
  9
$REGENMODE
 70
     1
  9
$FILLMODE
 70
     1
  9
$QTEXTMODE
 70
     0
  9
$MIRRTEXT
 70
     0
  9
$DRAGMODE
 70
     2
  9
$LTSCALE
 40
1.0
  9
$OSMODE
 70
    39
  9
$ATTMODE
 70
     1
  9
$TEXTSIZE
 40
0.125
  9
$TRACEWID
 40
0.05
  9
$TEXTSTYLE
  7
ROMANS
  9
$CLAYER
  8
0
  9
$CELTYPE
  6
BYLAYER
  9
$CECOLOR
 62
   256
  9
$CELTSCALE
 40
1.0
  9
$DELOBJ
 70
     1
  9
$DISPSILH
 70
     1
  9
$DIMSCALE
 40
1.0
  9
$DIMASZ
 40
0.125
  9
$DIMEXO
 40
0.125
  9
$DIMDLI
 40
0.375
  9
$DIMRND
 40
0.0
  9
$DIMDLE
 40
0.0
  9
$DIMEXE
 40
0.125
  9
$DIMTP
 40
0.0
  9
$DIMTM
 40
0.0
  9
$DIMTXT
 40
0.125
  9
$DIMCEN
 40
-0.125
  9
$DIMTSZ
 40
0.0
  9
$DIMTOL
 70
     0
  9
$DIMLIM
 70
     0
  9
$DIMTIH
 70
     1
  9
$DIMTOH
 70
     1
  9
$DIMSE1
 70
     0
  9
$DIMSE2
 70
     0
  9
$DIMTAD
 70
     0
  9
$DIMZIN
 70
     4
  9
$DIMBLK
  1

  9
$DIMASO
 70
     1
  9
$DIMSHO
 70
     1
  9
$DIMPOST
  1

  9
$DIMAPOST
  1

  9
$DIMALT
 70
     0
  9
$DIMALTD
 70
     2
  9
$DIMALTF
 40
25.4
  9
$DIMLFAC
 40
1.0
  9
$DIMTOFL
 70
     0
  9
$DIMTVP
 40
0.0
  9
$DIMTIX
 70
     1
  9
$DIMSOXD
 70
     0
  9
$DIMSAH
 70
     0
  9
$DIMBLK1
  1

  9
$DIMBLK2
  1

  9
$DIMSTYLE
  2
STANDARD
  9
$DIMCLRD
 70
     0
  9
$DIMCLRE
 70
     0
  9
$DIMCLRT
 70
     0
  9
$DIMTFAC
 40
1.0
  9
$DIMGAP
 40
0.09
  9
$DIMJUST
 70
     0
  9
$DIMSD1
 70
     0
  9
$DIMSD2
 70
     0
  9
$DIMTOLJ
 70
     1
  9
$DIMTZIN
 70
     4
  9
$DIMALTZ
 70
     0
  9
$DIMALTTZ
 70
     0
  9
$DIMFIT
 70
     3
  9
$DIMUPT
 70
     0
  9
$DIMUNIT
 70
     2
  9
$DIMDEC
 70
     3
  9
$DIMTDEC
 70
     3
  9
$DIMALTU
 70
     2
  9
$DIMALTTD
 70
     2
  9
$DIMTXSTY
  7
ROMANS
  9
$DIMAUNIT
 70
     0
  9
$LUNITS
 70
     2
  9
$LUPREC
 70
     3
  9
$SKETCHINC
 40
0.1
  9
$FILLETRAD
 40
0.03125
  9
$AUNITS
 70
     0
  9
$AUPREC
 70
     0
  9
$MENU
  1
ACAD
  9
$ELEVATION
 40
0.0
  9
$PELEVATION
 40
0.0
  9
$THICKNESS
 40
0.0
  9
$LIMCHECK
 70
     0
  9
$BLIPMODE
 70
     0
  9
$CHAMFERA
 40
0.0
  9
$CHAMFERB
 40
0.0
  9
$CHAMFERC
 40
0.0
  9
$CHAMFERD
 40
0.0
  9
$SKPOLY
 70
     0
  9
$TDCREATE
 40
2448994.369092245
  9
$TDUPDATE
 40
2452458.299122801
  9
$TDINDWG
 40
0.0006406019
  9
$TDUSRTIMER
 40
0.0006406019
  9
$USRTIMER
 70
     1
  9
$ANGBASE
 50
0.0
  9
$ANGDIR
 70
     0
  9
$PDMODE
 70
     0
  9
$PDSIZE
 40
0.0
  9
$PLINEWID
 40
0.0
  9
$COORDS
 70
     2
  9
$SPLFRAME
 70
     0
  9
$SPLINETYPE
 70
     6
  9
$SPLINESEGS
 70
     8
  9
$ATTDIA
 70
     0
  9
$ATTREQ
 70
     1
  9
$HANDLING
 70
 22529
  9
$HANDSEED
  5
7DE1B343D9D4977
  9
$SURFTAB1
 70
     6
  9
$SURFTAB2
 70
     6
  9
$SURFTYPE
 70
     6
  9
$SURFU
 70
     6
  9
$SURFV
 70
     6
  9
$UCSNAME
  2

  9
$UCSORG
 10
0.0
 20
0.0
 30
0.0
  9
$UCSXDIR
 10
1.0
 20
0.0
 30
0.0
  9
$UCSYDIR
 10
0.0
 20
1.0
 30
0.0
  9
$PUCSNAME
  2

  9
$PUCSORG
 10
0.0
 20
0.0
 30
0.0
  9
$PUCSXDIR
 10
1.0
 20
0.0
 30
0.0
  9
$PUCSYDIR
 10
0.0
 20
1.0
 30
0.0
  9
$USERI1
 70
     0
  9
$USERI2
 70
     0
  9
$USERI3
 70
     0
  9
$USERI4
 70
     0
  9
$USERI5
 70
     0
  9
$USERR1
 40
0.0
  9
$USERR2
 40
0.0
  9
$USERR3
 40
0.0
  9
$USERR4
 40
0.0
  9
$USERR5
 40
0.0
  9
$WORLDVIEW
 70
     1
  9
$SHADEDGE
 70
     3
  9
$SHADEDIF
 70
    70
  9
$TILEMODE
 70
     1
  9
$MAXACTVP
 70
    16
  9
$PINSBASE
 10
0.0
 20
0.0
 30
0.0
  9
$PLIMCHECK
 70
     0
  9
$PEXTMIN
 10
1.000000000000000E+20
 20
1.000000000000000E+20
 30
1.000000000000000E+20
  9
$PEXTMAX
 10
-1.000000000000000E+20
 20
-1.000000000000000E+20
 30
-1.000000000000000E+20
  9
$PLIMMIN
 10
0.0
 20
0.0
  9
$PLIMMAX
 10
12.0
 20
9.0
  9
$UNITMODE
 70
     0
  9
$VISRETAIN
 70
     0
  9
$PLINEGEN
 70
     1
  9
$PSLTSCALE
 70
     0
  9
$TREEDEPTH
 70
  3020
  9
$PICKSTYLE
 70
     1
  9
$CMLSTYLE
  2
STANDARD
  9
$CMLJUST
 70
     0
  9
$CMLSCALE
 40
1.0
  9
$PROXYGRAPHICS
 70
     1
  9
$MEASUREMENT
 70
     0
  0
ENDSEC
  0
SECTION
  2
CLASSES
  0
CLASS
  1
LWPOLYLINE
  2
AcDbPolyline
  3
AutoCAD 2000
 90
        0
280
     0
281
     1
  0
CLASS
  1
ACDBDICTIONARYWDFLT
  2
AcDbDictionaryWithDefault
  3
AutoCAD 2000
 90
        0
280
     0
281
     0
  0
CLASS
  1
ACDBPLACEHOLDER
  2
AcDbPlaceHolder
  3
AutoCAD 2000
 90
        0
280
     0
281
     0
  0
CLASS
  1
LAYOUT
  2
AcDbLayout
  3
AutoCAD 2000
 90
        0
280
     0
281
     0
  0
CLASS
  1
DICTIONARYVAR
  2
AcDbDictionaryVar
  3
AutoCAD 2000
 90
        0
280
     0
281
     0
  0
CLASS
  1
LONG_TRANSACTION
  2
AcDbLongTransaction
  3
AutoCAD 2000
 90
        0
280
     0
281
     0
  0
CLASS
  1
LWPOLYLINE
  2
AcDbPolyline
  3
AutoCAD 2000
 90
        0
280
     0
281
     1
  0
CLASS
  1
HATCH
  2
AcDbHatch
  3
AutoCAD 2000
 90
        0
280
     0
281
     1
  0
CLASS
  1
XRECORD
  2
AcDbXrecord
  3
AutoCAD 2000
 90
        0
280
     0
281
     0
  0
ENDSEC
  0
SECTION
  2
TABLES
  0
TABLE
  2
VPORT
  5
7DE1B343D9D491E
330
0
100
AcDbSymbolTable
 70
     2
  0
VPORT
  5
7DE1B343D9D4952
330
7DE1B343D9D491E
100
AcDbSymbolTableRecord
100
AcDbViewportTableRecord
  2
*ACTIVE
 70
     0
 10
0.0
 20
0.0
 11
1.0
 21
1.0
 12
4.783724628238882
 22
1.460357688670463
 13
0.0
 23
0.0
 14
0.015625
 24
0.015625
 15
0.0
 25
0.0
 16
0.0
 26
0.0
 36
1.0
 17
0.0
 27
0.0
 37
0.0
 40
2.282647215150728
 41
4.320930232558139
 42
50.0
 43
0.0
 44
0.0
 50
0.0
 51
0.0
 71
     0
 72
  2000
 73
     1
 74
     0
 75
     0
 76
     0
 77
     0
 78
     0
  0
ENDTAB
  0
TABLE
  2
LTYPE
  5
7DE1B343D9D491B
330
0
100
AcDbSymbolTable
 70
     1
  0
LTYPE
  5
7DE1B343D9D4928
330
7DE1B343D9D491B
100
AcDbSymbolTableRecord
100
AcDbLinetypeTableRecord
  2
BYBLOCK
 70
     0
  3

 72
    65
 73
     0
 40
0.0
  0
LTYPE
  5
7DE1B343D9D4929
330
7DE1B343D9D491B
100
AcDbSymbolTableRecord
100
AcDbLinetypeTableRecord
  2
BYLAYER
 70
     0
  3

 72
    65
 73
     0
 40
0.0
  0
LTYPE
  5
7DE1B343D9D492A
330
7DE1B343D9D491B
100
AcDbSymbolTableRecord
100
AcDbLinetypeTableRecord
  2
CONTINUOUS
 70
     0
  3
Solid line
 72
    65
 73
     0
 40
0.0
  0
ENDTAB
  0
TABLE
  2
LAYER
  5
7DE1B343D9D4918
330
0
100
AcDbSymbolTable
 70
     2
  0
LAYER
  5
7DE1B343D9D4925
330
7DE1B343D9D4918
100
AcDbSymbolTableRecord
100
AcDbLayerTableRecord
  2
0
 70
     0
 62
     7
  6
CONTINUOUS
  0
LAYER
  5
7DE1B343D9D4935
330
7DE1B343D9D4918
100
AcDbSymbolTableRecord
100
AcDbLayerTableRecord
  2
TEXT
 70
     0
 62
     3
  6
CONTINUOUS
  0
ENDTAB
  0
TABLE
  2
STYLE
  5
7DE1B343D9D4919
330
0
100
AcDbSymbolTable
 70
     3
  0
STYLE
  5
7DE1B343D9D4926
330
7DE1B343D9D4919
100
AcDbSymbolTableRecord
100
AcDbTextStyleTableRecord
  2
STANDARD
 70
     0
 40
0.0
 41
1.0
 50
0.0
 71
     0
 42
0.3125
  3
txt
  4

  0
STYLE
  5
7DE1B343D9D4932
330
7DE1B343D9D4919
100
AcDbSymbolTableRecord
100
AcDbTextStyleTableRecord
  2
ITALICC
 70
     0
 40
0.0
 41
1.0
 50
0.0
 71
     0
 42
0.125
  3
italicc
  4

  0
STYLE
  5
7DE1B343D9D4942
330
7DE1B343D9D4919
100
AcDbSymbolTableRecord
100
AcDbTextStyleTableRecord
  2
ROMANS
 70
     0
 40
0.0
 41
1.0
 50
0.0
 71
     0
 42
0.125
  3
romans.shx
  4

  0
ENDTAB
  0
TABLE
  2
VIEW
  5
7DE1B343D9D491C
330
0
100
AcDbSymbolTable
 70
     0
  0
ENDTAB
  0
TABLE
  2
UCS
  5
7DE1B343D9D491D
330
0
100
AcDbSymbolTable
 70
     0
  0
ENDTAB
  0
TABLE
  2
APPID
  5
7DE1B343D9D491F
330
0
100
AcDbSymbolTable
 70
     1
  0
APPID
  5
7DE1B343D9D4927
330
7DE1B343D9D491F
100
AcDbSymbolTableRecord
100
AcDbRegAppTableRecord
  2
ACAD
 70
     0
  0
ENDTAB
  0
TABLE
  2
DIMSTYLE
  5
7DE1B343D9D4920
330
0
100
AcDbSymbolTable
 70
     1
  0
DIMSTYLE
105
7DE1B343D9D493A
330
7DE1B343D9D4920
100
AcDbSymbolTableRecord
100
AcDbDimStyleTableRecord
  2
STANDARD
 70
     0
  3

  4

  5

  6

  7

 40
1.0
 41
0.125
 42
0.125
 43
0.375
 44
0.125
 45
0.0
 46
0.0
 47
0.0
 48
0.0
140
0.125
141
-0.125
142
0.0
143
25.4
144
1.0
145
0.0
146
1.0
147
0.09
 71
     0
 72
     0
 73
     1
 74
     1
 75
     0
 76
     0
 77
     0
 78
     4
170
     0
171
     2
172
     0
173
     0
174
     1
175
     0
176
     0
177
     0
178
     0
270
     2
271
     3
272
     3
273
     2
274
     2
340
7DE1B343D9D4942
275
     0
280
     0
281
     0
282
     0
283
     1
284
     4
285
     0
286
     0
287
     3
288
     0
  0
ENDTAB
  0
TABLE
  2
BLOCK_RECORD
  5
7DE1B343D9D4917
330
0
100
AcDbSymbolTable
 70
     0
  0
BLOCK_RECORD
  5
7DE1B343D9D492E
102
{ACAD_XDICTIONARY
360
7DE1B343D9D4975
102
}
330
7DE1B343D9D4917
100
AcDbSymbolTableRecord
100
AcDbBlockTableRecord
  2
*MODEL_SPACE
  0
BLOCK_RECORD
  5
7DE1B343D9D492B
102
{ACAD_XDICTIONARY
360
7DE1B343D9D4973
102
}
330
7DE1B343D9D4917
100
AcDbSymbolTableRecord
100
AcDbBlockTableRecord
  2
*PAPER_SPACE
  0
ENDTAB
  0
ENDSEC
  0
SECTION
  2
BLOCKS
  0
BLOCK
  5
7DE1B343D9D4938
330
7DE1B343D9D492E
100
AcDbEntity
  8
0
100
AcDbBlockBegin
  2
*MODEL_SPACE
 70
     0
 10
0.0
 20
0.0
 30
0.0
  3
*MODEL_SPACE
  1

  0
ENDBLK
  5
7DE1B343D9D4939
330
7DE1B343D9D492E
100
AcDbEntity
  8
0
100
AcDbBlockEnd
  0
BLOCK
  5
7DE1B343D9D4936
330
7DE1B343D9D492B
100
AcDbEntity
 67
     1
  8
0
100
AcDbBlockBegin
  2
*PAPER_SPACE
 70
     0
 10
0.0
 20
0.0
 30
0.0
  3
*PAPER_SPACE
  1

  0
ENDBLK
  5
7DE1B343D9D4937
330
7DE1B343D9D492B
100
AcDbEntity
 67
     1
  8
0
100
AcDbBlockEnd
  0
ENDSEC
  0
SECTION
  2
ENTITIES
  0
LWPOLYLINE
  5
7DE1B343D9D34FF
330
7DE1B343D9D492E
100
AcDbEntity
  8
0
100
AcDbPolyline
 90
       60
 70
     1
 43
0.0
 10
1.38634095447196
 20
1.832741691179127
 42
-0.4142135623730951
 10
1.401340954471959
 20
1.847741691179127
 10
1.46446595447196
 20
1.847741691179127
 42
0.4142135623730951
 10
1.49571595447196
 20
1.878991691179127
 10
1.49571595447196
 20
1.948991691179127
 10
1.451965954471959
 20
1.992741691179127
 42
-1.0
 10
1.60196595447196
 20
1.992741691179127
 10
1.55821595447196
 20
1.948991691179127
 10
1.55821595447196
 20
1.878991691179127
 42
0.4142135623730951
 10
1.58946595447196
 20
1.847741691179127
 10
1.65259095447196
 20
1.847741691179127
 42
-0.4142135623730951
 10
1.66759095447196
 20
1.832741691179127
 10
1.66759095447196
 20
1.797741691179127
 10
1.57384095447196
 20
1.797741691179127
 10
1.57384095447196
 20
1.661241691179127
 42
0.4142135623730993
 10
1.604840954471959
 20
1.630241691179127
 10
1.66759095447196
 20
1.630241691179127
 10
1.667590954471959
 20
1.617741691179127
 10
1.798215954471959
 20
1.617741691179127
 10
1.808215954471959
 20
1.607741691179127
 10
1.818215954471958
 20
1.617741691179127
 10
1.948840954471959
 20
1.617741691179127
 10
1.94884095447196
 20
1.630241691179127
 10
2.01159095447196
 20
1.630241691179127
 42
0.4142135623730919
 10
2.042590954471958
 20
1.661241691179127
 10
2.04259095447196
 20
1.797741691179127
 10
1.94884095447196
 20
1.797741691179127
 10
1.948840954471959
 20
1.832741691179127
 42
-0.4142135623730951
 10
1.963840954471959
 20
1.847741691179127
 10
2.02696595447196
 20
1.847741691179127
 42
0.4142135623730951
 10
2.05821595447196
 20
1.878991691179127
 10
2.05821595447196
 20
1.948991691179127
 10
2.014465954471959
 20
1.992741691179127
 42
-1.0
 10
2.16446595447196
 20
1.992741691179127
 10
2.12071595447196
 20
1.948991691179127
 10
2.12071595447196
 20
1.878991691179127
 42
0.4142135623730951
 10
2.15196595447196
 20
1.847741691179127
 10
2.215090954471961
 20
1.847741691179127
 42
-0.4142135623730951
 10
2.23009095447196
 20
1.832741691179127
 10
2.23009095447196
 20
1.797741691179127
 10
2.13634095447196
 20
1.797741691179127
 10
2.136340954471959
 20
1.661241691179127
 42
0.4142135623730951
 10
2.167340954471959
 20
1.630241691179127
 10
2.30846595447196
 20
1.630241691179127
 42
0.4142135623730919
 10
2.339465954471959
 20
1.661241691179127
 10
2.33946595447196
 20
2.036491691179127
 42
-1.0
 10
2.40196595447196
 20
2.036491691179127
 10
2.401965954471959
 20
1.598991691179127
 42
-0.4142135623730951
 10
2.370715954471959
 20
1.567741691179127
 10
1.808215954471959
 20
1.567741691179127
 10
1.24571595447196
 20
1.567741691179127
 42
-0.4142135623730951
 10
1.21446595447196
 20
1.598991691179127
 10
1.21446595447196
 20
2.036491691179127
 42
-1.0
 10
1.27696595447196
 20
2.036491691179127
 10
1.27696595447196
 20
1.661241691179127
 42
0.4142135623730971
 10
1.307965954471959
 20
1.630241691179127
 10
1.44909095447196
 20
1.630241691179127
 42
0.4142135623730971
 10
1.48009095447196
 20
1.661241691179127
 10
1.48009095447196
 20
1.797741691179127
 10
1.38634095447196
 20
1.797741691179127
  0
TEXT
  5
7DE1B343D9D47D9
330
7DE1B343D9D492E
100
AcDbEntity
  8
TEXT
100
AcDbText
 10
1.055239763995768
 20
1.31181686925521
 30
0.0
 40
0.125
  1
PART #110178
  7
ITALICC
 72
     1
 11
1.808215954471959
 21
1.31181686925521
 31
0.0
100
AcDbText
  0
TEXT
  5
7DE1B343D9D47DA
330
7DE1B343D9D492E
100
AcDbEntity
  8
TEXT
100
AcDbText
 10
2.221521112722279
 20
0.8648942265828353
 30
0.0
 40
0.0522247191011236
  1
Phone  1-800-328-2495
 41
1.272321428571429
 72
     5
 11
3.550453696991943
 21
0.8648942265828353
 31
0.0
100
AcDbText
  0
TEXT
  5
7DE1B343D9D47DB
330
7DE1B343D9D492E
100
AcDbEntity
  8
TEXT
100
AcDbText
 10
2.221521112722279
 20
1.144669507481711
 30
0.0
 40
0.0522247191011236
  1
Stylmark  Incorporated
 41
1.221428571428573
 72
     5
 11
3.550453696991943
 21
1.144669507481711
 31
0.0
100
AcDbText
  0
TEXT
  5
7DE1B343D9D47DC
330
7DE1B343D9D492E
100
AcDbEntity
  8
TEXT
100
AcDbText
 10
2.221521112722279
 20
1.051411080515419
 30
0.0
 40
0.0522247191011236
  1
6536 Main St. N.E. * P.O. Box 32008
 41
0.8388932496075366
 72
     5
 11
3.550453696991943
 21
1.051411080515419
 31
0.0
100
AcDbText
  0
TEXT
  5
7DE1B343D9D47DD
330
7DE1B343D9D492E
100
AcDbEntity
  8
TEXT
100
AcDbText
 10
2.221521112722279
 20
0.9581526535491274
 30
0.0
 40
0.0522247191011236
  1
Minneapolis, MN 55432-0008
 41
1.11444212721585
 72
     5
 11
3.550453696991943
 21
0.9581526535491274
 31
0.0
100
AcDbText
  0
LWPOLYLINE
  5
7DE1B343D9D47DE
330
7DE1B343D9D492E
100
AcDbEntity
  8
TEXT
100
AcDbPolyline
 90
        3
 70
     0
 43
0.0006660908203125
 10
0.0655674206549721
 20
0.9785389892202701
 10
0.0655674206549721
 20
0.8653035497671424
 10
0.1788028601080944
 20
0.8653035497671424
  0
LWPOLYLINE
  5
7DE1B343D9D47E3
330
7DE1B343D9D492E
100
AcDbEntity
  8
TEXT
100
AcDbPolyline
 90
        3
 70
     0
 43
0.0006660908203125
 10
0.0922110534674696
 20
0.9785389892202701
 10
0.0922110534674696
 20
0.8919471825796435
 10
0.1788028601080944
 20
0.8919471825796435
  0
LWPOLYLINE
  5
7DE1B343D9D47E8
330
7DE1B343D9D492E
100
AcDbEntity
  8
TEXT
100
AcDbPolyline
 90
        2
 70
     0
 43
0.0001332181640625
 10
0.1388374108893464
 20
0.9885303515249553
 10
0.0655674206549721
 20
0.9785389892202701
  0
LWPOLYLINE
  5
7DE1B343D9D47EC
330
7DE1B343D9D492E
100
AcDbEntity
  8
TEXT
100
AcDbPolyline
 90
        2
 70
     0
 43
0.0001332181640625
 10
0.0922110534674696
 20
0.9785389892202701
 10
0.1521592272955969
 20
0.9885303515249553
  0
LWPOLYLINE
  5
7DE1B343D9D47F0
330
7DE1B343D9D492E
100
AcDbEntity
  8
TEXT
100
AcDbPolyline
 90
        2
 70
     0
 43
0.0001332181640625
 10
0.0922110534674696
 20
0.8919471825796435
 10
0.1521592272955969
 20
0.951895356407769
  0
LWPOLYLINE
  5
7DE1B343D9D47F4
330
7DE1B343D9D492E
100
AcDbEntity
  8
TEXT
100
AcDbPolyline
 90
        3
 70
     0
 43
0.0006660908203125
 10
0.1788028601080944
 20
1.131739877892145
 10
0.0655674206549721
 20
1.131739877892145
 10
0.0655674206549721
 20
1.018504438439018
  0
LWPOLYLINE
  5
7DE1B343D9D47F9
330
7DE1B343D9D492E
100
AcDbEntity
  8
TEXT
100
AcDbPolyline
 90
        3
 70
     0
 43
0.0006660908203125
 10
0.1788028601080944
 20
1.105096245079644
 10
0.0922110534674696
 20
1.105096245079644
 10
0.0922110534674696
 20
1.018504438439018
  0
LWPOLYLINE
  5
7DE1B343D9D47FE
330
7DE1B343D9D492E
100
AcDbEntity
  8
TEXT
100
AcDbPolyline
 90
        2
 70
     0
 43
0.0001332181640625
 10
0.0922110534674696
 20
1.105096245079644
 10
0.1521592272955952
 20
1.045148071251519
  0
LWPOLYLINE
  5
7DE1B343D9D4802
330
7DE1B343D9D492E
100
AcDbEntity
  8
TEXT
100
AcDbPolyline
 90
        2
 70
     0
 43
0.0001332181640625
 10
0.0922110534674696
 20
1.018504438439018
 10
0.1521592272955952
 20
1.008513076134329
  0
LWPOLYLINE
  5
7DE1B343D9D4806
330
7DE1B343D9D492E
100
AcDbEntity
  8
TEXT
100
AcDbPolyline
 90
        2
 70
     0
 43
0.0001332181640625
 10
0.0655674206549721
 20
1.018504438439018
 10
0.1388374108893464
 20
1.008513076134329
  0
LWPOLYLINE
  5
7DE1B343D9D480A
330
7DE1B343D9D492E
100
AcDbEntity
  8
TEXT
100
AcDbPolyline
 90
        2
 70
     0
 43
0.0006660908203125
 10
0.0922110534674696
 20
0.9785389892202701
 10
0.0655674206549721
 20
0.9785389892202701
  0
LWPOLYLINE
  5
7DE1B343D9D480E
330
7DE1B343D9D492E
100
AcDbEntity
  8
TEXT
100
AcDbPolyline
 90
        2
 70
     0
 43
0.0006660908203125
 10
0.0922110534674696
 20
1.018504438439018
 10
0.0655674206549721
 20
1.018504438439018
  0
LINE
  5
7DE1B343D9D4812
330
7DE1B343D9D492E
100
AcDbEntity
  8
TEXT
100
AcDbLine
 10
1.580757849781469
 20
1.067463183235376
 30
0.0
 11
1.47355157639418
 21
1.067463183235376
 31
0.0
  0
LINE
  5
7DE1B343D9D4813
330
7DE1B343D9D492E
100
AcDbEntity
  8
TEXT
100
AcDbLine
 10
1.609788748125948
 20
1.131739877892142
 30
0.0
 11
1.474956838908888
 21
1.131739877892142
 31
0.0
  0
ARC
  5
7DE1B343D9D4814
330
7DE1B343D9D492E
100
AcDbEntity
  8
TEXT
100
AcDbCircle
 10
1.534270935302205
 20
0.9625026286291259
 30
0.0
 40
0.0676855811441166
100
AcDbArc
 50
90.0
 51
153.7768192527749
  0
LWPOLYLINE
  5
7DE1B343D9D4815
330
7DE1B343D9D492E
100
AcDbEntity
  8
TEXT
100
AcDbPolyline
 90
        2
 70
     0
 43
0.0
 10
1.47251908093937
 20
0.9087577898540693
 42
0.2901071551932823
 10
1.515595013807005
 20
0.8652668449036312
 42
5.328517124445801
  0
ARC
  5
7DE1B343D9D4819
330
7DE1B343D9D492E
100
AcDbEntity
  8
TEXT
100
AcDbCircle
 10
0.82913955763072
 20
0.925059236241681
 30
0.0
 40
0.0601160179737537
100
AcDbArc
 50
180.0000000000003
 51
264.0521544866073
  0
LINE
  5
7DE1B343D9D481A
330
7DE1B343D9D492E
100
AcDbEntity
  8
TEXT
100
AcDbLine
 10
0.8326549132562679
 20
1.16612779548628
 30
0.0
 11
0.7726123084122609
 21
1.16612779548628
 31
0.0
  0
ARC
  5
7DE1B343D9D481B
330
7DE1B343D9D492E
100
AcDbEntity
  8
TEXT
100
AcDbCircle
 10
0.5968805555137495
 20
1.04965241844564
 30
0.0
 40
0.0820874594465043
100
AcDbArc
 50
90.0
 51
270.0
  0
LWPOLYLINE
  5
7DE1B343D9D481C
330
7DE1B343D9D492E
100
AcDbEntity
  8
TEXT
100
AcDbPolyline
 90
        2
 70
     0
 43
0.0001332181640625
 10
0.188794222412785
 20
1.058469887657766
 10
0.1788028601080944
 20
1.131739877892145
  0
LWPOLYLINE
  5
7DE1B343D9D4820
330
7DE1B343D9D492E
100
AcDbEntity
  8
TEXT
100
AcDbPolyline
 90
        2
 70
     0
 43
0.0001332181640625
 10
0.1788028601080944
 20
1.105096245079644
 10
0.188794222412785
 20
1.045148071251519
  0
LWPOLYLINE
  5
7DE1B343D9D4824
330
7DE1B343D9D492E
100
AcDbEntity
  8
TEXT
100
AcDbPolyline
 90
        3
 70
     0
 43
0.0006660908203125
 10
0.3320037487799718
 20
1.018504438439018
 10
0.3320037487799718
 20
1.131739877892145
 10
0.218768309326846
 20
1.131739877892145
  0
LWPOLYLINE
  5
7DE1B343D9D4829
330
7DE1B343D9D492E
100
AcDbEntity
  8
TEXT
100
AcDbPolyline
 90
        3
 70
     0
 43
0.0006660908203125
 10
0.3053601159674708
 20
1.018504438439018
 10
0.3053601159674708
 20
1.105096245079644
 10
0.218768309326846
 20
1.105096245079644
  0
LWPOLYLINE
  5
7DE1B343D9D482E
330
7DE1B343D9D492E
100
AcDbEntity
  8
TEXT
100
AcDbPolyline
 90
        2
 70
     0
 43
0.0001332181640625
 10
0.3053601159674708
 20
1.105096245079644
 10
0.245411942139347
 20
1.045148071251519
  0
LWPOLYLINE
  5
7DE1B343D9D4832
330
7DE1B343D9D492E
100
AcDbEntity
  8
TEXT
100
AcDbPolyline
 90
        2
 70
     0
 43
0.0001332181640625
 10
0.218768309326846
 20
1.105096245079644
 10
0.2087769470221572
 20
1.045148071251519
  0
LWPOLYLINE
  5
7DE1B343D9D4836
330
7DE1B343D9D492E
100
AcDbEntity
  8
TEXT
100
AcDbPolyline
 90
        2
 70
     0
 43
0.0001332181640625
 10
0.218768309326846
 20
1.131739877892145
 10
0.2087769470221572
 20
1.058469887657766
  0
LWPOLYLINE
  5
7DE1B343D9D483A
330
7DE1B343D9D492E
100
AcDbEntity
  8
TEXT
100
AcDbPolyline
 90
        2
 70
     0
 43
0.0001332181640625
 10
0.2587337585455958
 20
1.008513076134329
 10
0.3320037487799718
 20
1.018504438439018
  0
LWPOLYLINE
  5
7DE1B343D9D483E
330
7DE1B343D9D492E
100
AcDbEntity
  8
TEXT
100
AcDbPolyline
 90
        2
 70
     0
 43
0.0001332181640625
 10
0.3053601159674708
 20
1.018504438439018
 10
0.245411942139347
 20
1.008513076134329
  0
LWPOLYLINE
  5
7DE1B343D9D4842
330
7DE1B343D9D492E
100
AcDbEntity
  8
TEXT
100
AcDbPolyline
 90
        2
 70
     0
 43
0.0001332181640625
 10
0.3320037487799718
 20
0.9785389892202701
 10
0.2587337585455958
 20
0.9885303515249553
  0
LWPOLYLINE
  5
7DE1B343D9D4846
330
7DE1B343D9D492E
100
AcDbEntity
  8
TEXT
100
AcDbPolyline
 90
        2
 70
     0
 43
0.0001332181640625
 10
0.3053601159674708
 20
0.9785389892202701
 10
0.245411942139347
 20
0.9885303515249553
  0
LWPOLYLINE
  5
7DE1B343D9D484A
330
7DE1B343D9D492E
100
AcDbEntity
  8
TEXT
100
AcDbPolyline
 90
        2
 70
     0
 43
0.0001332181640625
 10
0.3053601159674708
 20
0.8919471825796435
 10
0.245411942139347
 20
0.951895356407769
  0
LWPOLYLINE
  5
7DE1B343D9D484E
330
7DE1B343D9D492E
100
AcDbEntity
  8
TEXT
100
AcDbPolyline
 90
        3
 70
     0
 43
0.0006660908203125
 10
0.218768309326846
 20
0.8919471825796435
 10
0.3053601159674708
 20
0.8919471825796435
 10
0.3053601159674708
 20
0.9785389892202701
  0
LWPOLYLINE
  5
7DE1B343D9D4853
330
7DE1B343D9D492E
100
AcDbEntity
  8
TEXT
100
AcDbPolyline
 90
        3
 70
     0
 43
0.0006660908203125
 10
0.218768309326846
 20
0.8653035497671424
 10
0.3320037487799718
 20
0.8653035497671424
 10
0.3320037487799718
 20
0.9785389892202701
  0
LWPOLYLINE
  5
7DE1B343D9D4858
330
7DE1B343D9D492E
100
AcDbEntity
  8
TEXT
100
AcDbPolyline
 90
        5
 70
     0
 43
0.0001332181640625
 10
0.188794222412785
 20
0.9385735400015185
 10
0.188794222412785
 20
0.951895356407769
 10
0.1521592272955969
 20
0.951895356407769
 10
0.1521592272955969
 20
0.9885303515249553
 10
0.1388374108893464
 20
0.9885303515249553
  0
LWPOLYLINE
  5
7DE1B343D9D485F
330
7DE1B343D9D492E
100
AcDbEntity
  8
TEXT
100
AcDbPolyline
 90
        2
 70
     0
 43
0.0006660908203125
 10
0.1788028601080944
 20
0.8919471825796435
 10
0.1788028601080944
 20
0.8653035497671424
  0
LWPOLYLINE
  5
7DE1B343D9D4863
330
7DE1B343D9D492E
100
AcDbEntity
  8
TEXT
100
AcDbPolyline
 90
        2
 70
     0
 43
0.0001332181640625
 10
0.1788028601080944
 20
0.8919471825796435
 10
0.188794222412785
 20
0.951895356407769
  0
LWPOLYLINE
  5
7DE1B343D9D4867
330
7DE1B343D9D492E
100
AcDbEntity
  8
TEXT
100
AcDbPolyline
 90
        2
 70
     0
 43
0.0001332181640625
 10
0.1788028601080944
 20
0.8653035497671424
 10
0.188794222412785
 20
0.9385735400015185
  0
LWPOLYLINE
  5
7DE1B343D9D486B
330
7DE1B343D9D492E
100
AcDbEntity
  8
TEXT
100
AcDbPolyline
 90
        5
 70
     0
 43
0.0001332181640625
 10
0.1388374108893464
 20
1.008513076134329
 10
0.1521592272955952
 20
1.008513076134329
 10
0.1521592272955952
 20
1.045148071251519
 10
0.188794222412785
 20
1.045148071251519
 10
0.188794222412785
 20
1.058469887657766
  0
LWPOLYLINE
  5
7DE1B343D9D4872
330
7DE1B343D9D492E
100
AcDbEntity
  8
TEXT
100
AcDbPolyline
 90
        5
 70
     0
 43
0.0001332181640625
 10
0.2087769470221572
 20
1.058469887657766
 10
0.2087769470221572
 20
1.045148071251519
 10
0.245411942139347
 20
1.045148071251519
 10
0.245411942139347
 20
1.008513076134329
 10
0.2587337585455958
 20
1.008513076134329
  0
LWPOLYLINE
  5
7DE1B343D9D4879
330
7DE1B343D9D492E
100
AcDbEntity
  8
TEXT
100
AcDbPolyline
 90
        2
 70
     0
 43
0.0001332181640625
 10
0.218768309326846
 20
0.8919471825796435
 10
0.2087769470221572
 20
0.951895356407769
  0
LWPOLYLINE
  5
7DE1B343D9D487D
330
7DE1B343D9D492E
100
AcDbEntity
  8
TEXT
100
AcDbPolyline
 90
        2
 70
     0
 43
0.0001332181640625
 10
0.2087769470221572
 20
0.9385735400015185
 10
0.218768309326846
 20
0.8653035497671424
  0
LWPOLYLINE
  5
7DE1B343D9D4881
330
7DE1B343D9D492E
100
AcDbEntity
  8
TEXT
100
AcDbPolyline
 90
        2
 70
     0
 43
0.0006660908203125
 10
0.218768309326846
 20
0.8919471825796435
 10
0.218768309326846
 20
0.8653035497671424
  0
LWPOLYLINE
  5
7DE1B343D9D4885
330
7DE1B343D9D492E
100
AcDbEntity
  8
TEXT
100
AcDbPolyline
 90
        5
 70
     0
 43
0.0001332181640625
 10
0.2587337585455958
 20
0.9885303515249553
 10
0.245411942139347
 20
0.9885303515249553
 10
0.245411942139347
 20
0.951895356407769
 10
0.2087769470221572
 20
0.951895356407769
 10
0.2087769470221572
 20
0.9385735400015185
  0
LWPOLYLINE
  5
7DE1B343D9D488C
330
7DE1B343D9D492E
100
AcDbEntity
  8
TEXT
100
AcDbPolyline
 90
        2
 70
     0
 43
0.0006660908203125
 10
0.3053601159674708
 20
1.018504438439018
 10
0.3320037487799718
 20
1.018504438439018
  0
LWPOLYLINE
  5
7DE1B343D9D4890
330
7DE1B343D9D492E
100
AcDbEntity
  8
TEXT
100
AcDbPolyline
 90
        2
 70
     0
 43
0.0006660908203125
 10
0.3053601159674708
 20
0.9785389892202701
 10
0.3320037487799718
 20
0.9785389892202701
  0
LINE
  5
7DE1B343D9D4894
330
7DE1B343D9D492E
100
AcDbEntity
  8
TEXT
100
AcDbLine
 10
0.6021178856279967
 20
1.067463183235376
 30
0.0
 11
0.769023539656968
 21
1.067463183235376
 31
0.0
  0
LINE
  5
7DE1B343D9D4895
330
7DE1B343D9D492E
100
AcDbEntity
  8
TEXT
100
AcDbLine
 10
0.6677180218722978
 20
1.031658461624748
 30
0.0
 11
0.6021178856279967
 21
1.031658461624748
 31
0.0
  0
LINE
  5
7DE1B343D9D4896
330
7DE1B343D9D492E
100
AcDbEntity
  8
TEXT
100
AcDbLine
 10
0.5147930960672451
 20
0.8652668449036312
 30
0.0
 11
0.6677180218722978
 21
0.8652668449036312
 31
0.0
  0
LINE
  5
7DE1B343D9D4897
330
7DE1B343D9D492E
100
AcDbEntity
  8
TEXT
100
AcDbLine
 10
0.6726583957785774
 20
0.9336238512370705
 30
0.0
 11
0.5147930960672433
 21
0.9336238512370705
 31
0.0
  0
LINE
  5
7DE1B343D9D4898
330
7DE1B343D9D492E
100
AcDbEntity
  8
TEXT
100
AcDbLine
 10
0.5968805555137486
 20
0.9675649589991351
 30
0.0
 11
0.6726583957785774
 21
0.9675649589991351
 31
0.0
  0
ARC
  5
7DE1B343D9D4899
330
7DE1B343D9D492E
100
AcDbEntity
  8
TEXT
100
AcDbCircle
 10
0.6021178856279976
 20
1.049560822430064
 30
0.0
 40
0.017902360805315
100
AcDbArc
 50
90.0
 51
270.0
  0
LINE
  5
7DE1B343D9D489A
330
7DE1B343D9D492E
100
AcDbEntity
  8
TEXT
100
AcDbLine
 10
0.5147930960672433
 20
0.9336238512370705
 30
0.0
 11
0.5147930960672451
 21
0.8652668449036312
 31
0.0
  0
LINE
  5
7DE1B343D9D489B
330
7DE1B343D9D492E
100
AcDbEntity
  8
TEXT
100
AcDbLine
 10
0.769023539656968
 20
1.067463183235376
 30
0.0
 11
0.769023539656968
 21
0.925059236241681
 31
0.0
  0
ARC
  5
7DE1B343D9D489C
330
7DE1B343D9D492E
100
AcDbEntity
  8
TEXT
100
AcDbCircle
 10
0.6677180218722987
 20
0.9484626532641883
 30
0.0
 40
0.0831958083605586
100
AcDbArc
 50
270.0
 51
90.0
  0
ARC
  5
7DE1B343D9D489D
330
7DE1B343D9D492E
100
AcDbEntity
  8
TEXT
100
AcDbCircle
 10
0.6726583957785783
 20
0.9505944051181046
 30
0.0
 40
0.0169705538810321
100
AcDbArc
 50
270.0
 51
90.0
  0
LWPOLYLINE
  5
7DE1B343D9D489E
330
7DE1B343D9D492E
100
AcDbEntity
  8
TEXT
100
AcDbPolyline
 90
        2
 70
     0
 43
0.0006660908203125
 10
0.1788028601080944
 20
1.105096245079644
 10
0.1788028601080944
 20
1.131739877892145
  0
LWPOLYLINE
  5
7DE1B343D9D48A2
330
7DE1B343D9D492E
100
AcDbEntity
  8
TEXT
100
AcDbPolyline
 90
        2
 70
     0
 43
0.0006660908203125
 10
0.218768309326846
 20
1.105096245079644
 10
0.218768309326846
 20
1.131739877892145
  0
LINE
  5
7DE1B343D9D48A6
330
7DE1B343D9D492E
100
AcDbEntity
  8
TEXT
100
AcDbLine
 10
0.7726123084122609
 20
1.131739877892142
 30
0.0
 11
0.5968805555137486
 21
1.131739877892142
 31
0.0
  0
LINE
  5
7DE1B343D9D48A7
330
7DE1B343D9D492E
100
AcDbEntity
  8
TEXT
100
AcDbLine
 10
0.7726123084122609
 20
1.16612779548628
 30
0.0
 11
0.7726123084122609
 21
1.131739877892142
 31
0.0
  0
LINE
  5
7DE1B343D9D48A8
330
7DE1B343D9D492E
100
AcDbEntity
  8
TEXT
100
AcDbLine
 10
0.9630842004321131
 20
1.030867881779021
 30
0.0
 11
0.9044538794001752
 21
1.131739877892142
 31
0.0
  0
LINE
  5
7DE1B343D9D48A9
330
7DE1B343D9D492E
100
AcDbEntity
  8
TEXT
100
AcDbLine
 10
1.021832763237978
 20
1.131739877892142
 30
0.0
 11
0.9630842004321131
 21
1.030867881779021
 31
0.0
  0
LINE
  5
7DE1B343D9D48AA
330
7DE1B343D9D492E
100
AcDbEntity
  8
TEXT
100
AcDbLine
 10
1.118763388597719
 20
0.9476546830066304
 30
0.0
 11
1.118763388597719
 21
1.199751355630952
 31
0.0
  0
LINE
  5
7DE1B343D9D48AB
330
7DE1B343D9D492E
100
AcDbEntity
  8
TEXT
100
AcDbLine
 10
1.15107524273538
 20
1.131739877892142
 30
0.0
 11
1.15107524273538
 21
0.9308756711597339
 31
0.0
  0
LINE
  5
7DE1B343D9D48AC
330
7DE1B343D9D492E
100
AcDbEntity
  8
TEXT
100
AcDbLine
 10
1.15107524273538
 20
0.9308756711597339
 30
0.0
 11
1.134081605850778
 21
0.9308756711597339
 31
0.0
  0
LINE
  5
7DE1B343D9D48AD
330
7DE1B343D9D492E
100
AcDbEntity
  8
TEXT
100
AcDbLine
 10
1.119902962093914
 20
0.8652668449036312
 30
0.0
 11
1.217906295793349
 21
0.8652668449036312
 31
0.0
  0
LINE
  5
7DE1B343D9D48AE
330
7DE1B343D9D492E
100
AcDbEntity
  8
TEXT
100
AcDbLine
 10
0.9534839634351587
 20
0.8852253510086441
 30
0.0
 11
1.050783669528603
 21
1.049575561943912
 31
0.0
  0
ARC
  5
7DE1B343D9D48AF
330
7DE1B343D9D492E
100
AcDbEntity
  8
TEXT
100
AcDbCircle
 10
0.9194404035229448
 20
0.9048145671773269
 30
0.0
 40
0.0392772371940762
100
AcDbArc
 50
270.1604552698595
 51
330.0831797321295
  0
LINE
  5
7DE1B343D9D48B0
330
7DE1B343D9D492E
100
AcDbEntity
  8
TEXT
100
AcDbLine
 10
0.8229101471370736
 20
0.8652668449036312
 30
0.0
 11
0.919550398212068
 21
0.8655374840019135
 31
0.0
  0
LWPOLYLINE
  5
7DE1B343D9D48B1
330
7DE1B343D9D492E
100
AcDbEntity
  8
TEXT
100
AcDbPolyline
 90
        6
 70
     1
 43
0.0
 10
0.8654339507122232
 20
1.067463183235376
 10
0.835117356492015
 20
1.067463183235376
 10
0.835117356492015
 20
0.9443521851804824
 42
0.407328721240804
 10
0.8466610076534914
 20
0.9325332705040963
 10
0.9072827066982222
 20
0.9325332705040963
 10
0.9247480471055402
 20
0.9653454995475755
  0
LINE
  5
7DE1B343D9D48B9
330
7DE1B343D9D492E
100
AcDbEntity
  8
TEXT
100
AcDbLine
 10
1.050783669528603
 20
1.049575561943912
 30
0.0
 11
1.050783669528603
 21
0.9168181871185559
 31
0.0
  0
ARC
  5
7DE1B343D9D48BA
330
7DE1B343D9D492E
100
AcDbEntity
  8
TEXT
100
AcDbCircle
 10
1.134081605850776
 20
0.9462574774031594
 30
0.0
 40
0.0153818062434269
100
AcDbArc
 50
174.7883570302258
 51
270.0
  0
LWPOLYLINE
  5
7DE1B343D9D48BB
330
7DE1B343D9D492E
100
AcDbEntity
  8
TEXT
100
AcDbPolyline
 90
        2
 70
     0
 43
0.0
 10
1.050783669528601
 20
0.9168181871185595
 42
0.3318488747599744
 10
1.119902962093914
 20
0.8652668449036312
 42
-6.868794160588311
  0
LINE
  5
7DE1B343D9D48BF
330
7DE1B343D9D492E
100
AcDbEntity
  8
TEXT
100
AcDbLine
 10
1.27529536478261
 20
0.8652668449036312
 30
0.0
 11
1.34235341156445
 21
0.8652668449036312
 31
0.0
  0
LINE
  5
7DE1B343D9D48C0
330
7DE1B343D9D492E
100
AcDbEntity
  8
TEXT
100
AcDbLine
 10
1.27529536478261
 20
1.059909394069266
 30
0.0
 11
1.27529536478261
 21
0.8652668449036312
 31
0.0
  0
LINE
  5
7DE1B343D9D48C1
330
7DE1B343D9D492E
100
AcDbEntity
  8
TEXT
100
AcDbLine
 10
1.217906295793349
 20
1.067463183235376
 30
0.0
 11
1.267741575616496
 21
1.067463183235376
 31
0.0
  0
LINE
  5
7DE1B343D9D48C2
330
7DE1B343D9D492E
100
AcDbEntity
  8
TEXT
100
AcDbLine
 10
1.217906295793349
 20
0.8652668449036312
 30
0.0
 11
1.217906295793349
 21
1.067463183235376
 31
0.0
  0
LWPOLYLINE
  5
7DE1B343D9D48C3
330
7DE1B343D9D492E
100
AcDbEntity
  8
TEXT
100
AcDbPolyline
 90
        2
 70
     0
 43
0.0
 10
1.267741575616495
 20
1.067463183235376
 42
-0.4142135623731017
 10
1.275295364782608
 20
1.059909394069266
 42
-0.9999999999999998
  0
LINE
  5
7DE1B343D9D48C7
330
7DE1B343D9D492E
100
AcDbEntity
  8
TEXT
100
AcDbLine
 10
1.47355157639418
 20
1.067463183235376
 30
0.0
 11
1.47355157639418
 21
0.9924107771611701
 31
0.0
  0
LINE
  5
7DE1B343D9D48C8
330
7DE1B343D9D492E
100
AcDbEntity
  8
TEXT
100
AcDbLine
 10
1.34235341156445
 20
1.067463183235376
 30
0.0
 11
1.3964870084854
 21
1.067463183235376
 31
0.0
  0
LINE
  5
7DE1B343D9D48C9
330
7DE1B343D9D492E
100
AcDbEntity
  8
TEXT
100
AcDbLine
 10
1.34235341156445
 20
0.8652668449036312
 30
0.0
 11
1.34235341156445
 21
1.067463183235376
 31
0.0
  0
LWPOLYLINE
  5
7DE1B343D9D48CA
330
7DE1B343D9D492E
100
AcDbEntity
  8
TEXT
100
AcDbPolyline
 90
        2
 70
     0
 43
0.0
 10
1.396487008485398
 20
1.067463183235376
 42
-0.4142135623731017
 10
1.404040797651512
 20
1.059909394069266
 42
-0.9999999999999998
  0
LWPOLYLINE
  5
7DE1B343D9D48CE
330
7DE1B343D9D492E
100
AcDbEntity
  8
TEXT
100
AcDbPolyline
 90
        4
 70
     0
 43
0.0
 10
1.404040797651512
 20
1.059909394069266
 10
1.404040797651512
 20
0.8652668449036312
 10
1.47251908093937
 20
0.8652668449036312
 10
1.47251908093937
 20
0.9087577898540693
 42
-1.714843617202739
  0
LINE
  5
7DE1B343D9D48D4
330
7DE1B343D9D492E
100
AcDbEntity
  8
TEXT
100
AcDbLine
 10
0.8326549132562679
 20
1.131739877892142
 30
0.0
 11
0.8326549132562679
 21
1.16612779548628
 31
0.0
  0
LINE
  5
7DE1B343D9D48D5
330
7DE1B343D9D492E
100
AcDbEntity
  8
TEXT
100
AcDbLine
 10
0.9044538794001752
 20
1.131739877892142
 30
0.0
 11
0.8326549132562679
 21
1.131739877892142
 31
0.0
  0
LINE
  5
7DE1B343D9D48D6
330
7DE1B343D9D492E
100
AcDbEntity
  8
TEXT
100
AcDbLine
 10
1.051954676031354
 20
1.131739877892142
 30
0.0
 11
1.021832763237978
 21
1.131739877892142
 31
0.0
  0
LINE
  5
7DE1B343D9D48D7
330
7DE1B343D9D492E
100
AcDbEntity
  8
TEXT
100
AcDbLine
 10
1.051954676031354
 20
1.199751355630952
 30
0.0
 11
1.051954676031354
 21
1.131739877892142
 31
0.0
  0
LINE
  5
7DE1B343D9D48D8
330
7DE1B343D9D492E
100
AcDbEntity
  8
TEXT
100
AcDbLine
 10
1.118763388597719
 20
1.199751355630952
 30
0.0
 11
1.051954676031354
 21
1.199751355630952
 31
0.0
  0
LWPOLYLINE
  5
7DE1B343D9D48D9
330
7DE1B343D9D492E
100
AcDbEntity
  8
TEXT
100
AcDbPolyline
 90
        3
 70
     0
 43
0.0
 10
1.439175148195722
 20
1.131739877892145
 10
1.320874989379677
 20
1.131739877892145
 10
1.320874989379677
 20
1.104572381131249
 42
-1.960274751411753
  0
LINE
  5
7DE1B343D9D48DE
330
7DE1B343D9D492E
100
AcDbEntity
  8
TEXT
100
AcDbLine
 10
1.285093298666516
 20
1.131739877892142
 30
0.0
 11
1.15107524273538
 21
1.131739877892142
 31
0.0
  0
LWPOLYLINE
  5
7DE1B343D9D48DF
330
7DE1B343D9D492E
100
AcDbEntity
  8
TEXT
100
AcDbPolyline
 90
        2
 70
     0
 43
0.0
 10
1.285093298666516
 20
1.131739877892145
 42
-0.3328679258950098
 10
1.320874989379677
 20
1.104572381131249
 42
6.772930709997214
  0
LINE
  5
7DE1B343D9D48E3
330
7DE1B343D9D492E
100
AcDbEntity
  8
TEXT
100
AcDbLine
 10
1.474956838908888
 20
1.131739877892142
 30
0.0
 11
1.474956838908888
 21
1.103417332122498
 31
0.0
  0
LWPOLYLINE
  5
7DE1B343D9D48E4
330
7DE1B343D9D492E
100
AcDbEntity
  8
TEXT
100
AcDbPolyline
 90
        2
 70
     0
 43
0.0
 10
1.439175148195722
 20
1.131739877892145
 42
-0.3277054968067132
 10
1.474956838908887
 20
1.103417332122501
 42
6.667889725900311
  0
LINE
  5
7DE1B343D9D48E8
330
7DE1B343D9D492E
100
AcDbEntity
  8
TEXT
100
AcDbLine
 10
1.688748687000989
 20
1.026527899338714
 30
0.0
 11
1.644997915819087
 21
1.10877817533486
 31
0.0
  0
LINE
  5
7DE1B343D9D48E9
330
7DE1B343D9D492E
100
AcDbEntity
  8
TEXT
100
AcDbLine
 10
1.688748687000989
 20
1.131739877892142
 30
0.0
 11
1.688748687000989
 21
1.026527899338714
 31
0.0
  0
LINE
  5
7DE1B343D9D48EA
330
7DE1B343D9D492E
100
AcDbEntity
  8
TEXT
100
AcDbLine
 10
1.916432425939358
 20
1.055874551480604
 30
0.0
 11
1.916432425939358
 21
1.197204083659742
 31
0.0
  0
LINE
  5
7DE1B343D9D48EB
330
7DE1B343D9D492E
100
AcDbEntity
  8
TEXT
100
AcDbLine
 10
1.963530584495342
 20
1.131739877892142
 30
0.0
 11
1.916432425939358
 21
1.055874551480604
 31
0.0
  0
LINE
  5
7DE1B343D9D48EC
330
7DE1B343D9D492E
100
AcDbEntity
  8
TEXT
100
AcDbLine
 10
1.973965301259265
 20
1.021846634951168
 30
0.0
 11
2.03852241722497
 21
1.131739877892142
 31
0.0
  0
LINE
  5
7DE1B343D9D48ED
330
7DE1B343D9D492E
100
AcDbEntity
  8
TEXT
100
AcDbLine
 10
1.852597434716584
 20
0.8652668449036312
 30
0.0
 11
1.916975619035205
 21
0.8652668449036312
 31
0.0
  0
LWPOLYLINE
  5
7DE1B343D9D48EE
330
7DE1B343D9D492E
100
AcDbEntity
  8
TEXT
100
AcDbPolyline
 90
        2
 70
     0
 43
0.0
 10
1.692688364306026
 20
0.9087577898540693
 42
-0.2901071551932486
 10
1.649612431438382
 20
0.8652668449036312
 42
-5.328517124445184
  0
ARC
  5
7DE1B343D9D48F2
330
7DE1B343D9D492E
100
AcDbEntity
  8
TEXT
100
AcDbCircle
 10
1.580757849781467
 20
1.039103808235379
 30
0.0
 40
0.028359375
100
AcDbArc
 50
25.78218179591245
 51
90.0
  0
LINE
  5
7DE1B343D9D48F3
330
7DE1B343D9D492E
100
AcDbEntity
  8
TEXT
100
AcDbLine
 10
1.61655892508559
 20
1.030188209773244
 30
0.0
 11
1.606294164672026
 21
1.051438749345938
 31
0.0
  0
LINE
  5
7DE1B343D9D48F4
330
7DE1B343D9D492E
100
AcDbEntity
  8
TEXT
100
AcDbLine
 10
1.534270935302207
 20
1.030188209773244
 30
0.0
 11
1.61655892508559
 21
1.030188209773244
 31
0.0
  0
LWPOLYLINE
  5
7DE1B343D9D48F5
330
7DE1B343D9D492E
100
AcDbEntity
  8
TEXT
100
AcDbPolyline
 90
        4
 70
     1
 43
0.0
 10
1.629489966368489
 20
0.9682308228876564
 10
1.540829647708631
 20
0.9682308228876564
 42
0.9999999999999998
 10
1.540829647708631
 20
0.9258322823837957
 10
1.629489966368489
 20
0.9258322823837957
 42
1.0
  0
LWPOLYLINE
  5
7DE1B343D9D48FB
330
7DE1B343D9D492E
100
AcDbEntity
  8
TEXT
100
AcDbPolyline
 90
        2
 70
     0
 43
0.0
 10
1.515595013807005
 20
0.8652668449036312
 10
1.649612431438382
 20
0.8652668449036312
 42
0.9999999999999998
  0
LINE
  5
7DE1B343D9D48FF
330
7DE1B343D9D492E
100
AcDbEntity
  8
TEXT
100
AcDbLine
 10
1.775949453424021
 20
1.067463183235376
 30
0.0
 11
1.852597434716579
 21
1.067463183235376
 31
0.0
  0
LINE
  5
7DE1B343D9D4900
330
7DE1B343D9D492E
100
AcDbEntity
  8
TEXT
100
AcDbLine
 10
1.852597434716579
 20
1.067463183235376
 30
0.0
 11
1.852597434716584
 21
0.8652668449036312
 31
0.0
  0
ARC
  5
7DE1B343D9D4901
330
7DE1B343D9D492E
100
AcDbEntity
  8
TEXT
100
AcDbCircle
 10
1.77594945342402
 20
1.042557307952713
 30
0.0
 40
0.0249058752826653
100
AcDbArc
 50
89.99971217465335
 51
179.9999999999985
  0
LINE
  5
7DE1B343D9D4902
330
7DE1B343D9D492E
100
AcDbEntity
  8
TEXT
100
AcDbLine
 10
1.751043578141362
 20
0.8652668449036312
 30
0.0
 11
1.751043578141357
 21
1.042557350335099
 31
0.0
  0
LWPOLYLINE
  5
7DE1B343D9D4903
330
7DE1B343D9D492E
100
AcDbEntity
  8
TEXT
100
AcDbPolyline
 90
        2
 70
     0
 43
0.0
 10
1.692688364306026
 20
0.8652668449036312
 10
1.75104357814136
 20
0.8652668449036312
  0
LWPOLYLINE
  5
7DE1B343D9D4907
330
7DE1B343D9D492E
100
AcDbEntity
  8
TEXT
100
AcDbPolyline
 90
        2
 70
     0
 43
0.0
 10
1.692688364306026
 20
0.9087577898540693
 10
1.692688364306026
 20
0.8652668449036312
  0
LINE
  5
7DE1B343D9D490B
330
7DE1B343D9D492E
100
AcDbEntity
  8
TEXT
100
AcDbLine
 10
2.069457524622875
 20
0.8652668449036312
 30
0.0
 11
1.973965301259265
 21
1.021846634951168
 31
0.0
  0
LINE
  5
7DE1B343D9D490C
330
7DE1B343D9D492E
100
AcDbEntity
  8
TEXT
100
AcDbLine
 10
1.992879152246669
 20
0.8652668449036312
 30
0.0
 11
2.069457524622875
 21
0.8652668449036312
 31
0.0
  0
LINE
  5
7DE1B343D9D490D
330
7DE1B343D9D492E
100
AcDbEntity
  8
TEXT
100
AcDbLine
 10
1.916975619035205
 20
0.9968464133798114
 30
0.0
 11
1.992879152246669
 21
0.8652668449036312
 31
0.0
  0
LINE
  5
7DE1B343D9D490E
330
7DE1B343D9D492E
100
AcDbEntity
  8
TEXT
100
AcDbLine
 10
1.916975619035205
 20
0.8652668449036312
 30
0.0
 11
1.916975619035205
 21
0.9968464133798114
 31
0.0
  0
LINE
  5
7DE1B343D9D490F
330
7DE1B343D9D492E
100
AcDbEntity
  8
TEXT
100
AcDbLine
 10
1.916432425939358
 20
1.197204083659742
 30
0.0
 11
1.848117547390084
 21
1.197204083659742
 31
0.0
  0
ARC
  5
7DE1B343D9D4910
330
7DE1B343D9D492E
100
AcDbEntity
  8
TEXT
100
AcDbCircle
 10
1.607761808348878
 20
1.090156310771239
 30
0.0
 40
0.0416329381542859
100
AcDbArc
 50
26.56974201007528
 51
87.20939649401342
  0
LINE
  5
7DE1B343D9D4911
330
7DE1B343D9D492E
100
AcDbEntity
  8
TEXT
100
AcDbLine
 10
1.75264559330049
 20
1.131739877892142
 30
0.0
 11
1.688748687000989
 21
1.131739877892142
 31
0.0
  0
LINE
  5
7DE1B343D9D4912
330
7DE1B343D9D492E
100
AcDbEntity
  8
TEXT
100
AcDbLine
 10
1.75264559330049
 20
1.104192228031267
 30
0.0
 11
1.75264559330049
 21
1.131739877892142
 31
0.0
  0
ARC
  5
7DE1B343D9D4913
330
7DE1B343D9D492E
100
AcDbEntity
  8
TEXT
100
AcDbCircle
 10
1.783838410363597
 20
1.100494150609877
 30
0.0
 40
0.0314112657011332
100
AcDbArc
 50
95.88484768694724
 51
173.2388340632136
  0
LINE
  5
7DE1B343D9D4914
330
7DE1B343D9D492E
100
AcDbEntity
  8
TEXT
100
AcDbLine
 10
1.848117547390079
 20
1.131739877892142
 30
0.0
 11
1.780617829740562
 21
1.131739877892142
 31
0.0
  0
LINE
  5
7DE1B343D9D4915
330
7DE1B343D9D492E
100
AcDbEntity
  8
TEXT
100
AcDbLine
 10
1.848117547390084
 20
1.197204083659742
 30
0.0
 11
1.848117547390079
 21
1.131739877892142
 31
0.0
  0
LINE
  5
7DE1B343D9D4916
330
7DE1B343D9D492E
100
AcDbEntity
  8
TEXT
100
AcDbLine
 10
2.03852241722497
 20
1.131739877892142
 30
0.0
 11
1.963530584495344
 21
1.131739877892142
 31
0.0
  0
ENDSEC
  0
SECTION
  2
OBJECTS
  0
DICTIONARY
  5
7DE1B343D9D4922
330
0
100
AcDbDictionary
  3
ACAD_GROUP
350
7DE1B343D9D4923
  3
ACAD_LAYOUT
350
7DE1B343D9D4948
  3
ACAD_MLINESTYLE
350
7DE1B343D9D4924
  3
ACAD_PLOTSETTINGS
350
7DE1B343D9D4949
  3
ACAD_PLOTSTYLENAME
350
7DE1B343D9D4946
  3
ACDBHEADERROUNDTRIPXREC
350
7DE1B343D9D4953
  3
ACDBVARIABLEDICTIONARY
350
7DE1B343D9D4950
  0
DICTIONARY
  5
7DE1B343D9D4975
330
7DE1B343D9D492E
100
AcDbDictionary
280
     1
  3
ACAD_LAYOUTSELFREF
360
7DE1B343D9D4976
  0
DICTIONARY
  5
7DE1B343D9D4973
330
7DE1B343D9D492B
100
AcDbDictionary
280
     1
  3
ACAD_LAYOUTSELFREF
360
7DE1B343D9D4974
  0
DICTIONARY
  5
7DE1B343D9D4923
102
{ACAD_REACTORS
330
7DE1B343D9D4922
102
}
330
7DE1B343D9D4922
100
AcDbDictionary
  0
DICTIONARY
  5
7DE1B343D9D4948
102
{ACAD_REACTORS
330
7DE1B343D9D4922
102
}
330
7DE1B343D9D4922
100
AcDbDictionary
  0
DICTIONARY
  5
7DE1B343D9D4924
102
{ACAD_REACTORS
330
7DE1B343D9D4922
102
}
330
7DE1B343D9D4922
100
AcDbDictionary
  3
STANDARD
350
7DE1B343D9D4931
  0
DICTIONARY
  5
7DE1B343D9D4949
102
{ACAD_REACTORS
330
7DE1B343D9D4922
102
}
330
7DE1B343D9D4922
100
AcDbDictionary
  0
ACDBDICTIONARYWDFLT
  5
7DE1B343D9D4946
102
{ACAD_REACTORS
330
7DE1B343D9D4922
102
}
330
7DE1B343D9D4922
100
AcDbDictionary
281
     1
  3
Normal
350
7DE1B343D9D4947
100
AcDbDictionaryWithDefault
340
7DE1B343D9D4947
  0
DICTIONARY
  5
7DE1B343D9D4953
102
{ACAD_REACTORS
330
7DE1B343D9D4922
102
}
330
7DE1B343D9D4922
100
AcDbDictionary
  3
CEPSNTYPE
350
7DE1B343D9D495D
  3
FINGERPRINTGUID
350
7DE1B343D9D495E
  3
HYPERLINKBASE
350
7DE1B343D9D4956
  3
INSUNITS
350
7DE1B343D9D495C
  3
LAYOUTDICT
350
7DE1B343D9D4958
  3
LWETCUNION
350
7DE1B343D9D495B
  3
PLOTSETDICT
350
7DE1B343D9D4959
  3
PLOTSTYLNAMDICT
350
7DE1B343D9D495A
  3
PSVPSCALE
350
7DE1B343D9D4960
  3
PUCSBASE
350
7DE1B343D9D4963
  3
PUCSORGBACK
350
7DE1B343D9D4969
  3
PUCSORGBOTTOM
350
7DE1B343D9D4965
  3
PUCSORGFRONT
350
7DE1B343D9D4968
  3
PUCSORGLEFT
350
7DE1B343D9D4966
  3
PUCSORGRIGHT
350
7DE1B343D9D4967
  3
PUCSORGTOP
350
7DE1B343D9D4964
  3
PUCSORTHOREF
350
7DE1B343D9D4961
  3
PUCSORTHOVIEW
350
7DE1B343D9D4962
  3
STYLESHEET
350
7DE1B343D9D4957
  3
TSTACKALIGN
350
7DE1B343D9D4954
  3
TSTACKSIZE
350
7DE1B343D9D4955
  3
UCSBASE
350
7DE1B343D9D496C
  3
UCSORGBACK
350
7DE1B343D9D4972
  3
UCSORGBOTTOM
350
7DE1B343D9D496E
  3
UCSORGFRONT
350
7DE1B343D9D4971
  3
UCSORGLEFT
350
7DE1B343D9D496F
  3
UCSORGRIGHT
350
7DE1B343D9D4970
  3
UCSORGTOP
350
7DE1B343D9D496D
  3
UCSORTHOREF
350
7DE1B343D9D496A
  3
UCSORTHOVIEW
350
7DE1B343D9D496B
  3
VERSIONGUID
350
7DE1B343D9D495F
  0
DICTIONARY
  5
7DE1B343D9D4950
102
{ACAD_REACTORS
330
7DE1B343D9D4922
102
}
330
7DE1B343D9D4922
100
AcDbDictionary
  3
DIMASSOC
350
7DE1B343D9D4951
  0
XRECORD
  5
7DE1B343D9D4976
102
{ACAD_REACTORS
330
7DE1B343D9D4975
102
}
330
7DE1B343D9D4975
100
AcDbXrecord
340
7DE1B343D9D492E
  0
XRECORD
  5
7DE1B343D9D4974
102
{ACAD_REACTORS
330
7DE1B343D9D4973
102
}
330
7DE1B343D9D4973
100
AcDbXrecord
340
7DE1B343D9D492B
  0
MLINESTYLE
  5
7DE1B343D9D4931
102
{ACAD_REACTORS
330
7DE1B343D9D4924
102
}
330
7DE1B343D9D4924
100
AcDbMlineStyle
  2
STANDARD
 70
     0
  3

 62
     0
 51
90.0
 52
90.0
 71
     2
 49
0.5
 62
   256
  6
BYLAYER
 49
-0.5
 62
   256
  6
BYLAYER
  0
ACDBPLACEHOLDER
  5
7DE1B343D9D4947
102
{ACAD_REACTORS
330
7DE1B343D9D4946
102
}
330
7DE1B343D9D4946
100
AcDbPlaceHolder
280
     0
  0
XRECORD
  5
7DE1B343D9D495D
102
{ACAD_REACTORS
330
7DE1B343D9D4953
102
}
330
7DE1B343D9D4953
100
AcDbXrecord
 90
        0
  0
XRECORD
  5
7DE1B343D9D495E
102
{ACAD_REACTORS
330
7DE1B343D9D4953
102
}
330
7DE1B343D9D4953
100
AcDbXrecord
  1
{B9A55B00-8DB4-11D6-88E6-0090279574E7}
  0
XRECORD
  5
7DE1B343D9D4956
102
{ACAD_REACTORS
330
7DE1B343D9D4953
102
}
330
7DE1B343D9D4953
100
AcDbXrecord
  1

  0
XRECORD
  5
7DE1B343D9D495C
102
{ACAD_REACTORS
330
7DE1B343D9D4953
102
}
330
7DE1B343D9D4953
100
AcDbXrecord
 90
        0
  0
XRECORD
  5
7DE1B343D9D4958
102
{ACAD_REACTORS
330
7DE1B343D9D4953
102
}
330
7DE1B343D9D4953
100
AcDbXrecord
340
7DE1B343D9D4948
  0
XRECORD
  5
7DE1B343D9D495B
102
{ACAD_REACTORS
330
7DE1B343D9D4953
102
}
330
7DE1B343D9D4953
100
AcDbXrecord
 90
    14877
  0
XRECORD
  5
7DE1B343D9D4959
102
{ACAD_REACTORS
330
7DE1B343D9D4953
102
}
330
7DE1B343D9D4953
100
AcDbXrecord
340
7DE1B343D9D4949
  0
XRECORD
  5
7DE1B343D9D495A
102
{ACAD_REACTORS
330
7DE1B343D9D4953
102
}
330
7DE1B343D9D4953
100
AcDbXrecord
340
7DE1B343D9D4946
  0
XRECORD
  5
7DE1B343D9D4960
102
{ACAD_REACTORS
330
7DE1B343D9D4953
102
}
330
7DE1B343D9D4953
100
AcDbXrecord
 40
0.0
  0
XRECORD
  5
7DE1B343D9D4963
102
{ACAD_REACTORS
330
7DE1B343D9D4953
102
}
330
7DE1B343D9D4953
100
AcDbXrecord
340
0
  0
XRECORD
  5
7DE1B343D9D4969
102
{ACAD_REACTORS
330
7DE1B343D9D4953
102
}
330
7DE1B343D9D4953
100
AcDbXrecord
 10
0.0
 20
0.0
 30
0.0
  0
XRECORD
  5
7DE1B343D9D4965
102
{ACAD_REACTORS
330
7DE1B343D9D4953
102
}
330
7DE1B343D9D4953
100
AcDbXrecord
 10
0.0
 20
0.0
 30
0.0
  0
XRECORD
  5
7DE1B343D9D4968
102
{ACAD_REACTORS
330
7DE1B343D9D4953
102
}
330
7DE1B343D9D4953
100
AcDbXrecord
 10
0.0
 20
0.0
 30
0.0
  0
XRECORD
  5
7DE1B343D9D4966
102
{ACAD_REACTORS
330
7DE1B343D9D4953
102
}
330
7DE1B343D9D4953
100
AcDbXrecord
 10
0.0
 20
0.0
 30
0.0
  0
XRECORD
  5
7DE1B343D9D4967
102
{ACAD_REACTORS
330
7DE1B343D9D4953
102
}
330
7DE1B343D9D4953
100
AcDbXrecord
 10
0.0
 20
0.0
 30
0.0
  0
XRECORD
  5
7DE1B343D9D4964
102
{ACAD_REACTORS
330
7DE1B343D9D4953
102
}
330
7DE1B343D9D4953
100
AcDbXrecord
 10
0.0
 20
0.0
 30
0.0
  0
XRECORD
  5
7DE1B343D9D4961
102
{ACAD_REACTORS
330
7DE1B343D9D4953
102
}
330
7DE1B343D9D4953
100
AcDbXrecord
340
0
  0
XRECORD
  5
7DE1B343D9D4962
102
{ACAD_REACTORS
330
7DE1B343D9D4953
102
}
330
7DE1B343D9D4953
100
AcDbXrecord
 70
     0
  0
XRECORD
  5
7DE1B343D9D4957
102
{ACAD_REACTORS
330
7DE1B343D9D4953
102
}
330
7DE1B343D9D4953
100
AcDbXrecord
  1

  0
XRECORD
  5
7DE1B343D9D4954
102
{ACAD_REACTORS
330
7DE1B343D9D4953
102
}
330
7DE1B343D9D4953
100
AcDbXrecord
 90
        1
  0
XRECORD
  5
7DE1B343D9D4955
102
{ACAD_REACTORS
330
7DE1B343D9D4953
102
}
330
7DE1B343D9D4953
100
AcDbXrecord
 90
       70
  0
XRECORD
  5
7DE1B343D9D496C
102
{ACAD_REACTORS
330
7DE1B343D9D4953
102
}
330
7DE1B343D9D4953
100
AcDbXrecord
340
0
  0
XRECORD
  5
7DE1B343D9D4972
102
{ACAD_REACTORS
330
7DE1B343D9D4953
102
}
330
7DE1B343D9D4953
100
AcDbXrecord
 10
0.0
 20
0.0
 30
0.0
  0
XRECORD
  5
7DE1B343D9D496E
102
{ACAD_REACTORS
330
7DE1B343D9D4953
102
}
330
7DE1B343D9D4953
100
AcDbXrecord
 10
0.0
 20
0.0
 30
0.0
  0
XRECORD
  5
7DE1B343D9D4971
102
{ACAD_REACTORS
330
7DE1B343D9D4953
102
}
330
7DE1B343D9D4953
100
AcDbXrecord
 10
0.0
 20
0.0
 30
0.0
  0
XRECORD
  5
7DE1B343D9D496F
102
{ACAD_REACTORS
330
7DE1B343D9D4953
102
}
330
7DE1B343D9D4953
100
AcDbXrecord
 10
0.0
 20
0.0
 30
0.0
  0
XRECORD
  5
7DE1B343D9D4970
102
{ACAD_REACTORS
330
7DE1B343D9D4953
102
}
330
7DE1B343D9D4953
100
AcDbXrecord
 10
0.0
 20
0.0
 30
0.0
  0
XRECORD
  5
7DE1B343D9D496D
102
{ACAD_REACTORS
330
7DE1B343D9D4953
102
}
330
7DE1B343D9D4953
100
AcDbXrecord
 10
0.0
 20
0.0
 30
0.0
  0
XRECORD
  5
7DE1B343D9D496A
102
{ACAD_REACTORS
330
7DE1B343D9D4953
102
}
330
7DE1B343D9D4953
100
AcDbXrecord
340
0
  0
XRECORD
  5
7DE1B343D9D496B
102
{ACAD_REACTORS
330
7DE1B343D9D4953
102
}
330
7DE1B343D9D4953
100
AcDbXrecord
 70
     0
  0
XRECORD
  5
7DE1B343D9D495F
102
{ACAD_REACTORS
330
7DE1B343D9D4953
102
}
330
7DE1B343D9D4953
100
AcDbXrecord
  1
{B9A55B02-8DB4-11D6-88E6-0090279574E7}
  0
DICTIONARYVAR
  5
7DE1B343D9D4951
102
{ACAD_REACTORS
330
7DE1B343D9D4950
102
}
330
7DE1B343D9D4950
100
DictionaryVariables
280
     0
  1
1
  0
ENDSEC
  0
EOF
