  0
SECTION
  2
HEADER
  9
$ACADVER
  1
AC1014
  9
$ACADMAINTVER
 70
     9
  9
$DWGCODEPAGE
  3
ANSI_1252
  9
$INSBASE
 10
1.826219518488392
 20
1.800613988064491
 30
0.0
  9
$EXTMIN
 10
0.0614002828681983
 20
0.4420530996822643
 30
0.0
  9
$EXTMAX
 10
3.546619604615325
 20
2.430370332037501
 30
0.0
  9
$LIMMIN
 10
0.0
 20
0.0
  9
$LIMMAX
 10
18.0
 20
12.0
  9
$ORTHOMODE
 70
     1
  9
$REGENMODE
 70
     1
  9
$FILLMODE
 70
     1
  9
$QTEXTMODE
 70
     0
  9
$MIRRTEXT
 70
     0
  9
$DRAGMODE
 70
     2
  9
$LTSCALE
 40
1.0
  9
$OSMODE
 70
    39
  9
$ATTMODE
 70
     1
  9
$TEXTSIZE
 40
0.125
  9
$TRACEWID
 40
0.05
  9
$TEXTSTYLE
  7
ROMANS
  9
$CLAYER
  8
0
  9
$CELTYPE
  6
BYLAYER
  9
$CECOLOR
 62
   256
  9
$CELTSCALE
 40
1.0
  9
$DELOBJ
 70
     1
  9
$DISPSILH
 70
     1
  9
$DIMSCALE
 40
1.0
  9
$DIMASZ
 40
0.125
  9
$DIMEXO
 40
0.125
  9
$DIMDLI
 40
0.375
  9
$DIMRND
 40
0.0
  9
$DIMDLE
 40
0.0
  9
$DIMEXE
 40
0.125
  9
$DIMTP
 40
0.0
  9
$DIMTM
 40
0.0
  9
$DIMTXT
 40
0.125
  9
$DIMCEN
 40
-0.125
  9
$DIMTSZ
 40
0.0
  9
$DIMTOL
 70
     0
  9
$DIMLIM
 70
     0
  9
$DIMTIH
 70
     1
  9
$DIMTOH
 70
     1
  9
$DIMSE1
 70
     0
  9
$DIMSE2
 70
     0
  9
$DIMTAD
 70
     0
  9
$DIMZIN
 70
     4
  9
$DIMBLK
  1

  9
$DIMASO
 70
     1
  9
$DIMSHO
 70
     1
  9
$DIMPOST
  1

  9
$DIMAPOST
  1

  9
$DIMALT
 70
     0
  9
$DIMALTD
 70
     2
  9
$DIMALTF
 40
25.4
  9
$DIMLFAC
 40
1.0
  9
$DIMTOFL
 70
     0
  9
$DIMTVP
 40
0.0
  9
$DIMTIX
 70
     1
  9
$DIMSOXD
 70
     0
  9
$DIMSAH
 70
     0
  9
$DIMBLK1
  1

  9
$DIMBLK2
  1

  9
$DIMSTYLE
  2
STANDARD
  9
$DIMCLRD
 70
     0
  9
$DIMCLRE
 70
     0
  9
$DIMCLRT
 70
     0
  9
$DIMTFAC
 40
1.0
  9
$DIMGAP
 40
0.09
  9
$DIMJUST
 70
     0
  9
$DIMSD1
 70
     0
  9
$DIMSD2
 70
     0
  9
$DIMTOLJ
 70
     1
  9
$DIMTZIN
 70
     4
  9
$DIMALTZ
 70
     0
  9
$DIMALTTZ
 70
     0
  9
$DIMFIT
 70
     3
  9
$DIMUPT
 70
     0
  9
$DIMUNIT
 70
     2
  9
$DIMDEC
 70
     3
  9
$DIMTDEC
 70
     3
  9
$DIMALTU
 70
     2
  9
$DIMALTTD
 70
     2
  9
$DIMTXSTY
  7
ROMANS
  9
$DIMAUNIT
 70
     0
  9
$LUNITS
 70
     2
  9
$LUPREC
 70
     3
  9
$SKETCHINC
 40
0.1
  9
$FILLETRAD
 40
0.03125
  9
$AUNITS
 70
     0
  9
$AUPREC
 70
     0
  9
$MENU
  1
ACAD
  9
$ELEVATION
 40
0.0
  9
$PELEVATION
 40
0.0
  9
$THICKNESS
 40
0.0
  9
$LIMCHECK
 70
     0
  9
$BLIPMODE
 70
     0
  9
$CHAMFERA
 40
0.0
  9
$CHAMFERB
 40
0.0
  9
$CHAMFERC
 40
0.0
  9
$CHAMFERD
 40
0.0
  9
$SKPOLY
 70
     0
  9
$TDCREATE
 40
2448994.368201041
  9
$TDUPDATE
 40
2452458.299034016
  9
$TDINDWG
 40
0.0006532292
  9
$TDUSRTIMER
 40
0.0006532292
  9
$USRTIMER
 70
     1
  9
$ANGBASE
 50
0.0
  9
$ANGDIR
 70
     0
  9
$PDMODE
 70
     0
  9
$PDSIZE
 40
0.0
  9
$PLINEWID
 40
0.0
  9
$COORDS
 70
     2
  9
$SPLFRAME
 70
     0
  9
$SPLINETYPE
 70
     6
  9
$SPLINESEGS
 70
     8
  9
$ATTDIA
 70
     0
  9
$ATTREQ
 70
     1
  9
$HANDLING
 70
 22529
  9
$HANDSEED
  5
7DE1B343D9D46B0
  9
$SURFTAB1
 70
     6
  9
$SURFTAB2
 70
     6
  9
$SURFTYPE
 70
     6
  9
$SURFU
 70
     6
  9
$SURFV
 70
     6
  9
$UCSNAME
  2

  9
$UCSORG
 10
0.0
 20
0.0
 30
0.0
  9
$UCSXDIR
 10
1.0
 20
0.0
 30
0.0
  9
$UCSYDIR
 10
0.0
 20
1.0
 30
0.0
  9
$PUCSNAME
  2

  9
$PUCSORG
 10
0.0
 20
0.0
 30
0.0
  9
$PUCSXDIR
 10
1.0
 20
0.0
 30
0.0
  9
$PUCSYDIR
 10
0.0
 20
1.0
 30
0.0
  9
$USERI1
 70
     0
  9
$USERI2
 70
     0
  9
$USERI3
 70
     0
  9
$USERI4
 70
     0
  9
$USERI5
 70
     0
  9
$USERR1
 40
0.0
  9
$USERR2
 40
0.0
  9
$USERR3
 40
0.0
  9
$USERR4
 40
0.0
  9
$USERR5
 40
0.0
  9
$WORLDVIEW
 70
     1
  9
$SHADEDGE
 70
     3
  9
$SHADEDIF
 70
    70
  9
$TILEMODE
 70
     1
  9
$MAXACTVP
 70
    16
  9
$PINSBASE
 10
0.4174012081722588
 20
50.00000000000001
 30
1.021341470242574
  9
$PLIMCHECK
 70
     0
  9
$PEXTMIN
 10
1.000000000000000E+20
 20
1.000000000000000E+20
 30
1.000000000000000E+20
  9
$PEXTMAX
 10
-1.000000000000000E+20
 20
-1.000000000000000E+20
 30
-1.000000000000000E+20
  9
$PLIMMIN
 10
0.0
 20
0.0
  9
$PLIMMAX
 10
12.0
 20
9.0
  9
$UNITMODE
 70
     0
  9
$VISRETAIN
 70
     0
  9
$PLINEGEN
 70
     1
  9
$PSLTSCALE
 70
     0
  9
$TREEDEPTH
 70
  3020
  9
$PICKSTYLE
 70
     1
  9
$CMLSTYLE
  2
STANDARD
  9
$CMLJUST
 70
     0
  9
$CMLSCALE
 40
1.0
  9
$PROXYGRAPHICS
 70
     1
  9
$MEASUREMENT
 70
     0
  0
ENDSEC
  0
SECTION
  2
CLASSES
  0
CLASS
  1
LWPOLYLINE
  2
AcDbPolyline
  3
AutoCAD 2000
 90
        0
280
     0
281
     1
  0
CLASS
  1
ACDBDICTIONARYWDFLT
  2
AcDbDictionaryWithDefault
  3
AutoCAD 2000
 90
        0
280
     0
281
     0
  0
CLASS
  1
ACDBPLACEHOLDER
  2
AcDbPlaceHolder
  3
AutoCAD 2000
 90
        0
280
     0
281
     0
  0
CLASS
  1
LAYOUT
  2
AcDbLayout
  3
AutoCAD 2000
 90
        0
280
     0
281
     0
  0
CLASS
  1
DICTIONARYVAR
  2
AcDbDictionaryVar
  3
AutoCAD 2000
 90
        0
280
     0
281
     0
  0
CLASS
  1
LONG_TRANSACTION
  2
AcDbLongTransaction
  3
AutoCAD 2000
 90
        0
280
     0
281
     0
  0
CLASS
  1
LWPOLYLINE
  2
AcDbPolyline
  3
AutoCAD 2000
 90
        0
280
     0
281
     1
  0
CLASS
  1
HATCH
  2
AcDbHatch
  3
AutoCAD 2000
 90
        0
280
     0
281
     1
  0
CLASS
  1
XRECORD
  2
AcDbXrecord
  3
AutoCAD 2000
 90
        0
280
     0
281
     0
  0
ENDSEC
  0
SECTION
  2
TABLES
  0
TABLE
  2
VPORT
  5
7DE1B343D9D4657
330
0
100
AcDbSymbolTable
 70
     2
  0
VPORT
  5
7DE1B343D9D468B
330
7DE1B343D9D4657
100
AcDbSymbolTableRecord
100
AcDbViewportTableRecord
  2
*ACTIVE
 70
     0
 10
0.0
 20
0.0
 11
1.0
 21
1.0
 12
4.779119153233466
 22
1.436553977705251
 13
0.0
 23
0.0
 14
0.015625
 24
0.015625
 15
0.0
 25
0.0
 16
0.0
 26
0.0
 36
1.0
 17
0.0
 27
0.0
 37
0.0
 40
2.281748181188984
 41
4.320930232558139
 42
50.0
 43
0.0
 44
0.0
 50
0.0
 51
0.0
 71
     0
 72
  2000
 73
     1
 74
     0
 75
     0
 76
     0
 77
     0
 78
     0
  0
ENDTAB
  0
TABLE
  2
LTYPE
  5
7DE1B343D9D4654
330
0
100
AcDbSymbolTable
 70
     1
  0
LTYPE
  5
7DE1B343D9D4661
330
7DE1B343D9D4654
100
AcDbSymbolTableRecord
100
AcDbLinetypeTableRecord
  2
BYBLOCK
 70
     0
  3

 72
    65
 73
     0
 40
0.0
  0
LTYPE
  5
7DE1B343D9D4662
330
7DE1B343D9D4654
100
AcDbSymbolTableRecord
100
AcDbLinetypeTableRecord
  2
BYLAYER
 70
     0
  3

 72
    65
 73
     0
 40
0.0
  0
LTYPE
  5
7DE1B343D9D4663
330
7DE1B343D9D4654
100
AcDbSymbolTableRecord
100
AcDbLinetypeTableRecord
  2
CONTINUOUS
 70
     0
  3
Solid line
 72
    65
 73
     0
 40
0.0
  0
ENDTAB
  0
TABLE
  2
LAYER
  5
7DE1B343D9D4651
330
0
100
AcDbSymbolTable
 70
     2
  0
LAYER
  5
7DE1B343D9D465E
330
7DE1B343D9D4651
100
AcDbSymbolTableRecord
100
AcDbLayerTableRecord
  2
0
 70
     0
 62
     7
  6
CONTINUOUS
  0
LAYER
  5
7DE1B343D9D466E
330
7DE1B343D9D4651
100
AcDbSymbolTableRecord
100
AcDbLayerTableRecord
  2
TEXT
 70
     0
 62
     3
  6
CONTINUOUS
  0
ENDTAB
  0
TABLE
  2
STYLE
  5
7DE1B343D9D4652
330
0
100
AcDbSymbolTable
 70
     3
  0
STYLE
  5
7DE1B343D9D465F
330
7DE1B343D9D4652
100
AcDbSymbolTableRecord
100
AcDbTextStyleTableRecord
  2
STANDARD
 70
     0
 40
0.0
 41
1.0
 50
0.0
 71
     0
 42
0.3125
  3
txt
  4

  0
STYLE
  5
7DE1B343D9D466B
330
7DE1B343D9D4652
100
AcDbSymbolTableRecord
100
AcDbTextStyleTableRecord
  2
ITALICC
 70
     0
 40
0.0
 41
1.0
 50
0.0
 71
     0
 42
0.125
  3
italicc
  4

  0
STYLE
  5
7DE1B343D9D467B
330
7DE1B343D9D4652
100
AcDbSymbolTableRecord
100
AcDbTextStyleTableRecord
  2
ROMANS
 70
     0
 40
0.0
 41
1.0
 50
0.0
 71
     0
 42
0.125
  3
romans.shx
  4

  0
ENDTAB
  0
TABLE
  2
VIEW
  5
7DE1B343D9D4655
330
0
100
AcDbSymbolTable
 70
     0
  0
ENDTAB
  0
TABLE
  2
UCS
  5
7DE1B343D9D4656
330
0
100
AcDbSymbolTable
 70
     0
  0
ENDTAB
  0
TABLE
  2
APPID
  5
7DE1B343D9D4658
330
0
100
AcDbSymbolTable
 70
     1
  0
APPID
  5
7DE1B343D9D4660
330
7DE1B343D9D4658
100
AcDbSymbolTableRecord
100
AcDbRegAppTableRecord
  2
ACAD
 70
     0
  0
ENDTAB
  0
TABLE
  2
DIMSTYLE
  5
7DE1B343D9D4659
330
0
100
AcDbSymbolTable
 70
     1
  0
DIMSTYLE
105
7DE1B343D9D4673
330
7DE1B343D9D4659
100
AcDbSymbolTableRecord
100
AcDbDimStyleTableRecord
  2
STANDARD
 70
     0
  3

  4

  5

  6

  7

 40
1.0
 41
0.125
 42
0.125
 43
0.375
 44
0.125
 45
0.0
 46
0.0
 47
0.0
 48
0.0
140
0.125
141
-0.125
142
0.0
143
25.4
144
1.0
145
0.0
146
1.0
147
0.09
 71
     0
 72
     0
 73
     1
 74
     1
 75
     0
 76
     0
 77
     0
 78
     4
170
     0
171
     2
172
     0
173
     0
174
     1
175
     0
176
     0
177
     0
178
     0
270
     2
271
     3
272
     3
273
     2
274
     2
340
7DE1B343D9D467B
275
     0
280
     0
281
     0
282
     0
283
     1
284
     4
285
     0
286
     0
287
     3
288
     0
  0
ENDTAB
  0
TABLE
  2
BLOCK_RECORD
  5
7DE1B343D9D4650
330
0
100
AcDbSymbolTable
 70
     0
  0
BLOCK_RECORD
  5
7DE1B343D9D4667
102
{ACAD_XDICTIONARY
360
7DE1B343D9D46AE
102
}
330
7DE1B343D9D4650
100
AcDbSymbolTableRecord
100
AcDbBlockTableRecord
  2
*MODEL_SPACE
  0
BLOCK_RECORD
  5
7DE1B343D9D4664
102
{ACAD_XDICTIONARY
360
7DE1B343D9D46AC
102
}
330
7DE1B343D9D4650
100
AcDbSymbolTableRecord
100
AcDbBlockTableRecord
  2
*PAPER_SPACE
  0
ENDTAB
  0
ENDSEC
  0
SECTION
  2
BLOCKS
  0
BLOCK
  5
7DE1B343D9D4671
330
7DE1B343D9D4667
100
AcDbEntity
  8
0
100
AcDbBlockBegin
  2
*MODEL_SPACE
 70
     0
 10
0.0
 20
0.0
 30
0.0
  3
*MODEL_SPACE
  1

  0
ENDBLK
  5
7DE1B343D9D4672
330
7DE1B343D9D4667
100
AcDbEntity
  8
0
100
AcDbBlockEnd
  0
BLOCK
  5
7DE1B343D9D466F
330
7DE1B343D9D4664
100
AcDbEntity
 67
     1
  8
0
100
AcDbBlockBegin
  2
*PAPER_SPACE
 70
     0
 10
0.0
 20
0.0
 30
0.0
  3
*PAPER_SPACE
  1

  0
ENDBLK
  5
7DE1B343D9D4670
330
7DE1B343D9D4664
100
AcDbEntity
 67
     1
  8
0
100
AcDbBlockEnd
  0
ENDSEC
  0
SECTION
  2
ENTITIES
  0
LWPOLYLINE
  5
7DE1B343D9D30E3
330
7DE1B343D9D4667
100
AcDbEntity
  8
0
100
AcDbPolyline
 90
        7
 70
     1
 43
0.0
 10
1.851381862095344
 20
2.430370332037499
 42
-0.0160000000000002
 10
1.851381862095341
 20
1.180370332037499
 10
1.757381862095341
 20
1.180370332037499
 10
1.757381862095341
 20
1.795370332037499
 10
1.767381862095341
 20
1.805370332037499
 10
1.757381862095341
 20
1.815370332037499
 10
1.757381862095341
 20
2.430370332037499
  0
TEXT
  5
7DE1B343D9D4512
330
7DE1B343D9D4667
100
AcDbEntity
  8
TEXT
100
AcDbText
 10
1.063310433523912
 20
0.9000717037648458
 30
0.0
 40
0.125
  1
PART #110171
  7
ITALICC
 72
     1
 11
1.804381862095341
 21
0.9000717037648458
 31
0.0
100
AcDbText
  0
TEXT
  5
7DE1B343D9D4513
330
7DE1B343D9D4667
100
AcDbEntity
  8
TEXT
100
AcDbText
 10
2.217687020345662
 20
0.4531490610924707
 30
0.0
 40
0.0522247191011236
  1
Phone  1-800-328-2495
 41
1.272321428571429
 72
     5
 11
3.546619604615325
 21
0.4531490610924707
 31
0.0
100
AcDbText
  0
TEXT
  5
7DE1B343D9D4514
330
7DE1B343D9D4667
100
AcDbEntity
  8
TEXT
100
AcDbText
 10
2.217687020345662
 20
0.7329243419913471
 30
0.0
 40
0.0522247191011236
  1
Stylmark  Incorporated
 41
1.221428571428573
 72
     5
 11
3.546619604615325
 21
0.7329243419913471
 31
0.0
100
AcDbText
  0
TEXT
  5
7DE1B343D9D4515
330
7DE1B343D9D4667
100
AcDbEntity
  8
TEXT
100
AcDbText
 10
2.217687020345662
 20
0.639665915025055
 30
0.0
 40
0.0522247191011236
  1
6536 Main St. N.E. * P.O. Box 32008
 41
0.8388932496075366
 72
     5
 11
3.546619604615325
 21
0.639665915025055
 31
0.0
100
AcDbText
  0
TEXT
  5
7DE1B343D9D4516
330
7DE1B343D9D4667
100
AcDbEntity
  8
TEXT
100
AcDbText
 10
2.217687020345662
 20
0.5464074880587628
 30
0.0
 40
0.0522247191011236
  1
Minneapolis, MN 55432-0008
 41
1.11444212721585
 72
     5
 11
3.546619604615325
 21
0.5464074880587628
 31
0.0
100
AcDbText
  0
LWPOLYLINE
  5
7DE1B343D9D4517
330
7DE1B343D9D4667
100
AcDbEntity
  8
TEXT
100
AcDbPolyline
 90
        3
 70
     0
 43
0.0006660908203125
 10
0.0617333282783546
 20
0.5667938237299055
 10
0.0617333282783546
 20
0.4535583842767779
 10
0.1749687677314768
 20
0.4535583842767779
  0
LWPOLYLINE
  5
7DE1B343D9D451C
330
7DE1B343D9D4667
100
AcDbEntity
  8
TEXT
100
AcDbPolyline
 90
        3
 70
     0
 43
0.0006660908203125
 10
0.088376961090852
 20
0.5667938237299055
 10
0.088376961090852
 20
0.4802020170892789
 10
0.1749687677314768
 20
0.4802020170892789
  0
LWPOLYLINE
  5
7DE1B343D9D4521
330
7DE1B343D9D4667
100
AcDbEntity
  8
TEXT
100
AcDbPolyline
 90
        2
 70
     0
 43
0.0001332181640625
 10
0.1350033185127288
 20
0.5767851860345907
 10
0.0617333282783546
 20
0.5667938237299055
  0
LWPOLYLINE
  5
7DE1B343D9D4525
330
7DE1B343D9D4667
100
AcDbEntity
  8
TEXT
100
AcDbPolyline
 90
        2
 70
     0
 43
0.0001332181640625
 10
0.088376961090852
 20
0.5667938237299055
 10
0.1483251349189794
 20
0.5767851860345907
  0
LWPOLYLINE
  5
7DE1B343D9D4529
330
7DE1B343D9D4667
100
AcDbEntity
  8
TEXT
100
AcDbPolyline
 90
        2
 70
     0
 43
0.0001332181640625
 10
0.088376961090852
 20
0.4802020170892789
 10
0.1483251349189794
 20
0.5401501909174045
  0
LWPOLYLINE
  5
7DE1B343D9D452D
330
7DE1B343D9D4667
100
AcDbEntity
  8
TEXT
100
AcDbPolyline
 90
        3
 70
     0
 43
0.0006660908203125
 10
0.1749687677314768
 20
0.7199947124017811
 10
0.0617333282783546
 20
0.7199947124017811
 10
0.0617333282783546
 20
0.6067592729486535
  0
LWPOLYLINE
  5
7DE1B343D9D4532
330
7DE1B343D9D4667
100
AcDbEntity
  8
TEXT
100
AcDbPolyline
 90
        3
 70
     0
 43
0.0006660908203125
 10
0.1749687677314768
 20
0.6933510795892801
 10
0.088376961090852
 20
0.6933510795892801
 10
0.088376961090852
 20
0.6067592729486535
  0
LWPOLYLINE
  5
7DE1B343D9D4537
330
7DE1B343D9D4667
100
AcDbEntity
  8
TEXT
100
AcDbPolyline
 90
        2
 70
     0
 43
0.0001332181640625
 10
0.088376961090852
 20
0.6933510795892801
 10
0.1483251349189776
 20
0.6334029057611545
  0
LWPOLYLINE
  5
7DE1B343D9D453B
330
7DE1B343D9D4667
100
AcDbEntity
  8
TEXT
100
AcDbPolyline
 90
        2
 70
     0
 43
0.0001332181640625
 10
0.088376961090852
 20
0.6067592729486535
 10
0.1483251349189776
 20
0.5967679106439647
  0
LWPOLYLINE
  5
7DE1B343D9D453F
330
7DE1B343D9D4667
100
AcDbEntity
  8
TEXT
100
AcDbPolyline
 90
        2
 70
     0
 43
0.0001332181640625
 10
0.0617333282783546
 20
0.6067592729486535
 10
0.1350033185127288
 20
0.5967679106439647
  0
LWPOLYLINE
  5
7DE1B343D9D4543
330
7DE1B343D9D4667
100
AcDbEntity
  8
TEXT
100
AcDbPolyline
 90
        2
 70
     0
 43
0.0006660908203125
 10
0.088376961090852
 20
0.5667938237299055
 10
0.0617333282783546
 20
0.5667938237299055
  0
LWPOLYLINE
  5
7DE1B343D9D4547
330
7DE1B343D9D4667
100
AcDbEntity
  8
TEXT
100
AcDbPolyline
 90
        2
 70
     0
 43
0.0006660908203125
 10
0.088376961090852
 20
0.6067592729486535
 10
0.0617333282783546
 20
0.6067592729486535
  0
LINE
  5
7DE1B343D9D454B
330
7DE1B343D9D4667
100
AcDbEntity
  8
TEXT
100
AcDbLine
 10
1.576923757404852
 20
0.6557180177450121
 30
0.0
 11
1.469717484017562
 21
0.6557180177450121
 31
0.0
  0
LINE
  5
7DE1B343D9D454C
330
7DE1B343D9D4667
100
AcDbEntity
  8
TEXT
100
AcDbLine
 10
1.60595465574933
 20
0.7199947124017776
 30
0.0
 11
1.471122746532271
 21
0.7199947124017776
 31
0.0
  0
ARC
  5
7DE1B343D9D454D
330
7DE1B343D9D4667
100
AcDbEntity
  8
TEXT
100
AcDbCircle
 10
1.530436842925588
 20
0.5507574631387613
 30
0.0
 40
0.0676855811441166
100
AcDbArc
 50
90.0
 51
153.7768192527749
  0
LWPOLYLINE
  5
7DE1B343D9D454E
330
7DE1B343D9D4667
100
AcDbEntity
  8
TEXT
100
AcDbPolyline
 90
        2
 70
     0
 43
0.0
 10
1.468684988562752
 20
0.4970126243637047
 42
0.2901071551932823
 10
1.511760921430388
 20
0.4535216794132666
 42
5.328517124445801
  0
ARC
  5
7DE1B343D9D4552
330
7DE1B343D9D4667
100
AcDbEntity
  8
TEXT
100
AcDbCircle
 10
0.8253054652541024
 20
0.5133140707513164
 30
0.0
 40
0.0601160179737537
100
AcDbArc
 50
180.0000000000003
 51
264.0521544866073
  0
LINE
  5
7DE1B343D9D4553
330
7DE1B343D9D4667
100
AcDbEntity
  8
TEXT
100
AcDbLine
 10
0.8288208208796504
 20
0.7543826299959158
 30
0.0
 11
0.7687782160356434
 21
0.7543826299959158
 31
0.0
  0
ARC
  5
7DE1B343D9D4554
330
7DE1B343D9D4667
100
AcDbEntity
  8
TEXT
100
AcDbCircle
 10
0.593046463137132
 20
0.6379072529552758
 30
0.0
 40
0.0820874594465043
100
AcDbArc
 50
90.0
 51
270.0
  0
LWPOLYLINE
  5
7DE1B343D9D4555
330
7DE1B343D9D4667
100
AcDbEntity
  8
TEXT
100
AcDbPolyline
 90
        2
 70
     0
 43
0.0001332181640625
 10
0.1849601300361674
 20
0.6467247221674015
 10
0.1749687677314768
 20
0.7199947124017811
  0
LWPOLYLINE
  5
7DE1B343D9D4559
330
7DE1B343D9D4667
100
AcDbEntity
  8
TEXT
100
AcDbPolyline
 90
        2
 70
     0
 43
0.0001332181640625
 10
0.1749687677314768
 20
0.6933510795892801
 10
0.1849601300361674
 20
0.6334029057611545
  0
LWPOLYLINE
  5
7DE1B343D9D455D
330
7DE1B343D9D4667
100
AcDbEntity
  8
TEXT
100
AcDbPolyline
 90
        3
 70
     0
 43
0.0006660908203125
 10
0.3281696564033543
 20
0.6067592729486535
 10
0.3281696564033543
 20
0.7199947124017811
 10
0.2149342169502284
 20
0.7199947124017811
  0
LWPOLYLINE
  5
7DE1B343D9D4562
330
7DE1B343D9D4667
100
AcDbEntity
  8
TEXT
100
AcDbPolyline
 90
        3
 70
     0
 43
0.0006660908203125
 10
0.3015260235908532
 20
0.6067592729486535
 10
0.3015260235908532
 20
0.6933510795892801
 10
0.2149342169502284
 20
0.6933510795892801
  0
LWPOLYLINE
  5
7DE1B343D9D4567
330
7DE1B343D9D4667
100
AcDbEntity
  8
TEXT
100
AcDbPolyline
 90
        2
 70
     0
 43
0.0001332181640625
 10
0.3015260235908532
 20
0.6933510795892801
 10
0.2415778497627294
 20
0.6334029057611545
  0
LWPOLYLINE
  5
7DE1B343D9D456B
330
7DE1B343D9D4667
100
AcDbEntity
  8
TEXT
100
AcDbPolyline
 90
        2
 70
     0
 43
0.0001332181640625
 10
0.2149342169502284
 20
0.6933510795892801
 10
0.2049428546455396
 20
0.6334029057611545
  0
LWPOLYLINE
  5
7DE1B343D9D456F
330
7DE1B343D9D4667
100
AcDbEntity
  8
TEXT
100
AcDbPolyline
 90
        2
 70
     0
 43
0.0001332181640625
 10
0.2149342169502284
 20
0.7199947124017811
 10
0.2049428546455396
 20
0.6467247221674015
  0
LWPOLYLINE
  5
7DE1B343D9D4573
330
7DE1B343D9D4667
100
AcDbEntity
  8
TEXT
100
AcDbPolyline
 90
        2
 70
     0
 43
0.0001332181640625
 10
0.2548996661689782
 20
0.5967679106439647
 10
0.3281696564033543
 20
0.6067592729486535
  0
LWPOLYLINE
  5
7DE1B343D9D4577
330
7DE1B343D9D4667
100
AcDbEntity
  8
TEXT
100
AcDbPolyline
 90
        2
 70
     0
 43
0.0001332181640625
 10
0.3015260235908532
 20
0.6067592729486535
 10
0.2415778497627294
 20
0.5967679106439647
  0
LWPOLYLINE
  5
7DE1B343D9D457B
330
7DE1B343D9D4667
100
AcDbEntity
  8
TEXT
100
AcDbPolyline
 90
        2
 70
     0
 43
0.0001332181640625
 10
0.3281696564033543
 20
0.5667938237299055
 10
0.2548996661689782
 20
0.5767851860345907
  0
LWPOLYLINE
  5
7DE1B343D9D457F
330
7DE1B343D9D4667
100
AcDbEntity
  8
TEXT
100
AcDbPolyline
 90
        2
 70
     0
 43
0.0001332181640625
 10
0.3015260235908532
 20
0.5667938237299055
 10
0.2415778497627294
 20
0.5767851860345907
  0
LWPOLYLINE
  5
7DE1B343D9D4583
330
7DE1B343D9D4667
100
AcDbEntity
  8
TEXT
100
AcDbPolyline
 90
        2
 70
     0
 43
0.0001332181640625
 10
0.3015260235908532
 20
0.4802020170892789
 10
0.2415778497627294
 20
0.5401501909174045
  0
LWPOLYLINE
  5
7DE1B343D9D4587
330
7DE1B343D9D4667
100
AcDbEntity
  8
TEXT
100
AcDbPolyline
 90
        3
 70
     0
 43
0.0006660908203125
 10
0.2149342169502284
 20
0.4802020170892789
 10
0.3015260235908532
 20
0.4802020170892789
 10
0.3015260235908532
 20
0.5667938237299055
  0
LWPOLYLINE
  5
7DE1B343D9D458C
330
7DE1B343D9D4667
100
AcDbEntity
  8
TEXT
100
AcDbPolyline
 90
        3
 70
     0
 43
0.0006660908203125
 10
0.2149342169502284
 20
0.4535583842767779
 10
0.3281696564033543
 20
0.4535583842767779
 10
0.3281696564033543
 20
0.5667938237299055
  0
LWPOLYLINE
  5
7DE1B343D9D4591
330
7DE1B343D9D4667
100
AcDbEntity
  8
TEXT
100
AcDbPolyline
 90
        5
 70
     0
 43
0.0001332181640625
 10
0.1849601300361674
 20
0.5268283745111539
 10
0.1849601300361674
 20
0.5401501909174045
 10
0.1483251349189794
 20
0.5401501909174045
 10
0.1483251349189794
 20
0.5767851860345907
 10
0.1350033185127288
 20
0.5767851860345907
  0
LWPOLYLINE
  5
7DE1B343D9D4598
330
7DE1B343D9D4667
100
AcDbEntity
  8
TEXT
100
AcDbPolyline
 90
        2
 70
     0
 43
0.0006660908203125
 10
0.1749687677314768
 20
0.4802020170892789
 10
0.1749687677314768
 20
0.4535583842767779
  0
LWPOLYLINE
  5
7DE1B343D9D459C
330
7DE1B343D9D4667
100
AcDbEntity
  8
TEXT
100
AcDbPolyline
 90
        2
 70
     0
 43
0.0001332181640625
 10
0.1749687677314768
 20
0.4802020170892789
 10
0.1849601300361674
 20
0.5401501909174045
  0
LWPOLYLINE
  5
7DE1B343D9D45A0
330
7DE1B343D9D4667
100
AcDbEntity
  8
TEXT
100
AcDbPolyline
 90
        2
 70
     0
 43
0.0001332181640625
 10
0.1749687677314768
 20
0.4535583842767779
 10
0.1849601300361674
 20
0.5268283745111539
  0
LWPOLYLINE
  5
7DE1B343D9D45A4
330
7DE1B343D9D4667
100
AcDbEntity
  8
TEXT
100
AcDbPolyline
 90
        5
 70
     0
 43
0.0001332181640625
 10
0.1350033185127288
 20
0.5967679106439647
 10
0.1483251349189776
 20
0.5967679106439647
 10
0.1483251349189776
 20
0.6334029057611545
 10
0.1849601300361674
 20
0.6334029057611545
 10
0.1849601300361674
 20
0.6467247221674015
  0
LWPOLYLINE
  5
7DE1B343D9D45AB
330
7DE1B343D9D4667
100
AcDbEntity
  8
TEXT
100
AcDbPolyline
 90
        5
 70
     0
 43
0.0001332181640625
 10
0.2049428546455396
 20
0.6467247221674015
 10
0.2049428546455396
 20
0.6334029057611545
 10
0.2415778497627294
 20
0.6334029057611545
 10
0.2415778497627294
 20
0.5967679106439647
 10
0.2548996661689782
 20
0.5967679106439647
  0
LWPOLYLINE
  5
7DE1B343D9D45B2
330
7DE1B343D9D4667
100
AcDbEntity
  8
TEXT
100
AcDbPolyline
 90
        2
 70
     0
 43
0.0001332181640625
 10
0.2149342169502284
 20
0.4802020170892789
 10
0.2049428546455396
 20
0.5401501909174045
  0
LWPOLYLINE
  5
7DE1B343D9D45B6
330
7DE1B343D9D4667
100
AcDbEntity
  8
TEXT
100
AcDbPolyline
 90
        2
 70
     0
 43
0.0001332181640625
 10
0.2049428546455396
 20
0.5268283745111539
 10
0.2149342169502284
 20
0.4535583842767779
  0
LWPOLYLINE
  5
7DE1B343D9D45BA
330
7DE1B343D9D4667
100
AcDbEntity
  8
TEXT
100
AcDbPolyline
 90
        2
 70
     0
 43
0.0006660908203125
 10
0.2149342169502284
 20
0.4802020170892789
 10
0.2149342169502284
 20
0.4535583842767779
  0
LWPOLYLINE
  5
7DE1B343D9D45BE
330
7DE1B343D9D4667
100
AcDbEntity
  8
TEXT
100
AcDbPolyline
 90
        5
 70
     0
 43
0.0001332181640625
 10
0.2548996661689782
 20
0.5767851860345907
 10
0.2415778497627294
 20
0.5767851860345907
 10
0.2415778497627294
 20
0.5401501909174045
 10
0.2049428546455396
 20
0.5401501909174045
 10
0.2049428546455396
 20
0.5268283745111539
  0
LWPOLYLINE
  5
7DE1B343D9D45C5
330
7DE1B343D9D4667
100
AcDbEntity
  8
TEXT
100
AcDbPolyline
 90
        2
 70
     0
 43
0.0006660908203125
 10
0.3015260235908532
 20
0.6067592729486535
 10
0.3281696564033543
 20
0.6067592729486535
  0
LWPOLYLINE
  5
7DE1B343D9D45C9
330
7DE1B343D9D4667
100
AcDbEntity
  8
TEXT
100
AcDbPolyline
 90
        2
 70
     0
 43
0.0006660908203125
 10
0.3015260235908532
 20
0.5667938237299055
 10
0.3281696564033543
 20
0.5667938237299055
  0
LINE
  5
7DE1B343D9D45CD
330
7DE1B343D9D4667
100
AcDbEntity
  8
TEXT
100
AcDbLine
 10
0.5982837932513792
 20
0.6557180177450121
 30
0.0
 11
0.7651894472803505
 21
0.6557180177450121
 31
0.0
  0
LINE
  5
7DE1B343D9D45CE
330
7DE1B343D9D4667
100
AcDbEntity
  8
TEXT
100
AcDbLine
 10
0.6638839294956802
 20
0.6199132961343843
 30
0.0
 11
0.5982837932513792
 21
0.6199132961343843
 31
0.0
  0
LINE
  5
7DE1B343D9D45CF
330
7DE1B343D9D4667
100
AcDbEntity
  8
TEXT
100
AcDbLine
 10
0.5109590036906276
 20
0.4535216794132666
 30
0.0
 11
0.6638839294956802
 21
0.4535216794132666
 31
0.0
  0
LINE
  5
7DE1B343D9D45D0
330
7DE1B343D9D4667
100
AcDbEntity
  8
TEXT
100
AcDbLine
 10
0.6688243034019599
 20
0.5218786857467059
 30
0.0
 11
0.5109590036906258
 21
0.5218786857467059
 31
0.0
  0
LINE
  5
7DE1B343D9D45D1
330
7DE1B343D9D4667
100
AcDbEntity
  8
TEXT
100
AcDbLine
 10
0.5930464631371311
 20
0.5558197935087705
 30
0.0
 11
0.6688243034019599
 21
0.5558197935087705
 31
0.0
  0
ARC
  5
7DE1B343D9D45D2
330
7DE1B343D9D4667
100
AcDbEntity
  8
TEXT
100
AcDbCircle
 10
0.5982837932513801
 20
0.6378156569397
 30
0.0
 40
0.017902360805315
100
AcDbArc
 50
90.0
 51
270.0
  0
LINE
  5
7DE1B343D9D45D3
330
7DE1B343D9D4667
100
AcDbEntity
  8
TEXT
100
AcDbLine
 10
0.5109590036906258
 20
0.5218786857467059
 30
0.0
 11
0.5109590036906276
 21
0.4535216794132666
 31
0.0
  0
LINE
  5
7DE1B343D9D45D4
330
7DE1B343D9D4667
100
AcDbEntity
  8
TEXT
100
AcDbLine
 10
0.7651894472803505
 20
0.6557180177450121
 30
0.0
 11
0.7651894472803505
 21
0.5133140707513164
 31
0.0
  0
ARC
  5
7DE1B343D9D45D5
330
7DE1B343D9D4667
100
AcDbEntity
  8
TEXT
100
AcDbCircle
 10
0.6638839294956811
 20
0.5367174877738237
 30
0.0
 40
0.0831958083605586
100
AcDbArc
 50
270.0
 51
90.0
  0
ARC
  5
7DE1B343D9D45D6
330
7DE1B343D9D4667
100
AcDbEntity
  8
TEXT
100
AcDbCircle
 10
0.6688243034019608
 20
0.53884923962774
 30
0.0
 40
0.0169705538810321
100
AcDbArc
 50
270.0
 51
90.0
  0
LWPOLYLINE
  5
7DE1B343D9D45D7
330
7DE1B343D9D4667
100
AcDbEntity
  8
TEXT
100
AcDbPolyline
 90
        2
 70
     0
 43
0.0006660908203125
 10
0.1749687677314768
 20
0.6933510795892801
 10
0.1749687677314768
 20
0.7199947124017811
  0
LWPOLYLINE
  5
7DE1B343D9D45DB
330
7DE1B343D9D4667
100
AcDbEntity
  8
TEXT
100
AcDbPolyline
 90
        2
 70
     0
 43
0.0006660908203125
 10
0.2149342169502284
 20
0.6933510795892801
 10
0.2149342169502284
 20
0.7199947124017811
  0
LINE
  5
7DE1B343D9D45DF
330
7DE1B343D9D4667
100
AcDbEntity
  8
TEXT
100
AcDbLine
 10
0.7687782160356434
 20
0.7199947124017776
 30
0.0
 11
0.5930464631371311
 21
0.7199947124017776
 31
0.0
  0
LINE
  5
7DE1B343D9D45E0
330
7DE1B343D9D4667
100
AcDbEntity
  8
TEXT
100
AcDbLine
 10
0.7687782160356434
 20
0.7543826299959158
 30
0.0
 11
0.7687782160356434
 21
0.7199947124017776
 31
0.0
  0
LINE
  5
7DE1B343D9D45E1
330
7DE1B343D9D4667
100
AcDbEntity
  8
TEXT
100
AcDbLine
 10
0.9592501080554956
 20
0.619122716288657
 30
0.0
 11
0.9006197870235578
 21
0.7199947124017776
 31
0.0
  0
LINE
  5
7DE1B343D9D45E2
330
7DE1B343D9D4667
100
AcDbEntity
  8
TEXT
100
AcDbLine
 10
1.017998670861361
 20
0.7199947124017776
 30
0.0
 11
0.9592501080554956
 21
0.619122716288657
 31
0.0
  0
LINE
  5
7DE1B343D9D45E3
330
7DE1B343D9D4667
100
AcDbEntity
  8
TEXT
100
AcDbLine
 10
1.114929296221102
 20
0.5359095175162658
 30
0.0
 11
1.114929296221102
 21
0.7880061901405881
 31
0.0
  0
LINE
  5
7DE1B343D9D45E4
330
7DE1B343D9D4667
100
AcDbEntity
  8
TEXT
100
AcDbLine
 10
1.147241150358762
 20
0.7199947124017776
 30
0.0
 11
1.147241150358762
 21
0.5191305056693694
 31
0.0
  0
LINE
  5
7DE1B343D9D45E5
330
7DE1B343D9D4667
100
AcDbEntity
  8
TEXT
100
AcDbLine
 10
1.147241150358762
 20
0.5191305056693694
 30
0.0
 11
1.130247513474161
 21
0.5191305056693694
 31
0.0
  0
LINE
  5
7DE1B343D9D45E6
330
7DE1B343D9D4667
100
AcDbEntity
  8
TEXT
100
AcDbLine
 10
1.116068869717297
 20
0.4535216794132666
 30
0.0
 11
1.214072203416731
 21
0.4535216794132666
 31
0.0
  0
LINE
  5
7DE1B343D9D45E7
330
7DE1B343D9D4667
100
AcDbEntity
  8
TEXT
100
AcDbLine
 10
0.9496498710585413
 20
0.4734801855182795
 30
0.0
 11
1.046949577151985
 21
0.6378303964535477
 31
0.0
  0
ARC
  5
7DE1B343D9D45E8
330
7DE1B343D9D4667
100
AcDbEntity
  8
TEXT
100
AcDbCircle
 10
0.9156063111463272
 20
0.4930694016869623
 30
0.0
 40
0.0392772371940762
100
AcDbArc
 50
270.1604552698595
 51
330.0831797321295
  0
LINE
  5
7DE1B343D9D45E9
330
7DE1B343D9D4667
100
AcDbEntity
  8
TEXT
100
AcDbLine
 10
0.8190760547604561
 20
0.4535216794132666
 30
0.0
 11
0.9157163058354505
 21
0.4537923185115489
 31
0.0
  0
LWPOLYLINE
  5
7DE1B343D9D45EA
330
7DE1B343D9D4667
100
AcDbEntity
  8
TEXT
100
AcDbPolyline
 90
        6
 70
     1
 43
0.0
 10
0.8615998583356056
 20
0.6557180177450121
 10
0.8312832641153974
 20
0.6557180177450121
 10
0.8312832641153974
 20
0.5326070196901178
 42
0.407328721240804
 10
0.8428269152768738
 20
0.5207881050137317
 10
0.9034486143216046
 20
0.5207881050137317
 10
0.9209139547289225
 20
0.5536003340572109
  0
LINE
  5
7DE1B343D9D45F2
330
7DE1B343D9D4667
100
AcDbEntity
  8
TEXT
100
AcDbLine
 10
1.046949577151985
 20
0.6378303964535477
 30
0.0
 11
1.046949577151985
 21
0.5050730216281913
 31
0.0
  0
ARC
  5
7DE1B343D9D45F3
330
7DE1B343D9D4667
100
AcDbEntity
  8
TEXT
100
AcDbCircle
 10
1.130247513474159
 20
0.5345123119127948
 30
0.0
 40
0.0153818062434269
100
AcDbArc
 50
174.7883570302258
 51
270.0
  0
LWPOLYLINE
  5
7DE1B343D9D45F4
330
7DE1B343D9D4667
100
AcDbEntity
  8
TEXT
100
AcDbPolyline
 90
        2
 70
     0
 43
0.0
 10
1.046949577151984
 20
0.5050730216281949
 42
0.3318488747599744
 10
1.116068869717297
 20
0.4535216794132666
 42
-6.868794160588311
  0
LINE
  5
7DE1B343D9D45F8
330
7DE1B343D9D4667
100
AcDbEntity
  8
TEXT
100
AcDbLine
 10
1.271461272405992
 20
0.4535216794132666
 30
0.0
 11
1.338519319187832
 21
0.4535216794132666
 31
0.0
  0
LINE
  5
7DE1B343D9D45F9
330
7DE1B343D9D4667
100
AcDbEntity
  8
TEXT
100
AcDbLine
 10
1.271461272405992
 20
0.6481642285789022
 30
0.0
 11
1.271461272405992
 21
0.4535216794132666
 31
0.0
  0
LINE
  5
7DE1B343D9D45FA
330
7DE1B343D9D4667
100
AcDbEntity
  8
TEXT
100
AcDbLine
 10
1.214072203416731
 20
0.6557180177450121
 30
0.0
 11
1.263907483239879
 21
0.6557180177450121
 31
0.0
  0
LINE
  5
7DE1B343D9D45FB
330
7DE1B343D9D4667
100
AcDbEntity
  8
TEXT
100
AcDbLine
 10
1.214072203416731
 20
0.4535216794132666
 30
0.0
 11
1.214072203416731
 21
0.6557180177450121
 31
0.0
  0
LWPOLYLINE
  5
7DE1B343D9D45FC
330
7DE1B343D9D4667
100
AcDbEntity
  8
TEXT
100
AcDbPolyline
 90
        2
 70
     0
 43
0.0
 10
1.263907483239877
 20
0.6557180177450121
 42
-0.4142135623731017
 10
1.271461272405991
 20
0.6481642285789022
 42
-0.9999999999999998
  0
LINE
  5
7DE1B343D9D4600
330
7DE1B343D9D4667
100
AcDbEntity
  8
TEXT
100
AcDbLine
 10
1.469717484017562
 20
0.6557180177450121
 30
0.0
 11
1.469717484017562
 21
0.5806656116708055
 31
0.0
  0
LINE
  5
7DE1B343D9D4601
330
7DE1B343D9D4667
100
AcDbEntity
  8
TEXT
100
AcDbLine
 10
1.338519319187832
 20
0.6557180177450121
 30
0.0
 11
1.392652916108783
 21
0.6557180177450121
 31
0.0
  0
LINE
  5
7DE1B343D9D4602
330
7DE1B343D9D4667
100
AcDbEntity
  8
TEXT
100
AcDbLine
 10
1.338519319187832
 20
0.4535216794132666
 30
0.0
 11
1.338519319187832
 21
0.6557180177450121
 31
0.0
  0
LWPOLYLINE
  5
7DE1B343D9D4603
330
7DE1B343D9D4667
100
AcDbEntity
  8
TEXT
100
AcDbPolyline
 90
        2
 70
     0
 43
0.0
 10
1.392652916108781
 20
0.6557180177450121
 42
-0.4142135623731017
 10
1.400206705274894
 20
0.6481642285789022
 42
-0.9999999999999998
  0
LWPOLYLINE
  5
7DE1B343D9D4607
330
7DE1B343D9D4667
100
AcDbEntity
  8
TEXT
100
AcDbPolyline
 90
        4
 70
     0
 43
0.0
 10
1.400206705274894
 20
0.6481642285789022
 10
1.400206705274894
 20
0.4535216794132666
 10
1.468684988562752
 20
0.4535216794132666
 10
1.468684988562752
 20
0.4970126243637047
 42
-1.714843617202739
  0
LINE
  5
7DE1B343D9D460D
330
7DE1B343D9D4667
100
AcDbEntity
  8
TEXT
100
AcDbLine
 10
0.8288208208796504
 20
0.7199947124017776
 30
0.0
 11
0.8288208208796504
 21
0.7543826299959158
 31
0.0
  0
LINE
  5
7DE1B343D9D460E
330
7DE1B343D9D4667
100
AcDbEntity
  8
TEXT
100
AcDbLine
 10
0.9006197870235578
 20
0.7199947124017776
 30
0.0
 11
0.8288208208796504
 21
0.7199947124017776
 31
0.0
  0
LINE
  5
7DE1B343D9D460F
330
7DE1B343D9D4667
100
AcDbEntity
  8
TEXT
100
AcDbLine
 10
1.048120583654737
 20
0.7199947124017776
 30
0.0
 11
1.017998670861361
 21
0.7199947124017776
 31
0.0
  0
LINE
  5
7DE1B343D9D4610
330
7DE1B343D9D4667
100
AcDbEntity
  8
TEXT
100
AcDbLine
 10
1.048120583654737
 20
0.7880061901405881
 30
0.0
 11
1.048120583654737
 21
0.7199947124017776
 31
0.0
  0
LINE
  5
7DE1B343D9D4611
330
7DE1B343D9D4667
100
AcDbEntity
  8
TEXT
100
AcDbLine
 10
1.114929296221102
 20
0.7880061901405881
 30
0.0
 11
1.048120583654737
 21
0.7880061901405881
 31
0.0
  0
LWPOLYLINE
  5
7DE1B343D9D4612
330
7DE1B343D9D4667
100
AcDbEntity
  8
TEXT
100
AcDbPolyline
 90
        3
 70
     0
 43
0.0
 10
1.435341055819104
 20
0.7199947124017811
 10
1.31704089700306
 20
0.7199947124017811
 10
1.31704089700306
 20
0.6928272156408852
 42
-1.960274751411753
  0
LINE
  5
7DE1B343D9D4617
330
7DE1B343D9D4667
100
AcDbEntity
  8
TEXT
100
AcDbLine
 10
1.281259206289898
 20
0.7199947124017776
 30
0.0
 11
1.147241150358762
 21
0.7199947124017776
 31
0.0
  0
LWPOLYLINE
  5
7DE1B343D9D4618
330
7DE1B343D9D4667
100
AcDbEntity
  8
TEXT
100
AcDbPolyline
 90
        2
 70
     0
 43
0.0
 10
1.281259206289898
 20
0.7199947124017811
 42
-0.3328679258950098
 10
1.31704089700306
 20
0.6928272156408852
 42
6.772930709997214
  0
LINE
  5
7DE1B343D9D461C
330
7DE1B343D9D4667
100
AcDbEntity
  8
TEXT
100
AcDbLine
 10
1.471122746532271
 20
0.7199947124017776
 30
0.0
 11
1.471122746532271
 21
0.6916721666321337
 31
0.0
  0
LWPOLYLINE
  5
7DE1B343D9D461D
330
7DE1B343D9D4667
100
AcDbEntity
  8
TEXT
100
AcDbPolyline
 90
        2
 70
     0
 43
0.0
 10
1.435341055819104
 20
0.7199947124017811
 42
-0.3277054968067132
 10
1.471122746532269
 20
0.6916721666321373
 42
6.667889725900311
  0
LINE
  5
7DE1B343D9D4621
330
7DE1B343D9D4667
100
AcDbEntity
  8
TEXT
100
AcDbLine
 10
1.684914594624371
 20
0.6147827338483502
 30
0.0
 11
1.641163823442469
 21
0.6970330098444954
 31
0.0
  0
LINE
  5
7DE1B343D9D4622
330
7DE1B343D9D4667
100
AcDbEntity
  8
TEXT
100
AcDbLine
 10
1.684914594624371
 20
0.7199947124017776
 30
0.0
 11
1.684914594624371
 21
0.6147827338483502
 31
0.0
  0
LINE
  5
7DE1B343D9D4623
330
7DE1B343D9D4667
100
AcDbEntity
  8
TEXT
100
AcDbLine
 10
1.91259833356274
 20
0.6441293859902395
 30
0.0
 11
1.91259833356274
 21
0.7854589181693783
 31
0.0
  0
LINE
  5
7DE1B343D9D4624
330
7DE1B343D9D4667
100
AcDbEntity
  8
TEXT
100
AcDbLine
 10
1.959696492118725
 20
0.7199947124017776
 30
0.0
 11
1.91259833356274
 21
0.6441293859902395
 31
0.0
  0
LINE
  5
7DE1B343D9D4625
330
7DE1B343D9D4667
100
AcDbEntity
  8
TEXT
100
AcDbLine
 10
1.970131208882648
 20
0.610101469460804
 30
0.0
 11
2.034688324848353
 21
0.7199947124017776
 31
0.0
  0
LINE
  5
7DE1B343D9D4626
330
7DE1B343D9D4667
100
AcDbEntity
  8
TEXT
100
AcDbLine
 10
1.848763342339967
 20
0.4535216794132666
 30
0.0
 11
1.913141526658587
 21
0.4535216794132666
 31
0.0
  0
LWPOLYLINE
  5
7DE1B343D9D4627
330
7DE1B343D9D4667
100
AcDbEntity
  8
TEXT
100
AcDbPolyline
 90
        2
 70
     0
 43
0.0
 10
1.688854271929409
 20
0.4970126243637047
 42
-0.2901071551932486
 10
1.645778339061764
 20
0.4535216794132666
 42
-5.328517124445184
  0
ARC
  5
7DE1B343D9D462B
330
7DE1B343D9D4667
100
AcDbEntity
  8
TEXT
100
AcDbCircle
 10
1.57692375740485
 20
0.6273586427450148
 30
0.0
 40
0.028359375
100
AcDbArc
 50
25.78218179591245
 51
90.0
  0
LINE
  5
7DE1B343D9D462C
330
7DE1B343D9D4667
100
AcDbEntity
  8
TEXT
100
AcDbLine
 10
1.612724832708973
 20
0.6184430442828799
 30
0.0
 11
1.602460072295408
 21
0.6396935838555742
 31
0.0
  0
LINE
  5
7DE1B343D9D462D
330
7DE1B343D9D4667
100
AcDbEntity
  8
TEXT
100
AcDbLine
 10
1.53043684292559
 20
0.6184430442828799
 30
0.0
 11
1.612724832708973
 21
0.6184430442828799
 31
0.0
  0
LWPOLYLINE
  5
7DE1B343D9D462E
330
7DE1B343D9D4667
100
AcDbEntity
  8
TEXT
100
AcDbPolyline
 90
        4
 70
     1
 43
0.0
 10
1.625655873991872
 20
0.5564856573972918
 10
1.536995555332013
 20
0.5564856573972918
 42
0.9999999999999998
 10
1.536995555332013
 20
0.5140871168934311
 10
1.625655873991872
 20
0.5140871168934311
 42
1.0
  0
LWPOLYLINE
  5
7DE1B343D9D4634
330
7DE1B343D9D4667
100
AcDbEntity
  8
TEXT
100
AcDbPolyline
 90
        2
 70
     0
 43
0.0
 10
1.511760921430388
 20
0.4535216794132666
 10
1.645778339061764
 20
0.4535216794132666
 42
0.9999999999999998
  0
LINE
  5
7DE1B343D9D4638
330
7DE1B343D9D4667
100
AcDbEntity
  8
TEXT
100
AcDbLine
 10
1.772115361047404
 20
0.6557180177450121
 30
0.0
 11
1.848763342339962
 21
0.6557180177450121
 31
0.0
  0
LINE
  5
7DE1B343D9D4639
330
7DE1B343D9D4667
100
AcDbEntity
  8
TEXT
100
AcDbLine
 10
1.848763342339962
 20
0.6557180177450121
 30
0.0
 11
1.848763342339967
 21
0.4535216794132666
 31
0.0
  0
ARC
  5
7DE1B343D9D463A
330
7DE1B343D9D4667
100
AcDbEntity
  8
TEXT
100
AcDbCircle
 10
1.772115361047402
 20
0.6308121424623494
 30
0.0
 40
0.0249058752826653
100
AcDbArc
 50
89.99971217465335
 51
179.9999999999985
  0
LINE
  5
7DE1B343D9D463B
330
7DE1B343D9D4667
100
AcDbEntity
  8
TEXT
100
AcDbLine
 10
1.747209485764745
 20
0.4535216794132666
 30
0.0
 11
1.747209485764739
 21
0.630812184844735
 31
0.0
  0
LWPOLYLINE
  5
7DE1B343D9D463C
330
7DE1B343D9D4667
100
AcDbEntity
  8
TEXT
100
AcDbPolyline
 90
        2
 70
     0
 43
0.0
 10
1.688854271929409
 20
0.4535216794132666
 10
1.747209485764743
 20
0.4535216794132666
  0
LWPOLYLINE
  5
7DE1B343D9D4640
330
7DE1B343D9D4667
100
AcDbEntity
  8
TEXT
100
AcDbPolyline
 90
        2
 70
     0
 43
0.0
 10
1.688854271929409
 20
0.4970126243637047
 10
1.688854271929409
 20
0.4535216794132666
  0
LINE
  5
7DE1B343D9D4644
330
7DE1B343D9D4667
100
AcDbEntity
  8
TEXT
100
AcDbLine
 10
2.065623432246258
 20
0.4535216794132666
 30
0.0
 11
1.970131208882648
 21
0.610101469460804
 31
0.0
  0
LINE
  5
7DE1B343D9D4645
330
7DE1B343D9D4667
100
AcDbEntity
  8
TEXT
100
AcDbLine
 10
1.989045059870052
 20
0.4535216794132666
 30
0.0
 11
2.065623432246258
 21
0.4535216794132666
 31
0.0
  0
LINE
  5
7DE1B343D9D4646
330
7DE1B343D9D4667
100
AcDbEntity
  8
TEXT
100
AcDbLine
 10
1.913141526658587
 20
0.5851012478894468
 30
0.0
 11
1.989045059870052
 21
0.4535216794132666
 31
0.0
  0
LINE
  5
7DE1B343D9D4647
330
7DE1B343D9D4667
100
AcDbEntity
  8
TEXT
100
AcDbLine
 10
1.913141526658587
 20
0.4535216794132666
 30
0.0
 11
1.913141526658587
 21
0.5851012478894468
 31
0.0
  0
LINE
  5
7DE1B343D9D4648
330
7DE1B343D9D4667
100
AcDbEntity
  8
TEXT
100
AcDbLine
 10
1.91259833356274
 20
0.7854589181693783
 30
0.0
 11
1.844283455013467
 21
0.7854589181693783
 31
0.0
  0
ARC
  5
7DE1B343D9D4649
330
7DE1B343D9D4667
100
AcDbEntity
  8
TEXT
100
AcDbCircle
 10
1.603927715972261
 20
0.6784111452808752
 30
0.0
 40
0.0416329381542859
100
AcDbArc
 50
26.56974201007528
 51
87.20939649401342
  0
LINE
  5
7DE1B343D9D464A
330
7DE1B343D9D4667
100
AcDbEntity
  8
TEXT
100
AcDbLine
 10
1.748811500923872
 20
0.7199947124017776
 30
0.0
 11
1.684914594624371
 21
0.7199947124017776
 31
0.0
  0
LINE
  5
7DE1B343D9D464B
330
7DE1B343D9D4667
100
AcDbEntity
  8
TEXT
100
AcDbLine
 10
1.748811500923872
 20
0.6924470625409029
 30
0.0
 11
1.748811500923872
 21
0.7199947124017776
 31
0.0
  0
ARC
  5
7DE1B343D9D464C
330
7DE1B343D9D4667
100
AcDbEntity
  8
TEXT
100
AcDbCircle
 10
1.78000431798698
 20
0.6887489851195128
 30
0.0
 40
0.0314112657011332
100
AcDbArc
 50
95.88484768694724
 51
173.2388340632136
  0
LINE
  5
7DE1B343D9D464D
330
7DE1B343D9D4667
100
AcDbEntity
  8
TEXT
100
AcDbLine
 10
1.844283455013462
 20
0.7199947124017776
 30
0.0
 11
1.776783737363945
 21
0.7199947124017776
 31
0.0
  0
LINE
  5
7DE1B343D9D464E
330
7DE1B343D9D4667
100
AcDbEntity
  8
TEXT
100
AcDbLine
 10
1.844283455013467
 20
0.7854589181693783
 30
0.0
 11
1.844283455013462
 21
0.7199947124017776
 31
0.0
  0
LINE
  5
7DE1B343D9D464F
330
7DE1B343D9D4667
100
AcDbEntity
  8
TEXT
100
AcDbLine
 10
2.034688324848353
 20
0.7199947124017776
 30
0.0
 11
1.959696492118726
 21
0.7199947124017776
 31
0.0
  0
ENDSEC
  0
SECTION
  2
OBJECTS
  0
DICTIONARY
  5
7DE1B343D9D465B
330
0
100
AcDbDictionary
  3
ACAD_GROUP
350
7DE1B343D9D465C
  3
ACAD_LAYOUT
350
7DE1B343D9D4681
  3
ACAD_MLINESTYLE
350
7DE1B343D9D465D
  3
ACAD_PLOTSETTINGS
350
7DE1B343D9D4682
  3
ACAD_PLOTSTYLENAME
350
7DE1B343D9D467F
  3
ACDBHEADERROUNDTRIPXREC
350
7DE1B343D9D468C
  3
ACDBVARIABLEDICTIONARY
350
7DE1B343D9D4689
  0
DICTIONARY
  5
7DE1B343D9D46AE
330
7DE1B343D9D4667
100
AcDbDictionary
280
     1
  3
ACAD_LAYOUTSELFREF
360
7DE1B343D9D46AF
  0
DICTIONARY
  5
7DE1B343D9D46AC
330
7DE1B343D9D4664
100
AcDbDictionary
280
     1
  3
ACAD_LAYOUTSELFREF
360
7DE1B343D9D46AD
  0
DICTIONARY
  5
7DE1B343D9D465C
102
{ACAD_REACTORS
330
7DE1B343D9D465B
102
}
330
7DE1B343D9D465B
100
AcDbDictionary
  0
DICTIONARY
  5
7DE1B343D9D4681
102
{ACAD_REACTORS
330
7DE1B343D9D465B
102
}
330
7DE1B343D9D465B
100
AcDbDictionary
  0
DICTIONARY
  5
7DE1B343D9D465D
102
{ACAD_REACTORS
330
7DE1B343D9D465B
102
}
330
7DE1B343D9D465B
100
AcDbDictionary
  3
STANDARD
350
7DE1B343D9D466A
  0
DICTIONARY
  5
7DE1B343D9D4682
102
{ACAD_REACTORS
330
7DE1B343D9D465B
102
}
330
7DE1B343D9D465B
100
AcDbDictionary
  0
ACDBDICTIONARYWDFLT
  5
7DE1B343D9D467F
102
{ACAD_REACTORS
330
7DE1B343D9D465B
102
}
330
7DE1B343D9D465B
100
AcDbDictionary
281
     1
  3
Normal
350
7DE1B343D9D4680
100
AcDbDictionaryWithDefault
340
7DE1B343D9D4680
  0
DICTIONARY
  5
7DE1B343D9D468C
102
{ACAD_REACTORS
330
7DE1B343D9D465B
102
}
330
7DE1B343D9D465B
100
AcDbDictionary
  3
CEPSNTYPE
350
7DE1B343D9D4696
  3
FINGERPRINTGUID
350
7DE1B343D9D4697
  3
HYPERLINKBASE
350
7DE1B343D9D468F
  3
INSUNITS
350
7DE1B343D9D4695
  3
LAYOUTDICT
350
7DE1B343D9D4691
  3
LWETCUNION
350
7DE1B343D9D4694
  3
PLOTSETDICT
350
7DE1B343D9D4692
  3
PLOTSTYLNAMDICT
350
7DE1B343D9D4693
  3
PSVPSCALE
350
7DE1B343D9D4699
  3
PUCSBASE
350
7DE1B343D9D469C
  3
PUCSORGBACK
350
7DE1B343D9D46A2
  3
PUCSORGBOTTOM
350
7DE1B343D9D469E
  3
PUCSORGFRONT
350
7DE1B343D9D46A1
  3
PUCSORGLEFT
350
7DE1B343D9D469F
  3
PUCSORGRIGHT
350
7DE1B343D9D46A0
  3
PUCSORGTOP
350
7DE1B343D9D469D
  3
PUCSORTHOREF
350
7DE1B343D9D469A
  3
PUCSORTHOVIEW
350
7DE1B343D9D469B
  3
STYLESHEET
350
7DE1B343D9D4690
  3
TSTACKALIGN
350
7DE1B343D9D468D
  3
TSTACKSIZE
350
7DE1B343D9D468E
  3
UCSBASE
350
7DE1B343D9D46A5
  3
UCSORGBACK
350
7DE1B343D9D46AB
  3
UCSORGBOTTOM
350
7DE1B343D9D46A7
  3
UCSORGFRONT
350
7DE1B343D9D46AA
  3
UCSORGLEFT
350
7DE1B343D9D46A8
  3
UCSORGRIGHT
350
7DE1B343D9D46A9
  3
UCSORGTOP
350
7DE1B343D9D46A6
  3
UCSORTHOREF
350
7DE1B343D9D46A3
  3
UCSORTHOVIEW
350
7DE1B343D9D46A4
  3
VERSIONGUID
350
7DE1B343D9D4698
  0
DICTIONARY
  5
7DE1B343D9D4689
102
{ACAD_REACTORS
330
7DE1B343D9D465B
102
}
330
7DE1B343D9D465B
100
AcDbDictionary
  3
DIMASSOC
350
7DE1B343D9D468A
  0
XRECORD
  5
7DE1B343D9D46AF
102
{ACAD_REACTORS
330
7DE1B343D9D46AE
102
}
330
7DE1B343D9D46AE
100
AcDbXrecord
340
7DE1B343D9D4667
  0
XRECORD
  5
7DE1B343D9D46AD
102
{ACAD_REACTORS
330
7DE1B343D9D46AC
102
}
330
7DE1B343D9D46AC
100
AcDbXrecord
340
7DE1B343D9D4664
  0
MLINESTYLE
  5
7DE1B343D9D466A
102
{ACAD_REACTORS
330
7DE1B343D9D465D
102
}
330
7DE1B343D9D465D
100
AcDbMlineStyle
  2
STANDARD
 70
     0
  3

 62
     0
 51
90.0
 52
90.0
 71
     2
 49
0.5
 62
   256
  6
BYLAYER
 49
-0.5
 62
   256
  6
BYLAYER
  0
ACDBPLACEHOLDER
  5
7DE1B343D9D4680
102
{ACAD_REACTORS
330
7DE1B343D9D467F
102
}
330
7DE1B343D9D467F
100
AcDbPlaceHolder
280
     0
  0
XRECORD
  5
7DE1B343D9D4696
102
{ACAD_REACTORS
330
7DE1B343D9D468C
102
}
330
7DE1B343D9D468C
100
AcDbXrecord
 90
        0
  0
XRECORD
  5
7DE1B343D9D4697
102
{ACAD_REACTORS
330
7DE1B343D9D468C
102
}
330
7DE1B343D9D468C
100
AcDbXrecord
  1
{B4CC8EC0-8DB4-11D6-88E6-0090279574E7}
  0
XRECORD
  5
7DE1B343D9D468F
102
{ACAD_REACTORS
330
7DE1B343D9D468C
102
}
330
7DE1B343D9D468C
100
AcDbXrecord
  1

  0
XRECORD
  5
7DE1B343D9D4695
102
{ACAD_REACTORS
330
7DE1B343D9D468C
102
}
330
7DE1B343D9D468C
100
AcDbXrecord
 90
        0
  0
XRECORD
  5
7DE1B343D9D4691
102
{ACAD_REACTORS
330
7DE1B343D9D468C
102
}
330
7DE1B343D9D468C
100
AcDbXrecord
340
7DE1B343D9D4681
  0
XRECORD
  5
7DE1B343D9D4694
102
{ACAD_REACTORS
330
7DE1B343D9D468C
102
}
330
7DE1B343D9D468C
100
AcDbXrecord
 90
    14877
  0
XRECORD
  5
7DE1B343D9D4692
102
{ACAD_REACTORS
330
7DE1B343D9D468C
102
}
330
7DE1B343D9D468C
100
AcDbXrecord
340
7DE1B343D9D4682
  0
XRECORD
  5
7DE1B343D9D4693
102
{ACAD_REACTORS
330
7DE1B343D9D468C
102
}
330
7DE1B343D9D468C
100
AcDbXrecord
340
7DE1B343D9D467F
  0
XRECORD
  5
7DE1B343D9D4699
102
{ACAD_REACTORS
330
7DE1B343D9D468C
102
}
330
7DE1B343D9D468C
100
AcDbXrecord
 40
0.0
  0
XRECORD
  5
7DE1B343D9D469C
102
{ACAD_REACTORS
330
7DE1B343D9D468C
102
}
330
7DE1B343D9D468C
100
AcDbXrecord
340
0
  0
XRECORD
  5
7DE1B343D9D46A2
102
{ACAD_REACTORS
330
7DE1B343D9D468C
102
}
330
7DE1B343D9D468C
100
AcDbXrecord
 10
0.0
 20
0.0
 30
0.0
  0
XRECORD
  5
7DE1B343D9D469E
102
{ACAD_REACTORS
330
7DE1B343D9D468C
102
}
330
7DE1B343D9D468C
100
AcDbXrecord
 10
0.0
 20
0.0
 30
0.0
  0
XRECORD
  5
7DE1B343D9D46A1
102
{ACAD_REACTORS
330
7DE1B343D9D468C
102
}
330
7DE1B343D9D468C
100
AcDbXrecord
 10
0.0
 20
0.0
 30
0.0
  0
XRECORD
  5
7DE1B343D9D469F
102
{ACAD_REACTORS
330
7DE1B343D9D468C
102
}
330
7DE1B343D9D468C
100
AcDbXrecord
 10
0.0
 20
0.0
 30
0.0
  0
XRECORD
  5
7DE1B343D9D46A0
102
{ACAD_REACTORS
330
7DE1B343D9D468C
102
}
330
7DE1B343D9D468C
100
AcDbXrecord
 10
0.0
 20
0.0
 30
0.0
  0
XRECORD
  5
7DE1B343D9D469D
102
{ACAD_REACTORS
330
7DE1B343D9D468C
102
}
330
7DE1B343D9D468C
100
AcDbXrecord
 10
0.0
 20
0.0
 30
0.0
  0
XRECORD
  5
7DE1B343D9D469A
102
{ACAD_REACTORS
330
7DE1B343D9D468C
102
}
330
7DE1B343D9D468C
100
AcDbXrecord
340
0
  0
XRECORD
  5
7DE1B343D9D469B
102
{ACAD_REACTORS
330
7DE1B343D9D468C
102
}
330
7DE1B343D9D468C
100
AcDbXrecord
 70
     0
  0
XRECORD
  5
7DE1B343D9D4690
102
{ACAD_REACTORS
330
7DE1B343D9D468C
102
}
330
7DE1B343D9D468C
100
AcDbXrecord
  1

  0
XRECORD
  5
7DE1B343D9D468D
102
{ACAD_REACTORS
330
7DE1B343D9D468C
102
}
330
7DE1B343D9D468C
100
AcDbXrecord
 90
        1
  0
XRECORD
  5
7DE1B343D9D468E
102
{ACAD_REACTORS
330
7DE1B343D9D468C
102
}
330
7DE1B343D9D468C
100
AcDbXrecord
 90
       70
  0
XRECORD
  5
7DE1B343D9D46A5
102
{ACAD_REACTORS
330
7DE1B343D9D468C
102
}
330
7DE1B343D9D468C
100
AcDbXrecord
340
0
  0
XRECORD
  5
7DE1B343D9D46AB
102
{ACAD_REACTORS
330
7DE1B343D9D468C
102
}
330
7DE1B343D9D468C
100
AcDbXrecord
 10
0.0
 20
0.0
 30
0.0
  0
XRECORD
  5
7DE1B343D9D46A7
102
{ACAD_REACTORS
330
7DE1B343D9D468C
102
}
330
7DE1B343D9D468C
100
AcDbXrecord
 10
0.0
 20
0.0
 30
0.0
  0
XRECORD
  5
7DE1B343D9D46AA
102
{ACAD_REACTORS
330
7DE1B343D9D468C
102
}
330
7DE1B343D9D468C
100
AcDbXrecord
 10
0.0
 20
0.0
 30
0.0
  0
XRECORD
  5
7DE1B343D9D46A8
102
{ACAD_REACTORS
330
7DE1B343D9D468C
102
}
330
7DE1B343D9D468C
100
AcDbXrecord
 10
0.0
 20
0.0
 30
0.0
  0
XRECORD
  5
7DE1B343D9D46A9
102
{ACAD_REACTORS
330
7DE1B343D9D468C
102
}
330
7DE1B343D9D468C
100
AcDbXrecord
 10
0.0
 20
0.0
 30
0.0
  0
XRECORD
  5
7DE1B343D9D46A6
102
{ACAD_REACTORS
330
7DE1B343D9D468C
102
}
330
7DE1B343D9D468C
100
AcDbXrecord
 10
0.0
 20
0.0
 30
0.0
  0
XRECORD
  5
7DE1B343D9D46A3
102
{ACAD_REACTORS
330
7DE1B343D9D468C
102
}
330
7DE1B343D9D468C
100
AcDbXrecord
340
0
  0
XRECORD
  5
7DE1B343D9D46A4
102
{ACAD_REACTORS
330
7DE1B343D9D468C
102
}
330
7DE1B343D9D468C
100
AcDbXrecord
 70
     0
  0
XRECORD
  5
7DE1B343D9D4698
102
{ACAD_REACTORS
330
7DE1B343D9D468C
102
}
330
7DE1B343D9D468C
100
AcDbXrecord
  1
{B4CC8EC2-8DB4-11D6-88E6-0090279574E7}
  0
DICTIONARYVAR
  5
7DE1B343D9D468A
102
{ACAD_REACTORS
330
7DE1B343D9D4689
102
}
330
7DE1B343D9D4689
100
DictionaryVariables
280
     0
  1
1
  0
ENDSEC
  0
EOF
