  0
SECTION
  2
HEADER
  9
$ACADVER
  1
AC1014
  9
$ACADMAINTVER
 70
     9
  9
$DWGCODEPAGE
  3
ANSI_1252
  9
$INSBASE
 10
1.435975606856226
 20
1.44719397336952
 30
0.0
  9
$EXTMIN
 10
-0.3665592372332418
 20
-0.1177812580920465
 30
0.0
  9
$EXTMAX
 10
3.118660084513885
 20
2.143898060734549
 30
0.0
  9
$LIMMIN
 10
0.0
 20
0.0
  9
$LIMMAX
 10
18.0
 20
12.0
  9
$ORTHOMODE
 70
     1
  9
$REGENMODE
 70
     1
  9
$FILLMODE
 70
     1
  9
$QTEXTMODE
 70
     0
  9
$MIRRTEXT
 70
     0
  9
$DRAGMODE
 70
     2
  9
$LTSCALE
 40
1.0
  9
$OSMODE
 70
    39
  9
$ATTMODE
 70
     1
  9
$TEXTSIZE
 40
0.125
  9
$TRACEWID
 40
0.05
  9
$TEXTSTYLE
  7
ROMANS
  9
$CLAYER
  8
0
  9
$CELTYPE
  6
BYLAYER
  9
$CECOLOR
 62
   256
  9
$CELTSCALE
 40
1.0
  9
$DELOBJ
 70
     1
  9
$DISPSILH
 70
     1
  9
$DIMSCALE
 40
1.0
  9
$DIMASZ
 40
0.125
  9
$DIMEXO
 40
0.125
  9
$DIMDLI
 40
0.375
  9
$DIMRND
 40
0.0
  9
$DIMDLE
 40
0.0
  9
$DIMEXE
 40
0.125
  9
$DIMTP
 40
0.0
  9
$DIMTM
 40
0.0
  9
$DIMTXT
 40
0.125
  9
$DIMCEN
 40
-0.125
  9
$DIMTSZ
 40
0.0
  9
$DIMTOL
 70
     0
  9
$DIMLIM
 70
     0
  9
$DIMTIH
 70
     1
  9
$DIMTOH
 70
     1
  9
$DIMSE1
 70
     0
  9
$DIMSE2
 70
     0
  9
$DIMTAD
 70
     0
  9
$DIMZIN
 70
     4
  9
$DIMBLK
  1

  9
$DIMASO
 70
     1
  9
$DIMSHO
 70
     1
  9
$DIMPOST
  1

  9
$DIMAPOST
  1

  9
$DIMALT
 70
     0
  9
$DIMALTD
 70
     2
  9
$DIMALTF
 40
25.4
  9
$DIMLFAC
 40
1.0
  9
$DIMTOFL
 70
     0
  9
$DIMTVP
 40
0.0
  9
$DIMTIX
 70
     1
  9
$DIMSOXD
 70
     0
  9
$DIMSAH
 70
     0
  9
$DIMBLK1
  1

  9
$DIMBLK2
  1

  9
$DIMSTYLE
  2
STANDARD
  9
$DIMCLRD
 70
     0
  9
$DIMCLRE
 70
     0
  9
$DIMCLRT
 70
     0
  9
$DIMTFAC
 40
1.0
  9
$DIMGAP
 40
0.09
  9
$DIMJUST
 70
     0
  9
$DIMSD1
 70
     0
  9
$DIMSD2
 70
     0
  9
$DIMTOLJ
 70
     1
  9
$DIMTZIN
 70
     4
  9
$DIMALTZ
 70
     0
  9
$DIMALTTZ
 70
     0
  9
$DIMFIT
 70
     3
  9
$DIMUPT
 70
     0
  9
$DIMUNIT
 70
     2
  9
$DIMDEC
 70
     3
  9
$DIMTDEC
 70
     3
  9
$DIMALTU
 70
     2
  9
$DIMALTTD
 70
     2
  9
$DIMTXSTY
  7
ROMANS
  9
$DIMAUNIT
 70
     0
  9
$LUNITS
 70
     2
  9
$LUPREC
 70
     3
  9
$SKETCHINC
 40
0.1
  9
$FILLETRAD
 40
0.03125
  9
$AUNITS
 70
     0
  9
$AUPREC
 70
     0
  9
$MENU
  1
ACAD
  9
$ELEVATION
 40
0.0
  9
$PELEVATION
 40
0.0
  9
$THICKNESS
 40
0.0
  9
$LIMCHECK
 70
     0
  9
$BLIPMODE
 70
     0
  9
$CHAMFERA
 40
0.0
  9
$CHAMFERB
 40
0.0
  9
$CHAMFERC
 40
0.0
  9
$CHAMFERD
 40
0.0
  9
$SKPOLY
 70
     0
  9
$TDCREATE
 40
2448994.366590046
  9
$TDUPDATE
 40
2452458.298953460
  9
$TDINDWG
 40
0.0005947917
  9
$TDUSRTIMER
 40
0.0005947917
  9
$USRTIMER
 70
     1
  9
$ANGBASE
 50
0.0
  9
$ANGDIR
 70
     0
  9
$PDMODE
 70
     0
  9
$PDSIZE
 40
0.0
  9
$PLINEWID
 40
0.0
  9
$COORDS
 70
     2
  9
$SPLFRAME
 70
     0
  9
$SPLINETYPE
 70
     6
  9
$SPLINESEGS
 70
     8
  9
$ATTDIA
 70
     0
  9
$ATTREQ
 70
     1
  9
$HANDLING
 70
 22529
  9
$HANDSEED
  5
7DE1B343D9D3E3A
  9
$SURFTAB1
 70
     6
  9
$SURFTAB2
 70
     6
  9
$SURFTYPE
 70
     6
  9
$SURFU
 70
     6
  9
$SURFV
 70
     6
  9
$UCSNAME
  2

  9
$UCSORG
 10
0.0
 20
0.0
 30
0.0
  9
$UCSXDIR
 10
1.0
 20
0.0
 30
0.0
  9
$UCSYDIR
 10
0.0
 20
1.0
 30
0.0
  9
$PUCSNAME
  2

  9
$PUCSORG
 10
0.0
 20
0.0
 30
0.0
  9
$PUCSXDIR
 10
1.0
 20
0.0
 30
0.0
  9
$PUCSYDIR
 10
0.0
 20
1.0
 30
0.0
  9
$USERI1
 70
     0
  9
$USERI2
 70
     0
  9
$USERI3
 70
     0
  9
$USERI4
 70
     0
  9
$USERI5
 70
     0
  9
$USERR1
 40
0.0
  9
$USERR2
 40
0.0
  9
$USERR3
 40
0.0
  9
$USERR4
 40
0.0
  9
$USERR5
 40
0.0
  9
$WORLDVIEW
 70
     1
  9
$SHADEDGE
 70
     3
  9
$SHADEDIF
 70
    70
  9
$TILEMODE
 70
     1
  9
$MAXACTVP
 70
    16
  9
$PINSBASE
 10
0.5392701689011896
 20
50.00000000000001
 30
1.7164634115227
  9
$PLIMCHECK
 70
     0
  9
$PEXTMIN
 10
1.000000000000000E+20
 20
1.000000000000000E+20
 30
1.000000000000000E+20
  9
$PEXTMAX
 10
-1.000000000000000E+20
 20
-1.000000000000000E+20
 30
-1.000000000000000E+20
  9
$PLIMMIN
 10
0.0
 20
0.0
  9
$PLIMMAX
 10
12.0
 20
9.0
  9
$UNITMODE
 70
     0
  9
$VISRETAIN
 70
     0
  9
$PLINEGEN
 70
     1
  9
$PSLTSCALE
 70
     0
  9
$TREEDEPTH
 70
  3020
  9
$PICKSTYLE
 70
     1
  9
$CMLSTYLE
  2
STANDARD
  9
$CMLJUST
 70
     0
  9
$CMLSCALE
 40
1.0
  9
$PROXYGRAPHICS
 70
     1
  9
$MEASUREMENT
 70
     0
  0
ENDSEC
  0
SECTION
  2
CLASSES
  0
CLASS
  1
LWPOLYLINE
  2
AcDbPolyline
  3
AutoCAD 2000
 90
        0
280
     0
281
     1
  0
CLASS
  1
ACDBDICTIONARYWDFLT
  2
AcDbDictionaryWithDefault
  3
AutoCAD 2000
 90
        0
280
     0
281
     0
  0
CLASS
  1
ACDBPLACEHOLDER
  2
AcDbPlaceHolder
  3
AutoCAD 2000
 90
        0
280
     0
281
     0
  0
CLASS
  1
LAYOUT
  2
AcDbLayout
  3
AutoCAD 2000
 90
        0
280
     0
281
     0
  0
CLASS
  1
DICTIONARYVAR
  2
AcDbDictionaryVar
  3
AutoCAD 2000
 90
        0
280
     0
281
     0
  0
CLASS
  1
LONG_TRANSACTION
  2
AcDbLongTransaction
  3
AutoCAD 2000
 90
        0
280
     0
281
     0
  0
CLASS
  1
LWPOLYLINE
  2
AcDbPolyline
  3
AutoCAD 2000
 90
        0
280
     0
281
     1
  0
CLASS
  1
HATCH
  2
AcDbHatch
  3
AutoCAD 2000
 90
        0
280
     0
281
     1
  0
CLASS
  1
XRECORD
  2
AcDbXrecord
  3
AutoCAD 2000
 90
        0
280
     0
281
     0
  0
ENDSEC
  0
SECTION
  2
TABLES
  0
TABLE
  2
VPORT
  5
7DE1B343D9D3DE1
330
0
100
AcDbSymbolTable
 70
     2
  0
VPORT
  5
7DE1B343D9D3E15
330
7DE1B343D9D3DE1
100
AcDbSymbolTableRecord
100
AcDbViewportTableRecord
  2
*ACTIVE
 70
     0
 10
0.0
 20
0.0
 11
1.0
 21
1.0
 12
4.706163983234553
 22
1.012991031289407
 13
0.0
 23
0.0
 14
0.015625
 24
0.015625
 15
0.0
 25
0.0
 16
0.0
 26
0.0
 36
1.0
 17
0.0
 27
0.0
 37
0.0
 40
2.553974957050533
 41
4.320930232558139
 42
50.0
 43
0.0
 44
0.0
 50
0.0
 51
0.0
 71
     0
 72
  2000
 73
     1
 74
     0
 75
     0
 76
     0
 77
     0
 78
     0
  0
ENDTAB
  0
TABLE
  2
LTYPE
  5
7DE1B343D9D3DDE
330
0
100
AcDbSymbolTable
 70
     1
  0
LTYPE
  5
7DE1B343D9D3DEB
330
7DE1B343D9D3DDE
100
AcDbSymbolTableRecord
100
AcDbLinetypeTableRecord
  2
BYBLOCK
 70
     0
  3

 72
    65
 73
     0
 40
0.0
  0
LTYPE
  5
7DE1B343D9D3DEC
330
7DE1B343D9D3DDE
100
AcDbSymbolTableRecord
100
AcDbLinetypeTableRecord
  2
BYLAYER
 70
     0
  3

 72
    65
 73
     0
 40
0.0
  0
LTYPE
  5
7DE1B343D9D3DED
330
7DE1B343D9D3DDE
100
AcDbSymbolTableRecord
100
AcDbLinetypeTableRecord
  2
CONTINUOUS
 70
     0
  3
Solid line
 72
    65
 73
     0
 40
0.0
  0
ENDTAB
  0
TABLE
  2
LAYER
  5
7DE1B343D9D3DDB
330
0
100
AcDbSymbolTable
 70
     2
  0
LAYER
  5
7DE1B343D9D3DE8
330
7DE1B343D9D3DDB
100
AcDbSymbolTableRecord
100
AcDbLayerTableRecord
  2
0
 70
     0
 62
     7
  6
CONTINUOUS
  0
LAYER
  5
7DE1B343D9D3DF8
330
7DE1B343D9D3DDB
100
AcDbSymbolTableRecord
100
AcDbLayerTableRecord
  2
TEXT
 70
     0
 62
     3
  6
CONTINUOUS
  0
ENDTAB
  0
TABLE
  2
STYLE
  5
7DE1B343D9D3DDC
330
0
100
AcDbSymbolTable
 70
     3
  0
STYLE
  5
7DE1B343D9D3DE9
330
7DE1B343D9D3DDC
100
AcDbSymbolTableRecord
100
AcDbTextStyleTableRecord
  2
STANDARD
 70
     0
 40
0.0
 41
1.0
 50
0.0
 71
     0
 42
0.3125
  3
txt
  4

  0
STYLE
  5
7DE1B343D9D3DF5
330
7DE1B343D9D3DDC
100
AcDbSymbolTableRecord
100
AcDbTextStyleTableRecord
  2
ITALICC
 70
     0
 40
0.0
 41
1.0
 50
0.0
 71
     0
 42
0.125
  3
italicc
  4

  0
STYLE
  5
7DE1B343D9D3E05
330
7DE1B343D9D3DDC
100
AcDbSymbolTableRecord
100
AcDbTextStyleTableRecord
  2
ROMANS
 70
     0
 40
0.0
 41
1.0
 50
0.0
 71
     0
 42
0.125
  3
romans.shx
  4

  0
ENDTAB
  0
TABLE
  2
VIEW
  5
7DE1B343D9D3DDF
330
0
100
AcDbSymbolTable
 70
     0
  0
ENDTAB
  0
TABLE
  2
UCS
  5
7DE1B343D9D3DE0
330
0
100
AcDbSymbolTable
 70
     0
  0
ENDTAB
  0
TABLE
  2
APPID
  5
7DE1B343D9D3DE2
330
0
100
AcDbSymbolTable
 70
     1
  0
APPID
  5
7DE1B343D9D3DEA
330
7DE1B343D9D3DE2
100
AcDbSymbolTableRecord
100
AcDbRegAppTableRecord
  2
ACAD
 70
     0
  0
ENDTAB
  0
TABLE
  2
DIMSTYLE
  5
7DE1B343D9D3DE3
330
0
100
AcDbSymbolTable
 70
     1
  0
DIMSTYLE
105
7DE1B343D9D3DFD
330
7DE1B343D9D3DE3
100
AcDbSymbolTableRecord
100
AcDbDimStyleTableRecord
  2
STANDARD
 70
     0
  3

  4

  5

  6

  7

 40
1.0
 41
0.125
 42
0.125
 43
0.375
 44
0.125
 45
0.0
 46
0.0
 47
0.0
 48
0.0
140
0.125
141
-0.125
142
0.0
143
25.4
144
1.0
145
0.0
146
1.0
147
0.09
 71
     0
 72
     0
 73
     1
 74
     1
 75
     0
 76
     0
 77
     0
 78
     4
170
     0
171
     2
172
     0
173
     0
174
     1
175
     0
176
     0
177
     0
178
     0
270
     2
271
     3
272
     3
273
     2
274
     2
340
7DE1B343D9D3E05
275
     0
280
     0
281
     0
282
     0
283
     1
284
     4
285
     0
286
     0
287
     3
288
     0
  0
ENDTAB
  0
TABLE
  2
BLOCK_RECORD
  5
7DE1B343D9D3DDA
330
0
100
AcDbSymbolTable
 70
     0
  0
BLOCK_RECORD
  5
7DE1B343D9D3DF1
102
{ACAD_XDICTIONARY
360
7DE1B343D9D3E38
102
}
330
7DE1B343D9D3DDA
100
AcDbSymbolTableRecord
100
AcDbBlockTableRecord
  2
*MODEL_SPACE
  0
BLOCK_RECORD
  5
7DE1B343D9D3DEE
102
{ACAD_XDICTIONARY
360
7DE1B343D9D3E36
102
}
330
7DE1B343D9D3DDA
100
AcDbSymbolTableRecord
100
AcDbBlockTableRecord
  2
*PAPER_SPACE
  0
ENDTAB
  0
ENDSEC
  0
SECTION
  2
BLOCKS
  0
BLOCK
  5
7DE1B343D9D3DFB
330
7DE1B343D9D3DF1
100
AcDbEntity
  8
0
100
AcDbBlockBegin
  2
*MODEL_SPACE
 70
     0
 10
0.0
 20
0.0
 30
0.0
  3
*MODEL_SPACE
  1

  0
ENDBLK
  5
7DE1B343D9D3DFC
330
7DE1B343D9D3DF1
100
AcDbEntity
  8
0
100
AcDbBlockEnd
  0
BLOCK
  5
7DE1B343D9D3DF9
330
7DE1B343D9D3DEE
100
AcDbEntity
 67
     1
  8
0
100
AcDbBlockBegin
  2
*PAPER_SPACE
 70
     0
 10
0.0
 20
0.0
 30
0.0
  3
*PAPER_SPACE
  1

  0
ENDBLK
  5
7DE1B343D9D3DFA
330
7DE1B343D9D3DEE
100
AcDbEntity
 67
     1
  8
0
100
AcDbBlockEnd
  0
ENDSEC
  0
SECTION
  2
ENTITIES
  0
LWPOLYLINE
  5
7DE1B343D9D2A1B
330
7DE1B343D9D3DF1
100
AcDbEntity
  8
0
100
AcDbPolyline
 90
        6
 70
     1
 43
0.0
 10
1.751422341993901
 20
0.64389806073455
 10
1.751422341993901
 20
2.143898060734549
 10
1.001422341993901
 20
2.143898060734549
 10
1.001422341993901
 20
2.018898060734549
 10
1.626422341993901
 20
2.018898060734549
 10
1.626422341993901
 20
0.64389806073455
  0
TEXT
  5
7DE1B343D9D3C9C
330
7DE1B343D9D3DF1
100
AcDbEntity
  8
TEXT
100
AcDbText
 10
0.6234461515177107
 20
0.340237345990535
 30
0.0
 40
0.125
  1
PART #110168
  7
ITALICC
 72
     1
 11
1.376422341993901
 21
0.340237345990535
 31
0.0
100
AcDbText
  0
TEXT
  5
7DE1B343D9D3C9D
330
7DE1B343D9D3DF1
100
AcDbEntity
  8
TEXT
100
AcDbText
 10
1.789727500244222
 20
-0.1066852966818401
 30
0.0
 40
0.0522247191011236
  1
Phone  1-800-328-2495
 41
1.272321428571429
 72
     5
 11
3.118660084513885
 21
-0.1066852966818401
 31
0.0
100
AcDbText
  0
TEXT
  5
7DE1B343D9D3C9E
330
7DE1B343D9D3DF1
100
AcDbEntity
  8
TEXT
100
AcDbText
 10
1.789727500244222
 20
0.1730899842170364
 30
0.0
 40
0.0522247191011236
  1
Stylmark  Incorporated
 41
1.221428571428573
 72
     5
 11
3.118660084513885
 21
0.1730899842170364
 31
0.0
100
AcDbText
  0
TEXT
  5
7DE1B343D9D3C9F
330
7DE1B343D9D3DF1
100
AcDbEntity
  8
TEXT
100
AcDbText
 10
1.789727500244222
 20
0.0798315572507442
 30
0.0
 40
0.0522247191011236
  1
6536 Main St. N.E. * P.O. Box 32008
 41
0.8388932496075366
 72
     5
 11
3.118660084513885
 21
0.0798315572507442
 31
0.0
100
AcDbText
  0
TEXT
  5
7DE1B343D9D3CA0
330
7DE1B343D9D3DF1
100
AcDbEntity
  8
TEXT
100
AcDbText
 10
1.789727500244222
 20
-0.013426869715548
 30
0.0
 40
0.0522247191011236
  1
Minneapolis, MN 55432-0008
 41
1.11444212721585
 72
     5
 11
3.118660084513885
 21
-0.013426869715548
 31
0.0
100
AcDbText
  0
LWPOLYLINE
  5
7DE1B343D9D3CA1
330
7DE1B343D9D3DF1
100
AcDbEntity
  8
TEXT
100
AcDbPolyline
 90
        3
 70
     0
 43
0.0006660908203125
 10
-0.3662261918230856
 20
0.0069594659555947
 10
-0.3662261918230856
 20
-0.1062759734975329
 10
-0.2529907523699633
 20
-0.1062759734975329
  0
LWPOLYLINE
  5
7DE1B343D9D3CA6
330
7DE1B343D9D3DF1
100
AcDbEntity
  8
TEXT
100
AcDbPolyline
 90
        3
 70
     0
 43
0.0006660908203125
 10
-0.3395825590105881
 20
0.0069594659555947
 10
-0.3395825590105881
 20
-0.0796323406850319
 10
-0.2529907523699633
 20
-0.0796323406850319
  0
LWPOLYLINE
  5
7DE1B343D9D3CAB
330
7DE1B343D9D3DF1
100
AcDbEntity
  8
TEXT
100
AcDbPolyline
 90
        2
 70
     0
 43
0.0001332181640625
 10
-0.2929562015887113
 20
0.01695082826028
 10
-0.3662261918230856
 20
0.0069594659555947
  0
LWPOLYLINE
  5
7DE1B343D9D3CAF
330
7DE1B343D9D3DF1
100
AcDbEntity
  8
TEXT
100
AcDbPolyline
 90
        2
 70
     0
 43
0.0001332181640625
 10
-0.3395825590105881
 20
0.0069594659555947
 10
-0.2796343851824607
 20
0.01695082826028
  0
LWPOLYLINE
  5
7DE1B343D9D3CB3
330
7DE1B343D9D3DF1
100
AcDbEntity
  8
TEXT
100
AcDbPolyline
 90
        2
 70
     0
 43
0.0001332181640625
 10
-0.3395825590105881
 20
-0.0796323406850319
 10
-0.2796343851824607
 20
-0.0196841668569063
  0
LWPOLYLINE
  5
7DE1B343D9D3CB7
330
7DE1B343D9D3DF1
100
AcDbEntity
  8
TEXT
100
AcDbPolyline
 90
        3
 70
     0
 43
0.0006660908203125
 10
-0.2529907523699633
 20
0.1601603546274704
 10
-0.3662261918230856
 20
0.1601603546274704
 10
-0.3662261918230856
 20
0.0469249151743427
  0
LWPOLYLINE
  5
7DE1B343D9D3CBC
330
7DE1B343D9D3DF1
100
AcDbEntity
  8
TEXT
100
AcDbPolyline
 90
        3
 70
     0
 43
0.0006660908203125
 10
-0.2529907523699633
 20
0.1335167218149693
 10
-0.3395825590105881
 20
0.1335167218149693
 10
-0.3395825590105881
 20
0.0469249151743427
  0
LWPOLYLINE
  5
7DE1B343D9D3CC1
330
7DE1B343D9D3DF1
100
AcDbEntity
  8
TEXT
100
AcDbPolyline
 90
        2
 70
     0
 43
0.0001332181640625
 10
-0.3395825590105881
 20
0.1335167218149693
 10
-0.2796343851824625
 20
0.0735685479868438
  0
LWPOLYLINE
  5
7DE1B343D9D3CC5
330
7DE1B343D9D3DF1
100
AcDbEntity
  8
TEXT
100
AcDbPolyline
 90
        2
 70
     0
 43
0.0001332181640625
 10
-0.3395825590105881
 20
0.0469249151743427
 10
-0.2796343851824625
 20
0.036933552869654
  0
LWPOLYLINE
  5
7DE1B343D9D3CC9
330
7DE1B343D9D3DF1
100
AcDbEntity
  8
TEXT
100
AcDbPolyline
 90
        2
 70
     0
 43
0.0001332181640625
 10
-0.3662261918230856
 20
0.0469249151743427
 10
-0.2929562015887113
 20
0.036933552869654
  0
LWPOLYLINE
  5
7DE1B343D9D3CCD
330
7DE1B343D9D3DF1
100
AcDbEntity
  8
TEXT
100
AcDbPolyline
 90
        2
 70
     0
 43
0.0006660908203125
 10
-0.3395825590105881
 20
0.0069594659555947
 10
-0.3662261918230856
 20
0.0069594659555947
  0
LWPOLYLINE
  5
7DE1B343D9D3CD1
330
7DE1B343D9D3DF1
100
AcDbEntity
  8
TEXT
100
AcDbPolyline
 90
        2
 70
     0
 43
0.0006660908203125
 10
-0.3395825590105881
 20
0.0469249151743427
 10
-0.3662261918230856
 20
0.0469249151743427
  0
LINE
  5
7DE1B343D9D3CD5
330
7DE1B343D9D3DF1
100
AcDbEntity
  8
TEXT
100
AcDbLine
 10
1.148964237303411
 20
0.0958836599707014
 30
0.0
 11
1.041757963916122
 21
0.0958836599707014
 31
0.0
  0
LINE
  5
7DE1B343D9D3CD6
330
7DE1B343D9D3DF1
100
AcDbEntity
  8
TEXT
100
AcDbLine
 10
1.17799513564789
 20
0.1601603546274668
 30
0.0
 11
1.043163226430831
 21
0.1601603546274668
 31
0.0
  0
ARC
  5
7DE1B343D9D3CD7
330
7DE1B343D9D3DF1
100
AcDbEntity
  8
TEXT
100
AcDbCircle
 10
1.102477322824148
 20
-0.0090768946355495
 30
0.0
 40
0.0676855811441166
100
AcDbArc
 50
90.0
 51
153.7768192527749
  0
LWPOLYLINE
  5
7DE1B343D9D3CD8
330
7DE1B343D9D3DF1
100
AcDbEntity
  8
TEXT
100
AcDbPolyline
 90
        2
 70
     0
 43
0.0
 10
1.040725468461312
 20
-0.0628217334106061
 42
0.2901071551932823
 10
1.083801401328948
 20
-0.1063126783610442
 42
5.328517124445801
  0
ARC
  5
7DE1B343D9D3CDC
330
7DE1B343D9D3DF1
100
AcDbEntity
  8
TEXT
100
AcDbCircle
 10
0.3973459451526624
 20
-0.0465202870229944
 30
0.0
 40
0.0601160179737537
100
AcDbArc
 50
180.0000000000003
 51
264.0521544866073
  0
LINE
  5
7DE1B343D9D3CDD
330
7DE1B343D9D3DF1
100
AcDbEntity
  8
TEXT
100
AcDbLine
 10
0.4008613007782103
 20
0.194548272221605
 30
0.0
 11
0.3408186959342032
 21
0.194548272221605
 31
0.0
  0
ARC
  5
7DE1B343D9D3CDE
330
7DE1B343D9D3DF1
100
AcDbEntity
  8
TEXT
100
AcDbCircle
 10
0.1650869430356918
 20
0.0780728951809651
 30
0.0
 40
0.0820874594465043
100
AcDbArc
 50
90.0
 51
270.0
  0
LWPOLYLINE
  5
7DE1B343D9D3CDF
330
7DE1B343D9D3DF1
100
AcDbEntity
  8
TEXT
100
AcDbPolyline
 90
        2
 70
     0
 43
0.0001332181640625
 10
-0.2429993900652727
 20
0.0868903643930907
 10
-0.2529907523699633
 20
0.1601603546274704
  0
LWPOLYLINE
  5
7DE1B343D9D3CE3
330
7DE1B343D9D3DF1
100
AcDbEntity
  8
TEXT
100
AcDbPolyline
 90
        2
 70
     0
 43
0.0001332181640625
 10
-0.2529907523699633
 20
0.1335167218149693
 10
-0.2429993900652727
 20
0.0735685479868438
  0
LWPOLYLINE
  5
7DE1B343D9D3CE7
330
7DE1B343D9D3DF1
100
AcDbEntity
  8
TEXT
100
AcDbPolyline
 90
        3
 70
     0
 43
0.0006660908203125
 10
-0.0997898636980859
 20
0.0469249151743427
 10
-0.0997898636980859
 20
0.1601603546274704
 10
-0.2130253031512117
 20
0.1601603546274704
  0
LWPOLYLINE
  5
7DE1B343D9D3CEC
330
7DE1B343D9D3DF1
100
AcDbEntity
  8
TEXT
100
AcDbPolyline
 90
        3
 70
     0
 43
0.0006660908203125
 10
-0.1264334965105869
 20
0.0469249151743427
 10
-0.1264334965105869
 20
0.1335167218149693
 10
-0.2130253031512117
 20
0.1335167218149693
  0
LWPOLYLINE
  5
7DE1B343D9D3CF1
330
7DE1B343D9D3DF1
100
AcDbEntity
  8
TEXT
100
AcDbPolyline
 90
        2
 70
     0
 43
0.0001332181640625
 10
-0.1264334965105869
 20
0.1335167218149693
 10
-0.1863816703387107
 20
0.0735685479868438
  0
LWPOLYLINE
  5
7DE1B343D9D3CF5
330
7DE1B343D9D3DF1
100
AcDbEntity
  8
TEXT
100
AcDbPolyline
 90
        2
 70
     0
 43
0.0001332181640625
 10
-0.2130253031512117
 20
0.1335167218149693
 10
-0.2230166654559005
 20
0.0735685479868438
  0
LWPOLYLINE
  5
7DE1B343D9D3CF9
330
7DE1B343D9D3DF1
100
AcDbEntity
  8
TEXT
100
AcDbPolyline
 90
        2
 70
     0
 43
0.0001332181640625
 10
-0.2130253031512117
 20
0.1601603546274704
 10
-0.2230166654559005
 20
0.0868903643930907
  0
LWPOLYLINE
  5
7DE1B343D9D3CFD
330
7DE1B343D9D3DF1
100
AcDbEntity
  8
TEXT
100
AcDbPolyline
 90
        2
 70
     0
 43
0.0001332181640625
 10
-0.1730598539324619
 20
0.036933552869654
 10
-0.0997898636980859
 20
0.0469249151743427
  0
LWPOLYLINE
  5
7DE1B343D9D3D01
330
7DE1B343D9D3DF1
100
AcDbEntity
  8
TEXT
100
AcDbPolyline
 90
        2
 70
     0
 43
0.0001332181640625
 10
-0.1264334965105869
 20
0.0469249151743427
 10
-0.1863816703387107
 20
0.036933552869654
  0
LWPOLYLINE
  5
7DE1B343D9D3D05
330
7DE1B343D9D3DF1
100
AcDbEntity
  8
TEXT
100
AcDbPolyline
 90
        2
 70
     0
 43
0.0001332181640625
 10
-0.0997898636980859
 20
0.0069594659555947
 10
-0.1730598539324619
 20
0.01695082826028
  0
LWPOLYLINE
  5
7DE1B343D9D3D09
330
7DE1B343D9D3DF1
100
AcDbEntity
  8
TEXT
100
AcDbPolyline
 90
        2
 70
     0
 43
0.0001332181640625
 10
-0.1264334965105869
 20
0.0069594659555947
 10
-0.1863816703387107
 20
0.01695082826028
  0
LWPOLYLINE
  5
7DE1B343D9D3D0D
330
7DE1B343D9D3DF1
100
AcDbEntity
  8
TEXT
100
AcDbPolyline
 90
        2
 70
     0
 43
0.0001332181640625
 10
-0.1264334965105869
 20
-0.0796323406850319
 10
-0.1863816703387107
 20
-0.0196841668569063
  0
LWPOLYLINE
  5
7DE1B343D9D3D11
330
7DE1B343D9D3DF1
100
AcDbEntity
  8
TEXT
100
AcDbPolyline
 90
        3
 70
     0
 43
0.0006660908203125
 10
-0.2130253031512117
 20
-0.0796323406850319
 10
-0.1264334965105869
 20
-0.0796323406850319
 10
-0.1264334965105869
 20
0.0069594659555947
  0
LWPOLYLINE
  5
7DE1B343D9D3D16
330
7DE1B343D9D3DF1
100
AcDbEntity
  8
TEXT
100
AcDbPolyline
 90
        3
 70
     0
 43
0.0006660908203125
 10
-0.2130253031512117
 20
-0.1062759734975329
 10
-0.0997898636980859
 20
-0.1062759734975329
 10
-0.0997898636980859
 20
0.0069594659555947
  0
LWPOLYLINE
  5
7DE1B343D9D3D1B
330
7DE1B343D9D3DF1
100
AcDbEntity
  8
TEXT
100
AcDbPolyline
 90
        5
 70
     0
 43
0.0001332181640625
 10
-0.2429993900652727
 20
-0.0330059832631569
 10
-0.2429993900652727
 20
-0.0196841668569063
 10
-0.2796343851824607
 20
-0.0196841668569063
 10
-0.2796343851824607
 20
0.01695082826028
 10
-0.2929562015887113
 20
0.01695082826028
  0
LWPOLYLINE
  5
7DE1B343D9D3D22
330
7DE1B343D9D3DF1
100
AcDbEntity
  8
TEXT
100
AcDbPolyline
 90
        2
 70
     0
 43
0.0006660908203125
 10
-0.2529907523699633
 20
-0.0796323406850319
 10
-0.2529907523699633
 20
-0.1062759734975329
  0
LWPOLYLINE
  5
7DE1B343D9D3D26
330
7DE1B343D9D3DF1
100
AcDbEntity
  8
TEXT
100
AcDbPolyline
 90
        2
 70
     0
 43
0.0001332181640625
 10
-0.2529907523699633
 20
-0.0796323406850319
 10
-0.2429993900652727
 20
-0.0196841668569063
  0
LWPOLYLINE
  5
7DE1B343D9D3D2A
330
7DE1B343D9D3DF1
100
AcDbEntity
  8
TEXT
100
AcDbPolyline
 90
        2
 70
     0
 43
0.0001332181640625
 10
-0.2529907523699633
 20
-0.1062759734975329
 10
-0.2429993900652727
 20
-0.0330059832631569
  0
LWPOLYLINE
  5
7DE1B343D9D3D2E
330
7DE1B343D9D3DF1
100
AcDbEntity
  8
TEXT
100
AcDbPolyline
 90
        5
 70
     0
 43
0.0001332181640625
 10
-0.2929562015887113
 20
0.036933552869654
 10
-0.2796343851824625
 20
0.036933552869654
 10
-0.2796343851824625
 20
0.0735685479868438
 10
-0.2429993900652727
 20
0.0735685479868438
 10
-0.2429993900652727
 20
0.0868903643930907
  0
LWPOLYLINE
  5
7DE1B343D9D3D35
330
7DE1B343D9D3DF1
100
AcDbEntity
  8
TEXT
100
AcDbPolyline
 90
        5
 70
     0
 43
0.0001332181640625
 10
-0.2230166654559005
 20
0.0868903643930907
 10
-0.2230166654559005
 20
0.0735685479868438
 10
-0.1863816703387107
 20
0.0735685479868438
 10
-0.1863816703387107
 20
0.036933552869654
 10
-0.1730598539324619
 20
0.036933552869654
  0
LWPOLYLINE
  5
7DE1B343D9D3D3C
330
7DE1B343D9D3DF1
100
AcDbEntity
  8
TEXT
100
AcDbPolyline
 90
        2
 70
     0
 43
0.0001332181640625
 10
-0.2130253031512117
 20
-0.0796323406850319
 10
-0.2230166654559005
 20
-0.0196841668569063
  0
LWPOLYLINE
  5
7DE1B343D9D3D40
330
7DE1B343D9D3DF1
100
AcDbEntity
  8
TEXT
100
AcDbPolyline
 90
        2
 70
     0
 43
0.0001332181640625
 10
-0.2230166654559005
 20
-0.0330059832631569
 10
-0.2130253031512117
 20
-0.1062759734975329
  0
LWPOLYLINE
  5
7DE1B343D9D3D44
330
7DE1B343D9D3DF1
100
AcDbEntity
  8
TEXT
100
AcDbPolyline
 90
        2
 70
     0
 43
0.0006660908203125
 10
-0.2130253031512117
 20
-0.0796323406850319
 10
-0.2130253031512117
 20
-0.1062759734975329
  0
LWPOLYLINE
  5
7DE1B343D9D3D48
330
7DE1B343D9D3DF1
100
AcDbEntity
  8
TEXT
100
AcDbPolyline
 90
        5
 70
     0
 43
0.0001332181640625
 10
-0.1730598539324619
 20
0.01695082826028
 10
-0.1863816703387107
 20
0.01695082826028
 10
-0.1863816703387107
 20
-0.0196841668569063
 10
-0.2230166654559005
 20
-0.0196841668569063
 10
-0.2230166654559005
 20
-0.0330059832631569
  0
LWPOLYLINE
  5
7DE1B343D9D3D4F
330
7DE1B343D9D3DF1
100
AcDbEntity
  8
TEXT
100
AcDbPolyline
 90
        2
 70
     0
 43
0.0006660908203125
 10
-0.1264334965105869
 20
0.0469249151743427
 10
-0.0997898636980859
 20
0.0469249151743427
  0
LWPOLYLINE
  5
7DE1B343D9D3D53
330
7DE1B343D9D3DF1
100
AcDbEntity
  8
TEXT
100
AcDbPolyline
 90
        2
 70
     0
 43
0.0006660908203125
 10
-0.1264334965105869
 20
0.0069594659555947
 10
-0.0997898636980859
 20
0.0069594659555947
  0
LINE
  5
7DE1B343D9D3D57
330
7DE1B343D9D3DF1
100
AcDbEntity
  8
TEXT
100
AcDbLine
 10
0.170324273149939
 20
0.0958836599707014
 30
0.0
 11
0.3372299271789103
 21
0.0958836599707014
 31
0.0
  0
LINE
  5
7DE1B343D9D3D58
330
7DE1B343D9D3DF1
100
AcDbEntity
  8
TEXT
100
AcDbLine
 10
0.2359244093942401
 20
0.0600789383600735
 30
0.0
 11
0.170324273149939
 21
0.0600789383600735
 31
0.0
  0
LINE
  5
7DE1B343D9D3D59
330
7DE1B343D9D3DF1
100
AcDbEntity
  8
TEXT
100
AcDbLine
 10
0.0829994835891874
 20
-0.1063126783610442
 30
0.0
 11
0.2359244093942401
 21
-0.1063126783610442
 31
0.0
  0
LINE
  5
7DE1B343D9D3D5A
330
7DE1B343D9D3DF1
100
AcDbEntity
  8
TEXT
100
AcDbLine
 10
0.2408647833005197
 20
-0.0379556720276049
 30
0.0
 11
0.0829994835891857
 21
-0.0379556720276049
 31
0.0
  0
LINE
  5
7DE1B343D9D3D5B
330
7DE1B343D9D3DF1
100
AcDbEntity
  8
TEXT
100
AcDbLine
 10
0.1650869430356909
 20
-0.0040145642655403
 30
0.0
 11
0.2408647833005197
 21
-0.0040145642655403
 31
0.0
  0
ARC
  5
7DE1B343D9D3D5C
330
7DE1B343D9D3DF1
100
AcDbEntity
  8
TEXT
100
AcDbCircle
 10
0.1703242731499399
 20
0.0779812991653892
 30
0.0
 40
0.017902360805315
100
AcDbArc
 50
90.0
 51
270.0
  0
LINE
  5
7DE1B343D9D3D5D
330
7DE1B343D9D3DF1
100
AcDbEntity
  8
TEXT
100
AcDbLine
 10
0.0829994835891857
 20
-0.0379556720276049
 30
0.0
 11
0.0829994835891874
 21
-0.1063126783610442
 31
0.0
  0
LINE
  5
7DE1B343D9D3D5E
330
7DE1B343D9D3DF1
100
AcDbEntity
  8
TEXT
100
AcDbLine
 10
0.3372299271789103
 20
0.0958836599707014
 30
0.0
 11
0.3372299271789103
 21
-0.0465202870229944
 31
0.0
  0
ARC
  5
7DE1B343D9D3D5F
330
7DE1B343D9D3DF1
100
AcDbEntity
  8
TEXT
100
AcDbCircle
 10
0.235924409394241
 20
-0.0231168700004871
 30
0.0
 40
0.0831958083605586
100
AcDbArc
 50
270.0
 51
90.0
  0
ARC
  5
7DE1B343D9D3D60
330
7DE1B343D9D3DF1
100
AcDbEntity
  8
TEXT
100
AcDbCircle
 10
0.2408647833005206
 20
-0.0209851181465708
 30
0.0
 40
0.0169705538810321
100
AcDbArc
 50
270.0
 51
90.0
  0
LWPOLYLINE
  5
7DE1B343D9D3D61
330
7DE1B343D9D3DF1
100
AcDbEntity
  8
TEXT
100
AcDbPolyline
 90
        2
 70
     0
 43
0.0006660908203125
 10
-0.2529907523699633
 20
0.1335167218149693
 10
-0.2529907523699633
 20
0.1601603546274704
  0
LWPOLYLINE
  5
7DE1B343D9D3D65
330
7DE1B343D9D3DF1
100
AcDbEntity
  8
TEXT
100
AcDbPolyline
 90
        2
 70
     0
 43
0.0006660908203125
 10
-0.2130253031512117
 20
0.1335167218149693
 10
-0.2130253031512117
 20
0.1601603546274704
  0
LINE
  5
7DE1B343D9D3D69
330
7DE1B343D9D3DF1
100
AcDbEntity
  8
TEXT
100
AcDbLine
 10
0.3408186959342032
 20
0.1601603546274668
 30
0.0
 11
0.1650869430356909
 21
0.1601603546274668
 31
0.0
  0
LINE
  5
7DE1B343D9D3D6A
330
7DE1B343D9D3DF1
100
AcDbEntity
  8
TEXT
100
AcDbLine
 10
0.3408186959342032
 20
0.194548272221605
 30
0.0
 11
0.3408186959342032
 21
0.1601603546274668
 31
0.0
  0
LINE
  5
7DE1B343D9D3D6B
330
7DE1B343D9D3DF1
100
AcDbEntity
  8
TEXT
100
AcDbLine
 10
0.5312905879540555
 20
0.0592883585143462
 30
0.0
 11
0.4726602669221176
 21
0.1601603546274668
 31
0.0
  0
LINE
  5
7DE1B343D9D3D6C
330
7DE1B343D9D3DF1
100
AcDbEntity
  8
TEXT
100
AcDbLine
 10
0.590039150759921
 20
0.1601603546274668
 30
0.0
 11
0.5312905879540555
 21
0.0592883585143462
 31
0.0
  0
LINE
  5
7DE1B343D9D3D6D
330
7DE1B343D9D3DF1
100
AcDbEntity
  8
TEXT
100
AcDbLine
 10
0.6869697761196623
 20
-0.023924840258045
 30
0.0
 11
0.6869697761196623
 21
0.2281718323662774
 31
0.0
  0
LINE
  5
7DE1B343D9D3D6E
330
7DE1B343D9D3DF1
100
AcDbEntity
  8
TEXT
100
AcDbLine
 10
0.7192816302573224
 20
0.1601603546274668
 30
0.0
 11
0.7192816302573224
 21
-0.0407038521049414
 31
0.0
  0
LINE
  5
7DE1B343D9D3D6F
330
7DE1B343D9D3DF1
100
AcDbEntity
  8
TEXT
100
AcDbLine
 10
0.7192816302573224
 20
-0.0407038521049414
 30
0.0
 11
0.7022879933727211
 21
-0.0407038521049414
 31
0.0
  0
LINE
  5
7DE1B343D9D3D70
330
7DE1B343D9D3DF1
100
AcDbEntity
  8
TEXT
100
AcDbLine
 10
0.6881093496158571
 20
-0.1063126783610442
 30
0.0
 11
0.7861126833152916
 21
-0.1063126783610442
 31
0.0
  0
LINE
  5
7DE1B343D9D3D71
330
7DE1B343D9D3DF1
100
AcDbEntity
  8
TEXT
100
AcDbLine
 10
0.5216903509571012
 20
-0.0863541722560313
 30
0.0
 11
0.6189900570505458
 21
0.0779960386792369
 31
0.0
  0
ARC
  5
7DE1B343D9D3D72
330
7DE1B343D9D3DF1
100
AcDbEntity
  8
TEXT
100
AcDbCircle
 10
0.4876467910448872
 20
-0.0667649560873485
 30
0.0
 40
0.0392772371940762
100
AcDbArc
 50
270.1604552698595
 51
330.0831797321295
  0
LINE
  5
7DE1B343D9D3D73
330
7DE1B343D9D3DF1
100
AcDbEntity
  8
TEXT
100
AcDbLine
 10
0.391116534659016
 20
-0.1063126783610442
 30
0.0
 11
0.4877567857340104
 21
-0.1060420392627619
 31
0.0
  0
LWPOLYLINE
  5
7DE1B343D9D3D74
330
7DE1B343D9D3DF1
100
AcDbEntity
  8
TEXT
100
AcDbPolyline
 90
        6
 70
     1
 43
0.0
 10
0.4336403382341656
 20
0.0958836599707014
 10
0.4033237440139575
 20
0.0958836599707014
 10
0.4033237440139575
 20
-0.027227338084193
 42
0.407328721240804
 10
0.4148673951754338
 20
-0.0390462527605791
 10
0.4754890942201646
 20
-0.0390462527605791
 10
0.4929544346274826
 20
-0.0062340237170999
  0
LINE
  5
7DE1B343D9D3D7C
330
7DE1B343D9D3DF1
100
AcDbEntity
  8
TEXT
100
AcDbLine
 10
0.6189900570505458
 20
0.0779960386792369
 30
0.0
 11
0.6189900570505458
 21
-0.0547613361461195
 31
0.0
  0
ARC
  5
7DE1B343D9D3D7D
330
7DE1B343D9D3DF1
100
AcDbEntity
  8
TEXT
100
AcDbCircle
 10
0.7022879933727193
 20
-0.025322045861516
 30
0.0
 40
0.0153818062434269
100
AcDbArc
 50
174.7883570302258
 51
270.0
  0
LWPOLYLINE
  5
7DE1B343D9D3D7E
330
7DE1B343D9D3DF1
100
AcDbEntity
  8
TEXT
100
AcDbPolyline
 90
        2
 70
     0
 43
0.0
 10
0.618990057050544
 20
-0.0547613361461159
 42
0.3318488747599744
 10
0.6881093496158571
 20
-0.1063126783610442
 42
-6.868794160588311
  0
LINE
  5
7DE1B343D9D3D82
330
7DE1B343D9D3DF1
100
AcDbEntity
  8
TEXT
100
AcDbLine
 10
0.8435017523045527
 20
-0.1063126783610442
 30
0.0
 11
0.9105597990863927
 21
-0.1063126783610442
 31
0.0
  0
LINE
  5
7DE1B343D9D3D83
330
7DE1B343D9D3DF1
100
AcDbEntity
  8
TEXT
100
AcDbLine
 10
0.8435017523045527
 20
0.0883298708045914
 30
0.0
 11
0.8435017523045527
 21
-0.1063126783610442
 31
0.0
  0
LINE
  5
7DE1B343D9D3D84
330
7DE1B343D9D3DF1
100
AcDbEntity
  8
TEXT
100
AcDbLine
 10
0.7861126833152916
 20
0.0958836599707014
 30
0.0
 11
0.8359479631384392
 21
0.0958836599707014
 31
0.0
  0
LINE
  5
7DE1B343D9D3D85
330
7DE1B343D9D3DF1
100
AcDbEntity
  8
TEXT
100
AcDbLine
 10
0.7861126833152916
 20
-0.1063126783610442
 30
0.0
 11
0.7861126833152916
 21
0.0958836599707014
 31
0.0
  0
LWPOLYLINE
  5
7DE1B343D9D3D86
330
7DE1B343D9D3DF1
100
AcDbEntity
  8
TEXT
100
AcDbPolyline
 90
        2
 70
     0
 43
0.0
 10
0.8359479631384374
 20
0.0958836599707014
 42
-0.4142135623731017
 10
0.8435017523045509
 20
0.0883298708045914
 42
-0.9999999999999998
  0
LINE
  5
7DE1B343D9D3D8A
330
7DE1B343D9D3DF1
100
AcDbEntity
  8
TEXT
100
AcDbLine
 10
1.041757963916122
 20
0.0958836599707014
 30
0.0
 11
1.041757963916122
 21
0.0208312538964948
 31
0.0
  0
LINE
  5
7DE1B343D9D3D8B
330
7DE1B343D9D3DF1
100
AcDbEntity
  8
TEXT
100
AcDbLine
 10
0.9105597990863927
 20
0.0958836599707014
 30
0.0
 11
0.9646933960073429
 21
0.0958836599707014
 31
0.0
  0
LINE
  5
7DE1B343D9D3D8C
330
7DE1B343D9D3DF1
100
AcDbEntity
  8
TEXT
100
AcDbLine
 10
0.9105597990863927
 20
-0.1063126783610442
 30
0.0
 11
0.9105597990863927
 21
0.0958836599707014
 31
0.0
  0
LWPOLYLINE
  5
7DE1B343D9D3D8D
330
7DE1B343D9D3DF1
100
AcDbEntity
  8
TEXT
100
AcDbPolyline
 90
        2
 70
     0
 43
0.0
 10
0.9646933960073411
 20
0.0958836599707014
 42
-0.4142135623731017
 10
0.9722471851734546
 20
0.0883298708045914
 42
-0.9999999999999998
  0
LWPOLYLINE
  5
7DE1B343D9D3D91
330
7DE1B343D9D3DF1
100
AcDbEntity
  8
TEXT
100
AcDbPolyline
 90
        4
 70
     0
 43
0.0
 10
0.9722471851734546
 20
0.0883298708045914
 10
0.9722471851734546
 20
-0.1063126783610442
 10
1.040725468461312
 20
-0.1063126783610442
 10
1.040725468461312
 20
-0.0628217334106061
 42
-1.714843617202739
  0
LINE
  5
7DE1B343D9D3D97
330
7DE1B343D9D3DF1
100
AcDbEntity
  8
TEXT
100
AcDbLine
 10
0.4008613007782103
 20
0.1601603546274668
 30
0.0
 11
0.4008613007782103
 21
0.194548272221605
 31
0.0
  0
LINE
  5
7DE1B343D9D3D98
330
7DE1B343D9D3DF1
100
AcDbEntity
  8
TEXT
100
AcDbLine
 10
0.4726602669221176
 20
0.1601603546274668
 30
0.0
 11
0.4008613007782103
 21
0.1601603546274668
 31
0.0
  0
LINE
  5
7DE1B343D9D3D99
330
7DE1B343D9D3DF1
100
AcDbEntity
  8
TEXT
100
AcDbLine
 10
0.6201610635532973
 20
0.1601603546274668
 30
0.0
 11
0.590039150759921
 21
0.1601603546274668
 31
0.0
  0
LINE
  5
7DE1B343D9D3D9A
330
7DE1B343D9D3DF1
100
AcDbEntity
  8
TEXT
100
AcDbLine
 10
0.6201610635532973
 20
0.2281718323662774
 30
0.0
 11
0.6201610635532973
 21
0.1601603546274668
 31
0.0
  0
LINE
  5
7DE1B343D9D3D9B
330
7DE1B343D9D3DF1
100
AcDbEntity
  8
TEXT
100
AcDbLine
 10
0.6869697761196623
 20
0.2281718323662774
 30
0.0
 11
0.6201610635532973
 21
0.2281718323662774
 31
0.0
  0
LWPOLYLINE
  5
7DE1B343D9D3D9C
330
7DE1B343D9D3DF1
100
AcDbEntity
  8
TEXT
100
AcDbPolyline
 90
        3
 70
     0
 43
0.0
 10
1.007381535717664
 20
0.1601603546274704
 10
0.8890813769016201
 20
0.1601603546274704
 10
0.8890813769016201
 20
0.1329928578665744
 42
-1.960274751411753
  0
LINE
  5
7DE1B343D9D3DA1
330
7DE1B343D9D3DF1
100
AcDbEntity
  8
TEXT
100
AcDbLine
 10
0.8532996861884587
 20
0.1601603546274668
 30
0.0
 11
0.7192816302573224
 21
0.1601603546274668
 31
0.0
  0
LWPOLYLINE
  5
7DE1B343D9D3DA2
330
7DE1B343D9D3DF1
100
AcDbEntity
  8
TEXT
100
AcDbPolyline
 90
        2
 70
     0
 43
0.0
 10
0.8532996861884587
 20
0.1601603546274704
 42
-0.3328679258950098
 10
0.8890813769016201
 20
0.1329928578665744
 42
6.772930709997214
  0
LINE
  5
7DE1B343D9D3DA6
330
7DE1B343D9D3DF1
100
AcDbEntity
  8
TEXT
100
AcDbLine
 10
1.043163226430831
 20
0.1601603546274668
 30
0.0
 11
1.043163226430831
 21
0.1318378088578229
 31
0.0
  0
LWPOLYLINE
  5
7DE1B343D9D3DA7
330
7DE1B343D9D3DF1
100
AcDbEntity
  8
TEXT
100
AcDbPolyline
 90
        2
 70
     0
 43
0.0
 10
1.007381535717664
 20
0.1601603546274704
 42
-0.3277054968067132
 10
1.043163226430829
 20
0.1318378088578265
 42
6.667889725900311
  0
LINE
  5
7DE1B343D9D3DAB
330
7DE1B343D9D3DF1
100
AcDbEntity
  8
TEXT
100
AcDbLine
 10
1.256955074522931
 20
0.0549483760740395
 30
0.0
 11
1.213204303341029
 21
0.1371986520701847
 31
0.0
  0
LINE
  5
7DE1B343D9D3DAC
330
7DE1B343D9D3DF1
100
AcDbEntity
  8
TEXT
100
AcDbLine
 10
1.256955074522931
 20
0.1601603546274668
 30
0.0
 11
1.256955074522931
 21
0.0549483760740395
 31
0.0
  0
LINE
  5
7DE1B343D9D3DAD
330
7DE1B343D9D3DF1
100
AcDbEntity
  8
TEXT
100
AcDbLine
 10
1.4846388134613
 20
0.0842950282159287
 30
0.0
 11
1.4846388134613
 21
0.2256245603950675
 31
0.0
  0
LINE
  5
7DE1B343D9D3DAE
330
7DE1B343D9D3DF1
100
AcDbEntity
  8
TEXT
100
AcDbLine
 10
1.531736972017284
 20
0.1601603546274668
 30
0.0
 11
1.4846388134613
 21
0.0842950282159287
 31
0.0
  0
LINE
  5
7DE1B343D9D3DAF
330
7DE1B343D9D3DF1
100
AcDbEntity
  8
TEXT
100
AcDbLine
 10
1.542171688781207
 20
0.0502671116864932
 30
0.0
 11
1.606728804746913
 21
0.1601603546274668
 31
0.0
  0
LINE
  5
7DE1B343D9D3DB0
330
7DE1B343D9D3DF1
100
AcDbEntity
  8
TEXT
100
AcDbLine
 10
1.420803822238527
 20
-0.1063126783610442
 30
0.0
 11
1.485182006557147
 21
-0.1063126783610442
 31
0.0
  0
LWPOLYLINE
  5
7DE1B343D9D3DB1
330
7DE1B343D9D3DF1
100
AcDbEntity
  8
TEXT
100
AcDbPolyline
 90
        2
 70
     0
 43
0.0
 10
1.260894751827969
 20
-0.0628217334106061
 42
-0.2901071551932486
 10
1.217818818960324
 20
-0.1063126783610442
 42
-5.328517124445184
  0
ARC
  5
7DE1B343D9D3DB5
330
7DE1B343D9D3DF1
100
AcDbEntity
  8
TEXT
100
AcDbCircle
 10
1.14896423730341
 20
0.0675242849707041
 30
0.0
 40
0.028359375
100
AcDbArc
 50
25.78218179591245
 51
90.0
  0
LINE
  5
7DE1B343D9D3DB6
330
7DE1B343D9D3DF1
100
AcDbEntity
  8
TEXT
100
AcDbLine
 10
1.184765312607533
 20
0.0586086865085691
 30
0.0
 11
1.174500552193968
 21
0.0798592260812634
 31
0.0
  0
LINE
  5
7DE1B343D9D3DB7
330
7DE1B343D9D3DF1
100
AcDbEntity
  8
TEXT
100
AcDbLine
 10
1.10247732282415
 20
0.0586086865085691
 30
0.0
 11
1.184765312607533
 21
0.0586086865085691
 31
0.0
  0
LWPOLYLINE
  5
7DE1B343D9D3DB8
330
7DE1B343D9D3DF1
100
AcDbEntity
  8
TEXT
100
AcDbPolyline
 90
        4
 70
     1
 43
0.0
 10
1.197696353890432
 20
-0.003348700377019
 10
1.109036035230573
 20
-0.003348700377019
 42
0.9999999999999998
 10
1.109036035230573
 20
-0.0457472408808797
 10
1.197696353890432
 20
-0.0457472408808797
 42
1.0
  0
LWPOLYLINE
  5
7DE1B343D9D3DBE
330
7DE1B343D9D3DF1
100
AcDbEntity
  8
TEXT
100
AcDbPolyline
 90
        2
 70
     0
 43
0.0
 10
1.083801401328948
 20
-0.1063126783610442
 10
1.217818818960324
 20
-0.1063126783610442
 42
0.9999999999999998
  0
LINE
  5
7DE1B343D9D3DC2
330
7DE1B343D9D3DF1
100
AcDbEntity
  8
TEXT
100
AcDbLine
 10
1.344155840945964
 20
0.0958836599707014
 30
0.0
 11
1.420803822238521
 21
0.0958836599707014
 31
0.0
  0
LINE
  5
7DE1B343D9D3DC3
330
7DE1B343D9D3DF1
100
AcDbEntity
  8
TEXT
100
AcDbLine
 10
1.420803822238521
 20
0.0958836599707014
 30
0.0
 11
1.420803822238527
 21
-0.1063126783610442
 31
0.0
  0
ARC
  5
7DE1B343D9D3DC4
330
7DE1B343D9D3DF1
100
AcDbEntity
  8
TEXT
100
AcDbCircle
 10
1.344155840945962
 20
0.0709777846880386
 30
0.0
 40
0.0249058752826653
100
AcDbArc
 50
89.99971217465335
 51
179.9999999999985
  0
LINE
  5
7DE1B343D9D3DC5
330
7DE1B343D9D3DF1
100
AcDbEntity
  8
TEXT
100
AcDbLine
 10
1.319249965663304
 20
-0.1063126783610442
 30
0.0
 11
1.319249965663299
 21
0.0709778270704242
 31
0.0
  0
LWPOLYLINE
  5
7DE1B343D9D3DC6
330
7DE1B343D9D3DF1
100
AcDbEntity
  8
TEXT
100
AcDbPolyline
 90
        2
 70
     0
 43
0.0
 10
1.260894751827969
 20
-0.1063126783610442
 10
1.319249965663303
 20
-0.1063126783610442
  0
LWPOLYLINE
  5
7DE1B343D9D3DCA
330
7DE1B343D9D3DF1
100
AcDbEntity
  8
TEXT
100
AcDbPolyline
 90
        2
 70
     0
 43
0.0
 10
1.260894751827969
 20
-0.0628217334106061
 10
1.260894751827969
 20
-0.1063126783610442
  0
LINE
  5
7DE1B343D9D3DCE
330
7DE1B343D9D3DF1
100
AcDbEntity
  8
TEXT
100
AcDbLine
 10
1.637663912144818
 20
-0.1063126783610442
 30
0.0
 11
1.542171688781207
 21
0.0502671116864932
 31
0.0
  0
LINE
  5
7DE1B343D9D3DCF
330
7DE1B343D9D3DF1
100
AcDbEntity
  8
TEXT
100
AcDbLine
 10
1.561085539768612
 20
-0.1063126783610442
 30
0.0
 11
1.637663912144818
 21
-0.1063126783610442
 31
0.0
  0
LINE
  5
7DE1B343D9D3DD0
330
7DE1B343D9D3DF1
100
AcDbEntity
  8
TEXT
100
AcDbLine
 10
1.485182006557147
 20
0.0252668901151361
 30
0.0
 11
1.561085539768612
 21
-0.1063126783610442
 31
0.0
  0
LINE
  5
7DE1B343D9D3DD1
330
7DE1B343D9D3DF1
100
AcDbEntity
  8
TEXT
100
AcDbLine
 10
1.485182006557147
 20
-0.1063126783610442
 30
0.0
 11
1.485182006557147
 21
0.0252668901151361
 31
0.0
  0
LINE
  5
7DE1B343D9D3DD2
330
7DE1B343D9D3DF1
100
AcDbEntity
  8
TEXT
100
AcDbLine
 10
1.4846388134613
 20
0.2256245603950675
 30
0.0
 11
1.416323934912027
 21
0.2256245603950675
 31
0.0
  0
ARC
  5
7DE1B343D9D3DD3
330
7DE1B343D9D3DF1
100
AcDbEntity
  8
TEXT
100
AcDbCircle
 10
1.175968195870821
 20
0.1185767875065644
 30
0.0
 40
0.0416329381542859
100
AcDbArc
 50
26.56974201007528
 51
87.20939649401342
  0
LINE
  5
7DE1B343D9D3DD4
330
7DE1B343D9D3DF1
100
AcDbEntity
  8
TEXT
100
AcDbLine
 10
1.320851980822432
 20
0.1601603546274668
 30
0.0
 11
1.256955074522931
 21
0.1601603546274668
 31
0.0
  0
LINE
  5
7DE1B343D9D3DD5
330
7DE1B343D9D3DF1
100
AcDbEntity
  8
TEXT
100
AcDbLine
 10
1.320851980822432
 20
0.1326127047665921
 30
0.0
 11
1.320851980822432
 21
0.1601603546274668
 31
0.0
  0
ARC
  5
7DE1B343D9D3DD6
330
7DE1B343D9D3DF1
100
AcDbEntity
  8
TEXT
100
AcDbCircle
 10
1.35204479788554
 20
0.128914627345202
 30
0.0
 40
0.0314112657011332
100
AcDbArc
 50
95.88484768694724
 51
173.2388340632136
  0
LINE
  5
7DE1B343D9D3DD7
330
7DE1B343D9D3DF1
100
AcDbEntity
  8
TEXT
100
AcDbLine
 10
1.416323934912021
 20
0.1601603546274668
 30
0.0
 11
1.348824217262505
 21
0.1601603546274668
 31
0.0
  0
LINE
  5
7DE1B343D9D3DD8
330
7DE1B343D9D3DF1
100
AcDbEntity
  8
TEXT
100
AcDbLine
 10
1.416323934912027
 20
0.2256245603950675
 30
0.0
 11
1.416323934912021
 21
0.1601603546274668
 31
0.0
  0
LINE
  5
7DE1B343D9D3DD9
330
7DE1B343D9D3DF1
100
AcDbEntity
  8
TEXT
100
AcDbLine
 10
1.606728804746913
 20
0.1601603546274668
 30
0.0
 11
1.531736972017286
 21
0.1601603546274668
 31
0.0
  0
ENDSEC
  0
SECTION
  2
OBJECTS
  0
DICTIONARY
  5
7DE1B343D9D3DE5
330
0
100
AcDbDictionary
  3
ACAD_GROUP
350
7DE1B343D9D3DE6
  3
ACAD_LAYOUT
350
7DE1B343D9D3E0B
  3
ACAD_MLINESTYLE
350
7DE1B343D9D3DE7
  3
ACAD_PLOTSETTINGS
350
7DE1B343D9D3E0C
  3
ACAD_PLOTSTYLENAME
350
7DE1B343D9D3E09
  3
ACDBHEADERROUNDTRIPXREC
350
7DE1B343D9D3E16
  3
ACDBVARIABLEDICTIONARY
350
7DE1B343D9D3E13
  0
DICTIONARY
  5
7DE1B343D9D3E38
330
7DE1B343D9D3DF1
100
AcDbDictionary
280
     1
  3
ACAD_LAYOUTSELFREF
360
7DE1B343D9D3E39
  0
DICTIONARY
  5
7DE1B343D9D3E36
330
7DE1B343D9D3DEE
100
AcDbDictionary
280
     1
  3
ACAD_LAYOUTSELFREF
360
7DE1B343D9D3E37
  0
DICTIONARY
  5
7DE1B343D9D3DE6
102
{ACAD_REACTORS
330
7DE1B343D9D3DE5
102
}
330
7DE1B343D9D3DE5
100
AcDbDictionary
  0
DICTIONARY
  5
7DE1B343D9D3E0B
102
{ACAD_REACTORS
330
7DE1B343D9D3DE5
102
}
330
7DE1B343D9D3DE5
100
AcDbDictionary
  0
DICTIONARY
  5
7DE1B343D9D3DE7
102
{ACAD_REACTORS
330
7DE1B343D9D3DE5
102
}
330
7DE1B343D9D3DE5
100
AcDbDictionary
  3
STANDARD
350
7DE1B343D9D3DF4
  0
DICTIONARY
  5
7DE1B343D9D3E0C
102
{ACAD_REACTORS
330
7DE1B343D9D3DE5
102
}
330
7DE1B343D9D3DE5
100
AcDbDictionary
  0
ACDBDICTIONARYWDFLT
  5
7DE1B343D9D3E09
102
{ACAD_REACTORS
330
7DE1B343D9D3DE5
102
}
330
7DE1B343D9D3DE5
100
AcDbDictionary
281
     1
  3
Normal
350
7DE1B343D9D3E0A
100
AcDbDictionaryWithDefault
340
7DE1B343D9D3E0A
  0
DICTIONARY
  5
7DE1B343D9D3E16
102
{ACAD_REACTORS
330
7DE1B343D9D3DE5
102
}
330
7DE1B343D9D3DE5
100
AcDbDictionary
  3
CEPSNTYPE
350
7DE1B343D9D3E20
  3
FINGERPRINTGUID
350
7DE1B343D9D3E21
  3
HYPERLINKBASE
350
7DE1B343D9D3E19
  3
INSUNITS
350
7DE1B343D9D3E1F
  3
LAYOUTDICT
350
7DE1B343D9D3E1B
  3
LWETCUNION
350
7DE1B343D9D3E1E
  3
PLOTSETDICT
350
7DE1B343D9D3E1C
  3
PLOTSTYLNAMDICT
350
7DE1B343D9D3E1D
  3
PSVPSCALE
350
7DE1B343D9D3E23
  3
PUCSBASE
350
7DE1B343D9D3E26
  3
PUCSORGBACK
350
7DE1B343D9D3E2C
  3
PUCSORGBOTTOM
350
7DE1B343D9D3E28
  3
PUCSORGFRONT
350
7DE1B343D9D3E2B
  3
PUCSORGLEFT
350
7DE1B343D9D3E29
  3
PUCSORGRIGHT
350
7DE1B343D9D3E2A
  3
PUCSORGTOP
350
7DE1B343D9D3E27
  3
PUCSORTHOREF
350
7DE1B343D9D3E24
  3
PUCSORTHOVIEW
350
7DE1B343D9D3E25
  3
STYLESHEET
350
7DE1B343D9D3E1A
  3
TSTACKALIGN
350
7DE1B343D9D3E17
  3
TSTACKSIZE
350
7DE1B343D9D3E18
  3
UCSBASE
350
7DE1B343D9D3E2F
  3
UCSORGBACK
350
7DE1B343D9D3E35
  3
UCSORGBOTTOM
350
7DE1B343D9D3E31
  3
UCSORGFRONT
350
7DE1B343D9D3E34
  3
UCSORGLEFT
350
7DE1B343D9D3E32
  3
UCSORGRIGHT
350
7DE1B343D9D3E33
  3
UCSORGTOP
350
7DE1B343D9D3E30
  3
UCSORTHOREF
350
7DE1B343D9D3E2D
  3
UCSORTHOVIEW
350
7DE1B343D9D3E2E
  3
VERSIONGUID
350
7DE1B343D9D3E22
  0
DICTIONARY
  5
7DE1B343D9D3E13
102
{ACAD_REACTORS
330
7DE1B343D9D3DE5
102
}
330
7DE1B343D9D3DE5
100
AcDbDictionary
  3
DIMASSOC
350
7DE1B343D9D3E14
  0
XRECORD
  5
7DE1B343D9D3E39
102
{ACAD_REACTORS
330
7DE1B343D9D3E38
102
}
330
7DE1B343D9D3E38
100
AcDbXrecord
340
7DE1B343D9D3DF1
  0
XRECORD
  5
7DE1B343D9D3E37
102
{ACAD_REACTORS
330
7DE1B343D9D3E36
102
}
330
7DE1B343D9D3E36
100
AcDbXrecord
340
7DE1B343D9D3DEE
  0
MLINESTYLE
  5
7DE1B343D9D3DF4
102
{ACAD_REACTORS
330
7DE1B343D9D3DE7
102
}
330
7DE1B343D9D3DE7
100
AcDbMlineStyle
  2
STANDARD
 70
     0
  3

 62
     0
 51
90.0
 52
90.0
 71
     2
 49
0.5
 62
   256
  6
BYLAYER
 49
-0.5
 62
   256
  6
BYLAYER
  0
ACDBPLACEHOLDER
  5
7DE1B343D9D3E0A
102
{ACAD_REACTORS
330
7DE1B343D9D3E09
102
}
330
7DE1B343D9D3E09
100
AcDbPlaceHolder
280
     0
  0
XRECORD
  5
7DE1B343D9D3E20
102
{ACAD_REACTORS
330
7DE1B343D9D3E16
102
}
330
7DE1B343D9D3E16
100
AcDbXrecord
 90
        0
  0
XRECORD
  5
7DE1B343D9D3E21
102
{ACAD_REACTORS
330
7DE1B343D9D3E16
102
}
330
7DE1B343D9D3E16
100
AcDbXrecord
  1
{B0AFB690-8DB4-11D6-88E6-0090279574E7}
  0
XRECORD
  5
7DE1B343D9D3E19
102
{ACAD_REACTORS
330
7DE1B343D9D3E16
102
}
330
7DE1B343D9D3E16
100
AcDbXrecord
  1

  0
XRECORD
  5
7DE1B343D9D3E1F
102
{ACAD_REACTORS
330
7DE1B343D9D3E16
102
}
330
7DE1B343D9D3E16
100
AcDbXrecord
 90
        0
  0
XRECORD
  5
7DE1B343D9D3E1B
102
{ACAD_REACTORS
330
7DE1B343D9D3E16
102
}
330
7DE1B343D9D3E16
100
AcDbXrecord
340
7DE1B343D9D3E0B
  0
XRECORD
  5
7DE1B343D9D3E1E
102
{ACAD_REACTORS
330
7DE1B343D9D3E16
102
}
330
7DE1B343D9D3E16
100
AcDbXrecord
 90
    14877
  0
XRECORD
  5
7DE1B343D9D3E1C
102
{ACAD_REACTORS
330
7DE1B343D9D3E16
102
}
330
7DE1B343D9D3E16
100
AcDbXrecord
340
7DE1B343D9D3E0C
  0
XRECORD
  5
7DE1B343D9D3E1D
102
{ACAD_REACTORS
330
7DE1B343D9D3E16
102
}
330
7DE1B343D9D3E16
100
AcDbXrecord
340
7DE1B343D9D3E09
  0
XRECORD
  5
7DE1B343D9D3E23
102
{ACAD_REACTORS
330
7DE1B343D9D3E16
102
}
330
7DE1B343D9D3E16
100
AcDbXrecord
 40
0.0
  0
XRECORD
  5
7DE1B343D9D3E26
102
{ACAD_REACTORS
330
7DE1B343D9D3E16
102
}
330
7DE1B343D9D3E16
100
AcDbXrecord
340
0
  0
XRECORD
  5
7DE1B343D9D3E2C
102
{ACAD_REACTORS
330
7DE1B343D9D3E16
102
}
330
7DE1B343D9D3E16
100
AcDbXrecord
 10
0.0
 20
0.0
 30
0.0
  0
XRECORD
  5
7DE1B343D9D3E28
102
{ACAD_REACTORS
330
7DE1B343D9D3E16
102
}
330
7DE1B343D9D3E16
100
AcDbXrecord
 10
0.0
 20
0.0
 30
0.0
  0
XRECORD
  5
7DE1B343D9D3E2B
102
{ACAD_REACTORS
330
7DE1B343D9D3E16
102
}
330
7DE1B343D9D3E16
100
AcDbXrecord
 10
0.0
 20
0.0
 30
0.0
  0
XRECORD
  5
7DE1B343D9D3E29
102
{ACAD_REACTORS
330
7DE1B343D9D3E16
102
}
330
7DE1B343D9D3E16
100
AcDbXrecord
 10
0.0
 20
0.0
 30
0.0
  0
XRECORD
  5
7DE1B343D9D3E2A
102
{ACAD_REACTORS
330
7DE1B343D9D3E16
102
}
330
7DE1B343D9D3E16
100
AcDbXrecord
 10
0.0
 20
0.0
 30
0.0
  0
XRECORD
  5
7DE1B343D9D3E27
102
{ACAD_REACTORS
330
7DE1B343D9D3E16
102
}
330
7DE1B343D9D3E16
100
AcDbXrecord
 10
0.0
 20
0.0
 30
0.0
  0
XRECORD
  5
7DE1B343D9D3E24
102
{ACAD_REACTORS
330
7DE1B343D9D3E16
102
}
330
7DE1B343D9D3E16
100
AcDbXrecord
340
0
  0
XRECORD
  5
7DE1B343D9D3E25
102
{ACAD_REACTORS
330
7DE1B343D9D3E16
102
}
330
7DE1B343D9D3E16
100
AcDbXrecord
 70
     0
  0
XRECORD
  5
7DE1B343D9D3E1A
102
{ACAD_REACTORS
330
7DE1B343D9D3E16
102
}
330
7DE1B343D9D3E16
100
AcDbXrecord
  1

  0
XRECORD
  5
7DE1B343D9D3E17
102
{ACAD_REACTORS
330
7DE1B343D9D3E16
102
}
330
7DE1B343D9D3E16
100
AcDbXrecord
 90
        1
  0
XRECORD
  5
7DE1B343D9D3E18
102
{ACAD_REACTORS
330
7DE1B343D9D3E16
102
}
330
7DE1B343D9D3E16
100
AcDbXrecord
 90
       70
  0
XRECORD
  5
7DE1B343D9D3E2F
102
{ACAD_REACTORS
330
7DE1B343D9D3E16
102
}
330
7DE1B343D9D3E16
100
AcDbXrecord
340
0
  0
XRECORD
  5
7DE1B343D9D3E35
102
{ACAD_REACTORS
330
7DE1B343D9D3E16
102
}
330
7DE1B343D9D3E16
100
AcDbXrecord
 10
0.0
 20
0.0
 30
0.0
  0
XRECORD
  5
7DE1B343D9D3E31
102
{ACAD_REACTORS
330
7DE1B343D9D3E16
102
}
330
7DE1B343D9D3E16
100
AcDbXrecord
 10
0.0
 20
0.0
 30
0.0
  0
XRECORD
  5
7DE1B343D9D3E34
102
{ACAD_REACTORS
330
7DE1B343D9D3E16
102
}
330
7DE1B343D9D3E16
100
AcDbXrecord
 10
0.0
 20
0.0
 30
0.0
  0
XRECORD
  5
7DE1B343D9D3E32
102
{ACAD_REACTORS
330
7DE1B343D9D3E16
102
}
330
7DE1B343D9D3E16
100
AcDbXrecord
 10
0.0
 20
0.0
 30
0.0
  0
XRECORD
  5
7DE1B343D9D3E33
102
{ACAD_REACTORS
330
7DE1B343D9D3E16
102
}
330
7DE1B343D9D3E16
100
AcDbXrecord
 10
0.0
 20
0.0
 30
0.0
  0
XRECORD
  5
7DE1B343D9D3E30
102
{ACAD_REACTORS
330
7DE1B343D9D3E16
102
}
330
7DE1B343D9D3E16
100
AcDbXrecord
 10
0.0
 20
0.0
 30
0.0
  0
XRECORD
  5
7DE1B343D9D3E2D
102
{ACAD_REACTORS
330
7DE1B343D9D3E16
102
}
330
7DE1B343D9D3E16
100
AcDbXrecord
340
0
  0
XRECORD
  5
7DE1B343D9D3E2E
102
{ACAD_REACTORS
330
7DE1B343D9D3E16
102
}
330
7DE1B343D9D3E16
100
AcDbXrecord
 70
     0
  0
XRECORD
  5
7DE1B343D9D3E22
102
{ACAD_REACTORS
330
7DE1B343D9D3E16
102
}
330
7DE1B343D9D3E16
100
AcDbXrecord
  1
{B0AFB692-8DB4-11D6-88E6-0090279574E7}
  0
DICTIONARYVAR
  5
7DE1B343D9D3E14
102
{ACAD_REACTORS
330
7DE1B343D9D3E13
102
}
330
7DE1B343D9D3E13
100
DictionaryVariables
280
     0
  1
1
  0
ENDSEC
  0
EOF
