  0
SECTION
  2
HEADER
  9
$ACADVER
  1
AC1014
  9
$ACADMAINTVER
 70
     9
  9
$DWGCODEPAGE
  3
ANSI_1252
  9
$INSBASE
 10
0.5929939400376201
 20
0.6719446170906949
 30
0.0
  9
$EXTMIN
 10
-0.1499876391895232
 20
-0.0419988109381933
 30
0.0
  9
$EXTMAX
 10
3.335231682557604
 20
2.671944617090694
 30
0.0
  9
$LIMMIN
 10
0.0
 20
0.0
  9
$LIMMAX
 10
18.0
 20
12.0
  9
$ORTHOMODE
 70
     1
  9
$REGENMODE
 70
     1
  9
$FILLMODE
 70
     1
  9
$QTEXTMODE
 70
     0
  9
$MIRRTEXT
 70
     0
  9
$DRAGMODE
 70
     2
  9
$LTSCALE
 40
1.0
  9
$OSMODE
 70
    39
  9
$ATTMODE
 70
     1
  9
$TEXTSIZE
 40
0.125
  9
$TRACEWID
 40
0.05
  9
$TEXTSTYLE
  7
ROMANS
  9
$CLAYER
  8
0
  9
$CELTYPE
  6
BYLAYER
  9
$CECOLOR
 62
   256
  9
$CELTSCALE
 40
1.0
  9
$DELOBJ
 70
     1
  9
$DISPSILH
 70
     1
  9
$DIMSCALE
 40
1.0
  9
$DIMASZ
 40
0.125
  9
$DIMEXO
 40
0.125
  9
$DIMDLI
 40
0.375
  9
$DIMRND
 40
0.0
  9
$DIMDLE
 40
0.0
  9
$DIMEXE
 40
0.125
  9
$DIMTP
 40
0.0
  9
$DIMTM
 40
0.0
  9
$DIMTXT
 40
0.125
  9
$DIMCEN
 40
-0.125
  9
$DIMTSZ
 40
0.0
  9
$DIMTOL
 70
     0
  9
$DIMLIM
 70
     0
  9
$DIMTIH
 70
     1
  9
$DIMTOH
 70
     1
  9
$DIMSE1
 70
     0
  9
$DIMSE2
 70
     0
  9
$DIMTAD
 70
     0
  9
$DIMZIN
 70
     4
  9
$DIMBLK
  1

  9
$DIMASO
 70
     1
  9
$DIMSHO
 70
     1
  9
$DIMPOST
  1

  9
$DIMAPOST
  1

  9
$DIMALT
 70
     0
  9
$DIMALTD
 70
     2
  9
$DIMALTF
 40
25.4
  9
$DIMLFAC
 40
1.0
  9
$DIMTOFL
 70
     0
  9
$DIMTVP
 40
0.0
  9
$DIMTIX
 70
     1
  9
$DIMSOXD
 70
     0
  9
$DIMSAH
 70
     0
  9
$DIMBLK1
  1

  9
$DIMBLK2
  1

  9
$DIMSTYLE
  2
STANDARD
  9
$DIMCLRD
 70
     0
  9
$DIMCLRE
 70
     0
  9
$DIMCLRT
 70
     0
  9
$DIMTFAC
 40
1.0
  9
$DIMGAP
 40
0.09
  9
$DIMJUST
 70
     0
  9
$DIMSD1
 70
     0
  9
$DIMSD2
 70
     0
  9
$DIMTOLJ
 70
     1
  9
$DIMTZIN
 70
     4
  9
$DIMALTZ
 70
     0
  9
$DIMALTTZ
 70
     0
  9
$DIMFIT
 70
     3
  9
$DIMUPT
 70
     0
  9
$DIMUNIT
 70
     2
  9
$DIMDEC
 70
     3
  9
$DIMTDEC
 70
     3
  9
$DIMALTU
 70
     2
  9
$DIMALTTD
 70
     2
  9
$DIMTXSTY
  7
ROMANS
  9
$DIMAUNIT
 70
     0
  9
$LUNITS
 70
     2
  9
$LUPREC
 70
     3
  9
$SKETCHINC
 40
0.1
  9
$FILLETRAD
 40
0.03125
  9
$AUNITS
 70
     0
  9
$AUPREC
 70
     0
  9
$MENU
  1
ACAD
  9
$ELEVATION
 40
0.0
  9
$PELEVATION
 40
0.0
  9
$THICKNESS
 40
0.0
  9
$LIMCHECK
 70
     0
  9
$BLIPMODE
 70
     0
  9
$CHAMFERA
 40
0.0
  9
$CHAMFERB
 40
0.0
  9
$CHAMFERC
 40
0.0
  9
$CHAMFERD
 40
0.0
  9
$SKPOLY
 70
     0
  9
$TDCREATE
 40
2448994.365610416
  9
$TDUPDATE
 40
2452458.298840914
  9
$TDINDWG
 40
0.0006623264
  9
$TDUSRTIMER
 40
0.0006623264
  9
$USRTIMER
 70
     1
  9
$ANGBASE
 50
0.0
  9
$ANGDIR
 70
     0
  9
$PDMODE
 70
     0
  9
$PDSIZE
 40
0.0
  9
$PLINEWID
 40
0.0
  9
$COORDS
 70
     2
  9
$SPLFRAME
 70
     0
  9
$SPLINETYPE
 70
     6
  9
$SPLINESEGS
 70
     8
  9
$ATTDIA
 70
     0
  9
$ATTREQ
 70
     1
  9
$HANDLING
 70
 22529
  9
$HANDSEED
  5
7DE1B343D9D3AE7
  9
$SURFTAB1
 70
     6
  9
$SURFTAB2
 70
     6
  9
$SURFTYPE
 70
     6
  9
$SURFU
 70
     6
  9
$SURFV
 70
     6
  9
$UCSNAME
  2

  9
$UCSORG
 10
0.0
 20
0.0
 30
0.0
  9
$UCSXDIR
 10
1.0
 20
0.0
 30
0.0
  9
$UCSYDIR
 10
0.0
 20
1.0
 30
0.0
  9
$PUCSNAME
  2

  9
$PUCSORG
 10
0.0
 20
0.0
 30
0.0
  9
$PUCSXDIR
 10
1.0
 20
0.0
 30
0.0
  9
$PUCSYDIR
 10
0.0
 20
1.0
 30
0.0
  9
$USERI1
 70
     0
  9
$USERI2
 70
     0
  9
$USERI3
 70
     0
  9
$USERI4
 70
     0
  9
$USERI5
 70
     0
  9
$USERR1
 40
0.0
  9
$USERR2
 40
0.0
  9
$USERR3
 40
0.0
  9
$USERR4
 40
0.0
  9
$USERR5
 40
0.0
  9
$WORLDVIEW
 70
     1
  9
$SHADEDGE
 70
     3
  9
$SHADEDIF
 70
    70
  9
$TILEMODE
 70
     1
  9
$MAXACTVP
 70
    16
  9
$PINSBASE
 10
0.6916063815530532
 20
50.00000000000001
 30
0.7469512088911276
  9
$PLIMCHECK
 70
     0
  9
$PEXTMIN
 10
1.000000000000000E+20
 20
1.000000000000000E+20
 30
1.000000000000000E+20
  9
$PEXTMAX
 10
-1.000000000000000E+20
 20
-1.000000000000000E+20
 30
-1.000000000000000E+20
  9
$PLIMMIN
 10
0.0
 20
0.0
  9
$PLIMMAX
 10
12.0
 20
9.0
  9
$UNITMODE
 70
     0
  9
$VISRETAIN
 70
     0
  9
$PLINEGEN
 70
     1
  9
$PSLTSCALE
 70
     0
  9
$TREEDEPTH
 70
  3020
  9
$PICKSTYLE
 70
     1
  9
$CMLSTYLE
  2
STANDARD
  9
$CMLJUST
 70
     0
  9
$CMLSCALE
 40
1.0
  9
$PROXYGRAPHICS
 70
     1
  9
$MEASUREMENT
 70
     0
  0
ENDSEC
  0
SECTION
  2
CLASSES
  0
CLASS
  1
LWPOLYLINE
  2
AcDbPolyline
  3
AutoCAD 2000
 90
        0
280
     0
281
     1
  0
CLASS
  1
ACDBDICTIONARYWDFLT
  2
AcDbDictionaryWithDefault
  3
AutoCAD 2000
 90
        0
280
     0
281
     0
  0
CLASS
  1
ACDBPLACEHOLDER
  2
AcDbPlaceHolder
  3
AutoCAD 2000
 90
        0
280
     0
281
     0
  0
CLASS
  1
LAYOUT
  2
AcDbLayout
  3
AutoCAD 2000
 90
        0
280
     0
281
     0
  0
CLASS
  1
DICTIONARYVAR
  2
AcDbDictionaryVar
  3
AutoCAD 2000
 90
        0
280
     0
281
     0
  0
CLASS
  1
LONG_TRANSACTION
  2
AcDbLongTransaction
  3
AutoCAD 2000
 90
        0
280
     0
281
     0
  0
CLASS
  1
LWPOLYLINE
  2
AcDbPolyline
  3
AutoCAD 2000
 90
        0
280
     0
281
     1
  0
CLASS
  1
HATCH
  2
AcDbHatch
  3
AutoCAD 2000
 90
        0
280
     0
281
     1
  0
CLASS
  1
XRECORD
  2
AcDbXrecord
  3
AutoCAD 2000
 90
        0
280
     0
281
     0
  0
ENDSEC
  0
SECTION
  2
TABLES
  0
TABLE
  2
VPORT
  5
7DE1B343D9D3A8E
330
0
100
AcDbSymbolTable
 70
     2
  0
VPORT
  5
7DE1B343D9D3AC2
330
7DE1B343D9D3A8E
100
AcDbSymbolTableRecord
100
AcDbViewportTableRecord
  2
*ACTIVE
 70
     0
 10
0.0
 20
0.0
 11
1.0
 21
1.0
 12
5.589145646430047
 22
1.315059656161063
 13
0.0
 23
0.0
 14
0.015625
 24
0.015625
 15
0.0
 25
0.0
 16
0.0
 26
0.0
 36
1.0
 17
0.0
 27
0.0
 37
0.0
 40
3.064895151792343
 41
4.320930232558139
 42
50.0
 43
0.0
 44
0.0
 50
0.0
 51
0.0
 71
     0
 72
  2000
 73
     1
 74
     0
 75
     0
 76
     0
 77
     0
 78
     0
  0
ENDTAB
  0
TABLE
  2
LTYPE
  5
7DE1B343D9D3A8B
330
0
100
AcDbSymbolTable
 70
     1
  0
LTYPE
  5
7DE1B343D9D3A98
330
7DE1B343D9D3A8B
100
AcDbSymbolTableRecord
100
AcDbLinetypeTableRecord
  2
BYBLOCK
 70
     0
  3

 72
    65
 73
     0
 40
0.0
  0
LTYPE
  5
7DE1B343D9D3A99
330
7DE1B343D9D3A8B
100
AcDbSymbolTableRecord
100
AcDbLinetypeTableRecord
  2
BYLAYER
 70
     0
  3

 72
    65
 73
     0
 40
0.0
  0
LTYPE
  5
7DE1B343D9D3A9A
330
7DE1B343D9D3A8B
100
AcDbSymbolTableRecord
100
AcDbLinetypeTableRecord
  2
CONTINUOUS
 70
     0
  3
Solid line
 72
    65
 73
     0
 40
0.0
  0
ENDTAB
  0
TABLE
  2
LAYER
  5
7DE1B343D9D3A88
330
0
100
AcDbSymbolTable
 70
     2
  0
LAYER
  5
7DE1B343D9D3A95
330
7DE1B343D9D3A88
100
AcDbSymbolTableRecord
100
AcDbLayerTableRecord
  2
0
 70
     0
 62
     7
  6
CONTINUOUS
  0
LAYER
  5
7DE1B343D9D3AA5
330
7DE1B343D9D3A88
100
AcDbSymbolTableRecord
100
AcDbLayerTableRecord
  2
TEXT
 70
     0
 62
     3
  6
CONTINUOUS
  0
ENDTAB
  0
TABLE
  2
STYLE
  5
7DE1B343D9D3A89
330
0
100
AcDbSymbolTable
 70
     3
  0
STYLE
  5
7DE1B343D9D3A96
330
7DE1B343D9D3A89
100
AcDbSymbolTableRecord
100
AcDbTextStyleTableRecord
  2
STANDARD
 70
     0
 40
0.0
 41
1.0
 50
0.0
 71
     0
 42
0.3125
  3
txt
  4

  0
STYLE
  5
7DE1B343D9D3AA2
330
7DE1B343D9D3A89
100
AcDbSymbolTableRecord
100
AcDbTextStyleTableRecord
  2
ITALICC
 70
     0
 40
0.0
 41
1.0
 50
0.0
 71
     0
 42
0.125
  3
italicc
  4

  0
STYLE
  5
7DE1B343D9D3AB2
330
7DE1B343D9D3A89
100
AcDbSymbolTableRecord
100
AcDbTextStyleTableRecord
  2
ROMANS
 70
     0
 40
0.0
 41
1.0
 50
0.0
 71
     0
 42
0.125
  3
romans.shx
  4

  0
ENDTAB
  0
TABLE
  2
VIEW
  5
7DE1B343D9D3A8C
330
0
100
AcDbSymbolTable
 70
     0
  0
ENDTAB
  0
TABLE
  2
UCS
  5
7DE1B343D9D3A8D
330
0
100
AcDbSymbolTable
 70
     0
  0
ENDTAB
  0
TABLE
  2
APPID
  5
7DE1B343D9D3A8F
330
0
100
AcDbSymbolTable
 70
     1
  0
APPID
  5
7DE1B343D9D3A97
330
7DE1B343D9D3A8F
100
AcDbSymbolTableRecord
100
AcDbRegAppTableRecord
  2
ACAD
 70
     0
  0
ENDTAB
  0
TABLE
  2
DIMSTYLE
  5
7DE1B343D9D3A90
330
0
100
AcDbSymbolTable
 70
     1
  0
DIMSTYLE
105
7DE1B343D9D3AAA
330
7DE1B343D9D3A90
100
AcDbSymbolTableRecord
100
AcDbDimStyleTableRecord
  2
STANDARD
 70
     0
  3

  4

  5

  6

  7

 40
1.0
 41
0.125
 42
0.125
 43
0.375
 44
0.125
 45
0.0
 46
0.0
 47
0.0
 48
0.0
140
0.125
141
-0.125
142
0.0
143
25.4
144
1.0
145
0.0
146
1.0
147
0.09
 71
     0
 72
     0
 73
     1
 74
     1
 75
     0
 76
     0
 77
     0
 78
     4
170
     0
171
     2
172
     0
173
     0
174
     1
175
     0
176
     0
177
     0
178
     0
270
     2
271
     3
272
     3
273
     2
274
     2
340
7DE1B343D9D3AB2
275
     0
280
     0
281
     0
282
     0
283
     1
284
     4
285
     0
286
     0
287
     3
288
     0
  0
ENDTAB
  0
TABLE
  2
BLOCK_RECORD
  5
7DE1B343D9D3A87
330
0
100
AcDbSymbolTable
 70
     0
  0
BLOCK_RECORD
  5
7DE1B343D9D3A9E
102
{ACAD_XDICTIONARY
360
7DE1B343D9D3AE5
102
}
330
7DE1B343D9D3A87
100
AcDbSymbolTableRecord
100
AcDbBlockTableRecord
  2
*MODEL_SPACE
  0
BLOCK_RECORD
  5
7DE1B343D9D3A9B
102
{ACAD_XDICTIONARY
360
7DE1B343D9D3AE3
102
}
330
7DE1B343D9D3A87
100
AcDbSymbolTableRecord
100
AcDbBlockTableRecord
  2
*PAPER_SPACE
  0
ENDTAB
  0
ENDSEC
  0
SECTION
  2
BLOCKS
  0
BLOCK
  5
7DE1B343D9D3AA8
330
7DE1B343D9D3A9E
100
AcDbEntity
  8
0
100
AcDbBlockBegin
  2
*MODEL_SPACE
 70
     0
 10
0.0
 20
0.0
 30
0.0
  3
*MODEL_SPACE
  1

  0
ENDBLK
  5
7DE1B343D9D3AA9
330
7DE1B343D9D3A9E
100
AcDbEntity
  8
0
100
AcDbBlockEnd
  0
BLOCK
  5
7DE1B343D9D3AA6
330
7DE1B343D9D3A9B
100
AcDbEntity
 67
     1
  8
0
100
AcDbBlockBegin
  2
*PAPER_SPACE
 70
     0
 10
0.0
 20
0.0
 30
0.0
  3
*PAPER_SPACE
  1

  0
ENDBLK
  5
7DE1B343D9D3AA7
330
7DE1B343D9D3A9B
100
AcDbEntity
 67
     1
  8
0
100
AcDbBlockEnd
  0
ENDSEC
  0
SECTION
  2
ENTITIES
  0
LWPOLYLINE
  5
7DE1B343D9D26C1
330
7DE1B343D9D3A9E
100
AcDbEntity
  8
0
100
AcDbPolyline
 90
        6
 70
     1
 43
0.0
 10
0.5929939400376201
 20
2.671944617090694
 10
0.5929939400376201
 20
0.6719446170906949
 10
2.59299394003762
 20
0.6719446170906949
 10
2.59299394003762
 20
0.7969446170906949
 10
0.7179939400376201
 20
0.7969446170906949
 10
0.7179939400376201
 20
2.671944617090694
  0
TEXT
  5
7DE1B343D9D3949
330
7DE1B343D9D3A9E
100
AcDbEntity
  8
TEXT
100
AcDbText
 10
0.8370415590852386
 20
0.4160197931443883
 30
0.0
 40
0.125
  1
PART #110167
  7
ITALICC
 72
     1
 11
1.59299394003762
 21
0.4160197931443883
 31
0.0
100
AcDbText
  0
TEXT
  5
7DE1B343D9D394A
330
7DE1B343D9D3A9E
100
AcDbEntity
  8
TEXT
100
AcDbText
 10
2.00629909828794
 20
-0.030902849527987
 30
0.0
 40
0.0522247191011236
  1
Phone  1-800-328-2495
 41
1.272321428571429
 72
     5
 11
3.335231682557604
 21
-0.030902849527987
 31
0.0
100
AcDbText
  0
TEXT
  5
7DE1B343D9D394B
330
7DE1B343D9D3A9E
100
AcDbEntity
  8
TEXT
100
AcDbText
 10
2.00629909828794
 20
0.2488724313708896
 30
0.0
 40
0.0522247191011236
  1
Stylmark  Incorporated
 41
1.221428571428573
 72
     5
 11
3.335231682557604
 21
0.2488724313708896
 31
0.0
100
AcDbText
  0
TEXT
  5
7DE1B343D9D394C
330
7DE1B343D9D3A9E
100
AcDbEntity
  8
TEXT
100
AcDbText
 10
2.00629909828794
 20
0.1556140044045974
 30
0.0
 40
0.0522247191011236
  1
6536 Main St. N.E. * P.O. Box 32008
 41
0.8388932496075366
 72
     5
 11
3.335231682557604
 21
0.1556140044045974
 31
0.0
100
AcDbText
  0
TEXT
  5
7DE1B343D9D394D
330
7DE1B343D9D3A9E
100
AcDbEntity
  8
TEXT
100
AcDbText
 10
2.00629909828794
 20
0.0623555774383052
 30
0.0
 40
0.0522247191011236
  1
Minneapolis, MN 55432-0008
 41
1.11444212721585
 72
     5
 11
3.335231682557604
 21
0.0623555774383052
 31
0.0
100
AcDbText
  0
LWPOLYLINE
  5
7DE1B343D9D394E
330
7DE1B343D9D3A9E
100
AcDbEntity
  8
TEXT
100
AcDbPolyline
 90
        3
 70
     0
 43
0.0006660908203125
 10
-0.149654593779367
 20
0.0827419131094479
 10
-0.149654593779367
 20
-0.0304935263436798
 10
-0.0364191543262447
 20
-0.0304935263436798
  0
LWPOLYLINE
  5
7DE1B343D9D3953
330
7DE1B343D9D3A9E
100
AcDbEntity
  8
TEXT
100
AcDbPolyline
 90
        3
 70
     0
 43
0.0006660908203125
 10
-0.1230109609668695
 20
0.0827419131094479
 10
-0.1230109609668695
 20
-0.0038498935311787
 10
-0.0364191543262447
 20
-0.0038498935311787
  0
LWPOLYLINE
  5
7DE1B343D9D3958
330
7DE1B343D9D3A9E
100
AcDbEntity
  8
TEXT
100
AcDbPolyline
 90
        2
 70
     0
 43
0.0001332181640625
 10
-0.0763846035449927
 20
0.0927332754141331
 10
-0.149654593779367
 20
0.0827419131094479
  0
LWPOLYLINE
  5
7DE1B343D9D395C
330
7DE1B343D9D3A9E
100
AcDbEntity
  8
TEXT
100
AcDbPolyline
 90
        2
 70
     0
 43
0.0001332181640625
 10
-0.1230109609668695
 20
0.0827419131094479
 10
-0.0630627871387422
 20
0.0927332754141331
  0
LWPOLYLINE
  5
7DE1B343D9D3960
330
7DE1B343D9D3A9E
100
AcDbEntity
  8
TEXT
100
AcDbPolyline
 90
        2
 70
     0
 43
0.0001332181640625
 10
-0.1230109609668695
 20
-0.0038498935311787
 10
-0.0630627871387422
 20
0.0560982802969469
  0
LWPOLYLINE
  5
7DE1B343D9D3964
330
7DE1B343D9D3A9E
100
AcDbEntity
  8
TEXT
100
AcDbPolyline
 90
        3
 70
     0
 43
0.0006660908203125
 10
-0.0364191543262447
 20
0.2359428017813236
 10
-0.149654593779367
 20
0.2359428017813236
 10
-0.149654593779367
 20
0.1227073623281959
  0
LWPOLYLINE
  5
7DE1B343D9D3969
330
7DE1B343D9D3A9E
100
AcDbEntity
  8
TEXT
100
AcDbPolyline
 90
        3
 70
     0
 43
0.0006660908203125
 10
-0.0364191543262447
 20
0.2092991689688225
 10
-0.1230109609668695
 20
0.2092991689688225
 10
-0.1230109609668695
 20
0.1227073623281959
  0
LWPOLYLINE
  5
7DE1B343D9D396E
330
7DE1B343D9D3A9E
100
AcDbEntity
  8
TEXT
100
AcDbPolyline
 90
        2
 70
     0
 43
0.0001332181640625
 10
-0.1230109609668695
 20
0.2092991689688225
 10
-0.0630627871387439
 20
0.1493509951406969
  0
LWPOLYLINE
  5
7DE1B343D9D3972
330
7DE1B343D9D3A9E
100
AcDbEntity
  8
TEXT
100
AcDbPolyline
 90
        2
 70
     0
 43
0.0001332181640625
 10
-0.1230109609668695
 20
0.1227073623281959
 10
-0.0630627871387439
 20
0.1127160000235071
  0
LWPOLYLINE
  5
7DE1B343D9D3976
330
7DE1B343D9D3A9E
100
AcDbEntity
  8
TEXT
100
AcDbPolyline
 90
        2
 70
     0
 43
0.0001332181640625
 10
-0.149654593779367
 20
0.1227073623281959
 10
-0.0763846035449927
 20
0.1127160000235071
  0
LWPOLYLINE
  5
7DE1B343D9D397A
330
7DE1B343D9D3A9E
100
AcDbEntity
  8
TEXT
100
AcDbPolyline
 90
        2
 70
     0
 43
0.0006660908203125
 10
-0.1230109609668695
 20
0.0827419131094479
 10
-0.149654593779367
 20
0.0827419131094479
  0
LWPOLYLINE
  5
7DE1B343D9D397E
330
7DE1B343D9D3A9E
100
AcDbEntity
  8
TEXT
100
AcDbPolyline
 90
        2
 70
     0
 43
0.0006660908203125
 10
-0.1230109609668695
 20
0.1227073623281959
 10
-0.149654593779367
 20
0.1227073623281959
  0
LINE
  5
7DE1B343D9D3982
330
7DE1B343D9D3A9E
100
AcDbEntity
  8
TEXT
100
AcDbLine
 10
1.36553583534713
 20
0.1716661071245545
 30
0.0
 11
1.258329561959841
 21
0.1716661071245545
 31
0.0
  0
LINE
  5
7DE1B343D9D3983
330
7DE1B343D9D3A9E
100
AcDbEntity
  8
TEXT
100
AcDbLine
 10
1.394566733691608
 20
0.23594280178132
 30
0.0
 11
1.259734824474549
 21
0.23594280178132
 31
0.0
  0
ARC
  5
7DE1B343D9D3984
330
7DE1B343D9D3A9E
100
AcDbEntity
  8
TEXT
100
AcDbCircle
 10
1.319048920867866
 20
0.0667055525183037
 30
0.0
 40
0.0676855811441166
100
AcDbArc
 50
90.0
 51
153.7768192527749
  0
LWPOLYLINE
  5
7DE1B343D9D3985
330
7DE1B343D9D3A9E
100
AcDbEntity
  8
TEXT
100
AcDbPolyline
 90
        2
 70
     0
 43
0.0
 10
1.257297066505031
 20
0.0129607137432472
 42
0.2901071551932823
 10
1.300372999372666
 20
-0.030530231207191
 42
5.328517124445801
  0
ARC
  5
7DE1B343D9D3989
330
7DE1B343D9D3A9E
100
AcDbEntity
  8
TEXT
100
AcDbCircle
 10
0.6139175431963811
 20
0.0292621601308588
 30
0.0
 40
0.0601160179737537
100
AcDbArc
 50
180.0000000000003
 51
264.0521544866073
  0
LINE
  5
7DE1B343D9D398A
330
7DE1B343D9D3A9E
100
AcDbEntity
  8
TEXT
100
AcDbLine
 10
0.6174328988219289
 20
0.2703307193754582
 30
0.0
 11
0.5573902939779219
 21
0.2703307193754582
 31
0.0
  0
ARC
  5
7DE1B343D9D398B
330
7DE1B343D9D3A9E
100
AcDbEntity
  8
TEXT
100
AcDbCircle
 10
0.3816585410794104
 20
0.1538553423348182
 30
0.0
 40
0.0820874594465043
100
AcDbArc
 50
90.0
 51
270.0
  0
LWPOLYLINE
  5
7DE1B343D9D398C
330
7DE1B343D9D3A9E
100
AcDbEntity
  8
TEXT
100
AcDbPolyline
 90
        2
 70
     0
 43
0.0001332181640625
 10
-0.0264277920215541
 20
0.1626728115469439
 10
-0.0364191543262447
 20
0.2359428017813236
  0
LWPOLYLINE
  5
7DE1B343D9D3990
330
7DE1B343D9D3A9E
100
AcDbEntity
  8
TEXT
100
AcDbPolyline
 90
        2
 70
     0
 43
0.0001332181640625
 10
-0.0364191543262447
 20
0.2092991689688225
 10
-0.0264277920215541
 20
0.1493509951406969
  0
LWPOLYLINE
  5
7DE1B343D9D3994
330
7DE1B343D9D3A9E
100
AcDbEntity
  8
TEXT
100
AcDbPolyline
 90
        3
 70
     0
 43
0.0006660908203125
 10
0.1167817343456328
 20
0.1227073623281959
 10
0.1167817343456328
 20
0.2359428017813236
 10
0.0035462948925069
 20
0.2359428017813236
  0
LWPOLYLINE
  5
7DE1B343D9D3999
330
7DE1B343D9D3A9E
100
AcDbEntity
  8
TEXT
100
AcDbPolyline
 90
        3
 70
     0
 43
0.0006660908203125
 10
0.0901381015331318
 20
0.1227073623281959
 10
0.0901381015331318
 20
0.2092991689688225
 10
0.0035462948925069
 20
0.2092991689688225
  0
LWPOLYLINE
  5
7DE1B343D9D399E
330
7DE1B343D9D3A9E
100
AcDbEntity
  8
TEXT
100
AcDbPolyline
 90
        2
 70
     0
 43
0.0001332181640625
 10
0.0901381015331318
 20
0.2092991689688225
 10
0.030189927705008
 20
0.1493509951406969
  0
LWPOLYLINE
  5
7DE1B343D9D39A2
330
7DE1B343D9D3A9E
100
AcDbEntity
  8
TEXT
100
AcDbPolyline
 90
        2
 70
     0
 43
0.0001332181640625
 10
0.0035462948925069
 20
0.2092991689688225
 10
-0.0064450674121819
 20
0.1493509951406969
  0
LWPOLYLINE
  5
7DE1B343D9D39A6
330
7DE1B343D9D3A9E
100
AcDbEntity
  8
TEXT
100
AcDbPolyline
 90
        2
 70
     0
 43
0.0001332181640625
 10
0.0035462948925069
 20
0.2359428017813236
 10
-0.0064450674121819
 20
0.1626728115469439
  0
LWPOLYLINE
  5
7DE1B343D9D39AA
330
7DE1B343D9D3A9E
100
AcDbEntity
  8
TEXT
100
AcDbPolyline
 90
        2
 70
     0
 43
0.0001332181640625
 10
0.0435117441112567
 20
0.1127160000235071
 10
0.1167817343456328
 20
0.1227073623281959
  0
LWPOLYLINE
  5
7DE1B343D9D39AE
330
7DE1B343D9D3A9E
100
AcDbEntity
  8
TEXT
100
AcDbPolyline
 90
        2
 70
     0
 43
0.0001332181640625
 10
0.0901381015331318
 20
0.1227073623281959
 10
0.030189927705008
 20
0.1127160000235071
  0
LWPOLYLINE
  5
7DE1B343D9D39B2
330
7DE1B343D9D3A9E
100
AcDbEntity
  8
TEXT
100
AcDbPolyline
 90
        2
 70
     0
 43
0.0001332181640625
 10
0.1167817343456328
 20
0.0827419131094479
 10
0.0435117441112567
 20
0.0927332754141331
  0
LWPOLYLINE
  5
7DE1B343D9D39B6
330
7DE1B343D9D3A9E
100
AcDbEntity
  8
TEXT
100
AcDbPolyline
 90
        2
 70
     0
 43
0.0001332181640625
 10
0.0901381015331318
 20
0.0827419131094479
 10
0.030189927705008
 20
0.0927332754141331
  0
LWPOLYLINE
  5
7DE1B343D9D39BA
330
7DE1B343D9D3A9E
100
AcDbEntity
  8
TEXT
100
AcDbPolyline
 90
        2
 70
     0
 43
0.0001332181640625
 10
0.0901381015331318
 20
-0.0038498935311787
 10
0.030189927705008
 20
0.0560982802969469
  0
LWPOLYLINE
  5
7DE1B343D9D39BE
330
7DE1B343D9D3A9E
100
AcDbEntity
  8
TEXT
100
AcDbPolyline
 90
        3
 70
     0
 43
0.0006660908203125
 10
0.0035462948925069
 20
-0.0038498935311787
 10
0.0901381015331318
 20
-0.0038498935311787
 10
0.0901381015331318
 20
0.0827419131094479
  0
LWPOLYLINE
  5
7DE1B343D9D39C3
330
7DE1B343D9D3A9E
100
AcDbEntity
  8
TEXT
100
AcDbPolyline
 90
        3
 70
     0
 43
0.0006660908203125
 10
0.0035462948925069
 20
-0.0304935263436798
 10
0.1167817343456328
 20
-0.0304935263436798
 10
0.1167817343456328
 20
0.0827419131094479
  0
LWPOLYLINE
  5
7DE1B343D9D39C8
330
7DE1B343D9D3A9E
100
AcDbEntity
  8
TEXT
100
AcDbPolyline
 90
        5
 70
     0
 43
0.0001332181640625
 10
-0.0264277920215541
 20
0.0427764638906964
 10
-0.0264277920215541
 20
0.0560982802969469
 10
-0.0630627871387422
 20
0.0560982802969469
 10
-0.0630627871387422
 20
0.0927332754141331
 10
-0.0763846035449927
 20
0.0927332754141331
  0
LWPOLYLINE
  5
7DE1B343D9D39CF
330
7DE1B343D9D3A9E
100
AcDbEntity
  8
TEXT
100
AcDbPolyline
 90
        2
 70
     0
 43
0.0006660908203125
 10
-0.0364191543262447
 20
-0.0038498935311787
 10
-0.0364191543262447
 20
-0.0304935263436798
  0
LWPOLYLINE
  5
7DE1B343D9D39D3
330
7DE1B343D9D3A9E
100
AcDbEntity
  8
TEXT
100
AcDbPolyline
 90
        2
 70
     0
 43
0.0001332181640625
 10
-0.0364191543262447
 20
-0.0038498935311787
 10
-0.0264277920215541
 20
0.0560982802969469
  0
LWPOLYLINE
  5
7DE1B343D9D39D7
330
7DE1B343D9D3A9E
100
AcDbEntity
  8
TEXT
100
AcDbPolyline
 90
        2
 70
     0
 43
0.0001332181640625
 10
-0.0364191543262447
 20
-0.0304935263436798
 10
-0.0264277920215541
 20
0.0427764638906964
  0
LWPOLYLINE
  5
7DE1B343D9D39DB
330
7DE1B343D9D3A9E
100
AcDbEntity
  8
TEXT
100
AcDbPolyline
 90
        5
 70
     0
 43
0.0001332181640625
 10
-0.0763846035449927
 20
0.1127160000235071
 10
-0.0630627871387439
 20
0.1127160000235071
 10
-0.0630627871387439
 20
0.1493509951406969
 10
-0.0264277920215541
 20
0.1493509951406969
 10
-0.0264277920215541
 20
0.1626728115469439
  0
LWPOLYLINE
  5
7DE1B343D9D39E2
330
7DE1B343D9D3A9E
100
AcDbEntity
  8
TEXT
100
AcDbPolyline
 90
        5
 70
     0
 43
0.0001332181640625
 10
-0.0064450674121819
 20
0.1626728115469439
 10
-0.0064450674121819
 20
0.1493509951406969
 10
0.030189927705008
 20
0.1493509951406969
 10
0.030189927705008
 20
0.1127160000235071
 10
0.0435117441112567
 20
0.1127160000235071
  0
LWPOLYLINE
  5
7DE1B343D9D39E9
330
7DE1B343D9D3A9E
100
AcDbEntity
  8
TEXT
100
AcDbPolyline
 90
        2
 70
     0
 43
0.0001332181640625
 10
0.0035462948925069
 20
-0.0038498935311787
 10
-0.0064450674121819
 20
0.0560982802969469
  0
LWPOLYLINE
  5
7DE1B343D9D39ED
330
7DE1B343D9D3A9E
100
AcDbEntity
  8
TEXT
100
AcDbPolyline
 90
        2
 70
     0
 43
0.0001332181640625
 10
-0.0064450674121819
 20
0.0427764638906964
 10
0.0035462948925069
 20
-0.0304935263436798
  0
LWPOLYLINE
  5
7DE1B343D9D39F1
330
7DE1B343D9D3A9E
100
AcDbEntity
  8
TEXT
100
AcDbPolyline
 90
        2
 70
     0
 43
0.0006660908203125
 10
0.0035462948925069
 20
-0.0038498935311787
 10
0.0035462948925069
 20
-0.0304935263436798
  0
LWPOLYLINE
  5
7DE1B343D9D39F5
330
7DE1B343D9D3A9E
100
AcDbEntity
  8
TEXT
100
AcDbPolyline
 90
        5
 70
     0
 43
0.0001332181640625
 10
0.0435117441112567
 20
0.0927332754141331
 10
0.030189927705008
 20
0.0927332754141331
 10
0.030189927705008
 20
0.0560982802969469
 10
-0.0064450674121819
 20
0.0560982802969469
 10
-0.0064450674121819
 20
0.0427764638906964
  0
LWPOLYLINE
  5
7DE1B343D9D39FC
330
7DE1B343D9D3A9E
100
AcDbEntity
  8
TEXT
100
AcDbPolyline
 90
        2
 70
     0
 43
0.0006660908203125
 10
0.0901381015331318
 20
0.1227073623281959
 10
0.1167817343456328
 20
0.1227073623281959
  0
LWPOLYLINE
  5
7DE1B343D9D3A00
330
7DE1B343D9D3A9E
100
AcDbEntity
  8
TEXT
100
AcDbPolyline
 90
        2
 70
     0
 43
0.0006660908203125
 10
0.0901381015331318
 20
0.0827419131094479
 10
0.1167817343456328
 20
0.0827419131094479
  0
LINE
  5
7DE1B343D9D3A04
330
7DE1B343D9D3A9E
100
AcDbEntity
  8
TEXT
100
AcDbLine
 10
0.3868958711936576
 20
0.1716661071245545
 30
0.0
 11
0.553801525222629
 21
0.1716661071245545
 31
0.0
  0
LINE
  5
7DE1B343D9D3A05
330
7DE1B343D9D3A9E
100
AcDbEntity
  8
TEXT
100
AcDbLine
 10
0.4524960074379587
 20
0.1358613855139267
 30
0.0
 11
0.3868958711936576
 21
0.1358613855139267
 31
0.0
  0
LINE
  5
7DE1B343D9D3A06
330
7DE1B343D9D3A9E
100
AcDbEntity
  8
TEXT
100
AcDbLine
 10
0.299571081632906
 20
-0.030530231207191
 30
0.0
 11
0.4524960074379587
 21
-0.030530231207191
 31
0.0
  0
LINE
  5
7DE1B343D9D3A07
330
7DE1B343D9D3A9E
100
AcDbEntity
  8
TEXT
100
AcDbLine
 10
0.4574363813442384
 20
0.0378267751262483
 30
0.0
 11
0.2995710816329042
 21
0.0378267751262483
 31
0.0
  0
LINE
  5
7DE1B343D9D3A08
330
7DE1B343D9D3A9E
100
AcDbEntity
  8
TEXT
100
AcDbLine
 10
0.3816585410794095
 20
0.0717678828883129
 30
0.0
 11
0.4574363813442384
 21
0.0717678828883129
 31
0.0
  0
ARC
  5
7DE1B343D9D3A09
330
7DE1B343D9D3A9E
100
AcDbEntity
  8
TEXT
100
AcDbCircle
 10
0.3868958711936585
 20
0.1537637463192424
 30
0.0
 40
0.017902360805315
100
AcDbArc
 50
90.0
 51
270.0
  0
LINE
  5
7DE1B343D9D3A0A
330
7DE1B343D9D3A9E
100
AcDbEntity
  8
TEXT
100
AcDbLine
 10
0.2995710816329042
 20
0.0378267751262483
 30
0.0
 11
0.299571081632906
 21
-0.030530231207191
 31
0.0
  0
LINE
  5
7DE1B343D9D3A0B
330
7DE1B343D9D3A9E
100
AcDbEntity
  8
TEXT
100
AcDbLine
 10
0.553801525222629
 20
0.1716661071245545
 30
0.0
 11
0.553801525222629
 21
0.0292621601308588
 31
0.0
  0
ARC
  5
7DE1B343D9D3A0C
330
7DE1B343D9D3A9E
100
AcDbEntity
  8
TEXT
100
AcDbCircle
 10
0.4524960074379596
 20
0.0526655771533661
 30
0.0
 40
0.0831958083605586
100
AcDbArc
 50
270.0
 51
90.0
  0
ARC
  5
7DE1B343D9D3A0D
330
7DE1B343D9D3A9E
100
AcDbEntity
  8
TEXT
100
AcDbCircle
 10
0.4574363813442393
 20
0.0547973290072824
 30
0.0
 40
0.0169705538810321
100
AcDbArc
 50
270.0
 51
90.0
  0
LWPOLYLINE
  5
7DE1B343D9D3A0E
330
7DE1B343D9D3A9E
100
AcDbEntity
  8
TEXT
100
AcDbPolyline
 90
        2
 70
     0
 43
0.0006660908203125
 10
-0.0364191543262447
 20
0.2092991689688225
 10
-0.0364191543262447
 20
0.2359428017813236
  0
LWPOLYLINE
  5
7DE1B343D9D3A12
330
7DE1B343D9D3A9E
100
AcDbEntity
  8
TEXT
100
AcDbPolyline
 90
        2
 70
     0
 43
0.0006660908203125
 10
0.0035462948925069
 20
0.2092991689688225
 10
0.0035462948925069
 20
0.2359428017813236
  0
LINE
  5
7DE1B343D9D3A16
330
7DE1B343D9D3A9E
100
AcDbEntity
  8
TEXT
100
AcDbLine
 10
0.5573902939779219
 20
0.23594280178132
 30
0.0
 11
0.3816585410794095
 21
0.23594280178132
 31
0.0
  0
LINE
  5
7DE1B343D9D3A17
330
7DE1B343D9D3A9E
100
AcDbEntity
  8
TEXT
100
AcDbLine
 10
0.5573902939779219
 20
0.2703307193754582
 30
0.0
 11
0.5573902939779219
 21
0.23594280178132
 31
0.0
  0
LINE
  5
7DE1B343D9D3A18
330
7DE1B343D9D3A9E
100
AcDbEntity
  8
TEXT
100
AcDbLine
 10
0.7478621859977741
 20
0.1350708056681994
 30
0.0
 11
0.6892318649658363
 21
0.23594280178132
 31
0.0
  0
LINE
  5
7DE1B343D9D3A19
330
7DE1B343D9D3A9E
100
AcDbEntity
  8
TEXT
100
AcDbLine
 10
0.8066107488036395
 20
0.23594280178132
 30
0.0
 11
0.7478621859977741
 21
0.1350708056681994
 31
0.0
  0
LINE
  5
7DE1B343D9D3A1A
330
7DE1B343D9D3A9E
100
AcDbEntity
  8
TEXT
100
AcDbLine
 10
0.9035413741633808
 20
0.0518576068958082
 30
0.0
 11
0.9035413741633808
 21
0.3039542795201306
 31
0.0
  0
LINE
  5
7DE1B343D9D3A1B
330
7DE1B343D9D3A9E
100
AcDbEntity
  8
TEXT
100
AcDbLine
 10
0.935853228301041
 20
0.23594280178132
 30
0.0
 11
0.935853228301041
 21
0.0350785950489118
 31
0.0
  0
LINE
  5
7DE1B343D9D3A1C
330
7DE1B343D9D3A9E
100
AcDbEntity
  8
TEXT
100
AcDbLine
 10
0.935853228301041
 20
0.0350785950489118
 30
0.0
 11
0.9188595914164396
 21
0.0350785950489118
 31
0.0
  0
LINE
  5
7DE1B343D9D3A1D
330
7DE1B343D9D3A9E
100
AcDbEntity
  8
TEXT
100
AcDbLine
 10
0.9046809476595756
 20
-0.030530231207191
 30
0.0
 11
1.00268428135901
 21
-0.030530231207191
 31
0.0
  0
LINE
  5
7DE1B343D9D3A1E
330
7DE1B343D9D3A9E
100
AcDbEntity
  8
TEXT
100
AcDbLine
 10
0.7382619490008198
 20
-0.0105717251021781
 30
0.0
 11
0.8355616550942643
 21
0.1537784858330901
 31
0.0
  0
ARC
  5
7DE1B343D9D3A1F
330
7DE1B343D9D3A9E
100
AcDbEntity
  8
TEXT
100
AcDbCircle
 10
0.7042183890886058
 20
0.0090174910665047
 30
0.0
 40
0.0392772371940762
100
AcDbArc
 50
270.1604552698595
 51
330.0831797321295
  0
LINE
  5
7DE1B343D9D3A20
330
7DE1B343D9D3A9E
100
AcDbEntity
  8
TEXT
100
AcDbLine
 10
0.6076881327027346
 20
-0.030530231207191
 30
0.0
 11
0.704328383777729
 21
-0.0302595921089087
 31
0.0
  0
LWPOLYLINE
  5
7DE1B343D9D3A21
330
7DE1B343D9D3A9E
100
AcDbEntity
  8
TEXT
100
AcDbPolyline
 90
        6
 70
     1
 43
0.0
 10
0.6502119362778842
 20
0.1716661071245545
 10
0.6198953420576761
 20
0.1716661071245545
 10
0.6198953420576761
 20
0.0485551090696602
 42
0.407328721240804
 10
0.6314389932191525
 20
0.0367361943932741
 10
0.6920606922638833
 20
0.0367361943932741
 10
0.7095260326712012
 20
0.0695484234367533
  0
LINE
  5
7DE1B343D9D3A29
330
7DE1B343D9D3A9E
100
AcDbEntity
  8
TEXT
100
AcDbLine
 10
0.8355616550942643
 20
0.1537784858330901
 30
0.0
 11
0.8355616550942643
 21
0.0210211110077338
 31
0.0
  0
ARC
  5
7DE1B343D9D3A2A
330
7DE1B343D9D3A9E
100
AcDbEntity
  8
TEXT
100
AcDbCircle
 10
0.9188595914164379
 20
0.0504604012923372
 30
0.0
 40
0.0153818062434269
100
AcDbArc
 50
174.7883570302258
 51
270.0
  0
LWPOLYLINE
  5
7DE1B343D9D3A2B
330
7DE1B343D9D3A9E
100
AcDbEntity
  8
TEXT
100
AcDbPolyline
 90
        2
 70
     0
 43
0.0
 10
0.8355616550942626
 20
0.0210211110077373
 42
0.3318488747599744
 10
0.9046809476595756
 20
-0.030530231207191
 42
-6.868794160588311
  0
LINE
  5
7DE1B343D9D3A2F
330
7DE1B343D9D3A9E
100
AcDbEntity
  8
TEXT
100
AcDbLine
 10
1.060073350348271
 20
-0.030530231207191
 30
0.0
 11
1.127131397130111
 21
-0.030530231207191
 31
0.0
  0
LINE
  5
7DE1B343D9D3A30
330
7DE1B343D9D3A9E
100
AcDbEntity
  8
TEXT
100
AcDbLine
 10
1.060073350348271
 20
0.1641123179584446
 30
0.0
 11
1.060073350348271
 21
-0.030530231207191
 31
0.0
  0
LINE
  5
7DE1B343D9D3A31
330
7DE1B343D9D3A9E
100
AcDbEntity
  8
TEXT
100
AcDbLine
 10
1.00268428135901
 20
0.1716661071245545
 30
0.0
 11
1.052519561182157
 21
0.1716661071245545
 31
0.0
  0
LINE
  5
7DE1B343D9D3A32
330
7DE1B343D9D3A9E
100
AcDbEntity
  8
TEXT
100
AcDbLine
 10
1.00268428135901
 20
-0.030530231207191
 30
0.0
 11
1.00268428135901
 21
0.1716661071245545
 31
0.0
  0
LWPOLYLINE
  5
7DE1B343D9D3A33
330
7DE1B343D9D3A9E
100
AcDbEntity
  8
TEXT
100
AcDbPolyline
 90
        2
 70
     0
 43
0.0
 10
1.052519561182156
 20
0.1716661071245545
 42
-0.4142135623731017
 10
1.060073350348269
 20
0.1641123179584446
 42
-0.9999999999999998
  0
LINE
  5
7DE1B343D9D3A37
330
7DE1B343D9D3A9E
100
AcDbEntity
  8
TEXT
100
AcDbLine
 10
1.258329561959841
 20
0.1716661071245545
 30
0.0
 11
1.258329561959841
 21
0.096613701050348
 31
0.0
  0
LINE
  5
7DE1B343D9D3A38
330
7DE1B343D9D3A9E
100
AcDbEntity
  8
TEXT
100
AcDbLine
 10
1.127131397130111
 20
0.1716661071245545
 30
0.0
 11
1.181264994051061
 21
0.1716661071245545
 31
0.0
  0
LINE
  5
7DE1B343D9D3A39
330
7DE1B343D9D3A9E
100
AcDbEntity
  8
TEXT
100
AcDbLine
 10
1.127131397130111
 20
-0.030530231207191
 30
0.0
 11
1.127131397130111
 21
0.1716661071245545
 31
0.0
  0
LWPOLYLINE
  5
7DE1B343D9D3A3A
330
7DE1B343D9D3A9E
100
AcDbEntity
  8
TEXT
100
AcDbPolyline
 90
        2
 70
     0
 43
0.0
 10
1.181264994051059
 20
0.1716661071245545
 42
-0.4142135623731017
 10
1.188818783217173
 20
0.1641123179584446
 42
-0.9999999999999998
  0
LWPOLYLINE
  5
7DE1B343D9D3A3E
330
7DE1B343D9D3A9E
100
AcDbEntity
  8
TEXT
100
AcDbPolyline
 90
        4
 70
     0
 43
0.0
 10
1.188818783217173
 20
0.1641123179584446
 10
1.188818783217173
 20
-0.030530231207191
 10
1.257297066505031
 20
-0.030530231207191
 10
1.257297066505031
 20
0.0129607137432472
 42
-1.714843617202739
  0
LINE
  5
7DE1B343D9D3A44
330
7DE1B343D9D3A9E
100
AcDbEntity
  8
TEXT
100
AcDbLine
 10
0.6174328988219289
 20
0.23594280178132
 30
0.0
 11
0.6174328988219289
 21
0.2703307193754582
 31
0.0
  0
LINE
  5
7DE1B343D9D3A45
330
7DE1B343D9D3A9E
100
AcDbEntity
  8
TEXT
100
AcDbLine
 10
0.6892318649658363
 20
0.23594280178132
 30
0.0
 11
0.6174328988219289
 21
0.23594280178132
 31
0.0
  0
LINE
  5
7DE1B343D9D3A46
330
7DE1B343D9D3A9E
100
AcDbEntity
  8
TEXT
100
AcDbLine
 10
0.8367326615970158
 20
0.23594280178132
 30
0.0
 11
0.8066107488036395
 21
0.23594280178132
 31
0.0
  0
LINE
  5
7DE1B343D9D3A47
330
7DE1B343D9D3A9E
100
AcDbEntity
  8
TEXT
100
AcDbLine
 10
0.8367326615970158
 20
0.3039542795201306
 30
0.0
 11
0.8367326615970158
 21
0.23594280178132
 31
0.0
  0
LINE
  5
7DE1B343D9D3A48
330
7DE1B343D9D3A9E
100
AcDbEntity
  8
TEXT
100
AcDbLine
 10
0.9035413741633808
 20
0.3039542795201306
 30
0.0
 11
0.8367326615970158
 21
0.3039542795201306
 31
0.0
  0
LWPOLYLINE
  5
7DE1B343D9D3A49
330
7DE1B343D9D3A9E
100
AcDbEntity
  8
TEXT
100
AcDbPolyline
 90
        3
 70
     0
 43
0.0
 10
1.223953133761383
 20
0.2359428017813236
 10
1.105652974945338
 20
0.2359428017813236
 10
1.105652974945338
 20
0.2087753050204276
 42
-1.960274751411753
  0
LINE
  5
7DE1B343D9D3A4E
330
7DE1B343D9D3A9E
100
AcDbEntity
  8
TEXT
100
AcDbLine
 10
1.069871284232177
 20
0.23594280178132
 30
0.0
 11
0.935853228301041
 21
0.23594280178132
 31
0.0
  0
LWPOLYLINE
  5
7DE1B343D9D3A4F
330
7DE1B343D9D3A9E
100
AcDbEntity
  8
TEXT
100
AcDbPolyline
 90
        2
 70
     0
 43
0.0
 10
1.069871284232177
 20
0.2359428017813236
 42
-0.3328679258950098
 10
1.105652974945338
 20
0.2087753050204276
 42
6.772930709997214
  0
LINE
  5
7DE1B343D9D3A53
330
7DE1B343D9D3A9E
100
AcDbEntity
  8
TEXT
100
AcDbLine
 10
1.259734824474549
 20
0.23594280178132
 30
0.0
 11
1.259734824474549
 21
0.2076202560116761
 31
0.0
  0
LWPOLYLINE
  5
7DE1B343D9D3A54
330
7DE1B343D9D3A9E
100
AcDbEntity
  8
TEXT
100
AcDbPolyline
 90
        2
 70
     0
 43
0.0
 10
1.223953133761383
 20
0.2359428017813236
 42
-0.3277054968067132
 10
1.259734824474548
 20
0.2076202560116797
 42
6.667889725900311
  0
LINE
  5
7DE1B343D9D3A58
330
7DE1B343D9D3A9E
100
AcDbEntity
  8
TEXT
100
AcDbLine
 10
1.47352667256665
 20
0.1307308232278926
 30
0.0
 11
1.429775901384748
 21
0.2129810992240379
 31
0.0
  0
LINE
  5
7DE1B343D9D3A59
330
7DE1B343D9D3A9E
100
AcDbEntity
  8
TEXT
100
AcDbLine
 10
1.47352667256665
 20
0.23594280178132
 30
0.0
 11
1.47352667256665
 21
0.1307308232278926
 31
0.0
  0
LINE
  5
7DE1B343D9D3A5A
330
7DE1B343D9D3A9E
100
AcDbEntity
  8
TEXT
100
AcDbLine
 10
1.701210411505019
 20
0.1600774753697819
 30
0.0
 11
1.701210411505019
 21
0.3014070075489207
 31
0.0
  0
LINE
  5
7DE1B343D9D3A5B
330
7DE1B343D9D3A9E
100
AcDbEntity
  8
TEXT
100
AcDbLine
 10
1.748308570061003
 20
0.23594280178132
 30
0.0
 11
1.701210411505019
 21
0.1600774753697819
 31
0.0
  0
LINE
  5
7DE1B343D9D3A5C
330
7DE1B343D9D3A9E
100
AcDbEntity
  8
TEXT
100
AcDbLine
 10
1.758743286824926
 20
0.1260495588403464
 30
0.0
 11
1.823300402790631
 21
0.23594280178132
 31
0.0
  0
LINE
  5
7DE1B343D9D3A5D
330
7DE1B343D9D3A9E
100
AcDbEntity
  8
TEXT
100
AcDbLine
 10
1.637375420282245
 20
-0.030530231207191
 30
0.0
 11
1.701753604600866
 21
-0.030530231207191
 31
0.0
  0
LWPOLYLINE
  5
7DE1B343D9D3A5E
330
7DE1B343D9D3A9E
100
AcDbEntity
  8
TEXT
100
AcDbPolyline
 90
        2
 70
     0
 43
0.0
 10
1.477466349871687
 20
0.0129607137432472
 42
-0.2901071551932486
 10
1.434390417004043
 20
-0.030530231207191
 42
-5.328517124445184
  0
ARC
  5
7DE1B343D9D3A62
330
7DE1B343D9D3A9E
100
AcDbEntity
  8
TEXT
100
AcDbCircle
 10
1.365535835347128
 20
0.1433067321245572
 30
0.0
 40
0.028359375
100
AcDbArc
 50
25.78218179591245
 51
90.0
  0
LINE
  5
7DE1B343D9D3A63
330
7DE1B343D9D3A9E
100
AcDbEntity
  8
TEXT
100
AcDbLine
 10
1.401336910651251
 20
0.1343911336624223
 30
0.0
 11
1.391072150237687
 21
0.1556416732351166
 31
0.0
  0
LINE
  5
7DE1B343D9D3A64
330
7DE1B343D9D3A9E
100
AcDbEntity
  8
TEXT
100
AcDbLine
 10
1.319048920867868
 20
0.1343911336624223
 30
0.0
 11
1.401336910651251
 21
0.1343911336624223
 31
0.0
  0
LWPOLYLINE
  5
7DE1B343D9D3A65
330
7DE1B343D9D3A9E
100
AcDbEntity
  8
TEXT
100
AcDbPolyline
 90
        4
 70
     1
 43
0.0
 10
1.41426795193415
 20
0.0724337467768342
 10
1.325607633274292
 20
0.0724337467768342
 42
0.9999999999999998
 10
1.325607633274292
 20
0.0300352062729735
 10
1.41426795193415
 20
0.0300352062729735
 42
1.0
  0
LWPOLYLINE
  5
7DE1B343D9D3A6B
330
7DE1B343D9D3A9E
100
AcDbEntity
  8
TEXT
100
AcDbPolyline
 90
        2
 70
     0
 43
0.0
 10
1.300372999372666
 20
-0.030530231207191
 10
1.434390417004043
 20
-0.030530231207191
 42
0.9999999999999998
  0
LINE
  5
7DE1B343D9D3A6F
330
7DE1B343D9D3A9E
100
AcDbEntity
  8
TEXT
100
AcDbLine
 10
1.560727438989682
 20
0.1716661071245545
 30
0.0
 11
1.63737542028224
 21
0.1716661071245545
 31
0.0
  0
LINE
  5
7DE1B343D9D3A70
330
7DE1B343D9D3A9E
100
AcDbEntity
  8
TEXT
100
AcDbLine
 10
1.63737542028224
 20
0.1716661071245545
 30
0.0
 11
1.637375420282245
 21
-0.030530231207191
 31
0.0
  0
ARC
  5
7DE1B343D9D3A71
330
7DE1B343D9D3A9E
100
AcDbEntity
  8
TEXT
100
AcDbCircle
 10
1.560727438989681
 20
0.1467602318418918
 30
0.0
 40
0.0249058752826653
100
AcDbArc
 50
89.99971217465335
 51
179.9999999999985
  0
LINE
  5
7DE1B343D9D3A72
330
7DE1B343D9D3A9E
100
AcDbEntity
  8
TEXT
100
AcDbLine
 10
1.535821563707023
 20
-0.030530231207191
 30
0.0
 11
1.535821563707018
 21
0.1467602742242774
 31
0.0
  0
LWPOLYLINE
  5
7DE1B343D9D3A73
330
7DE1B343D9D3A9E
100
AcDbEntity
  8
TEXT
100
AcDbPolyline
 90
        2
 70
     0
 43
0.0
 10
1.477466349871687
 20
-0.030530231207191
 10
1.535821563707021
 20
-0.030530231207191
  0
LWPOLYLINE
  5
7DE1B343D9D3A77
330
7DE1B343D9D3A9E
100
AcDbEntity
  8
TEXT
100
AcDbPolyline
 90
        2
 70
     0
 43
0.0
 10
1.477466349871687
 20
0.0129607137432472
 10
1.477466349871687
 20
-0.030530231207191
  0
LINE
  5
7DE1B343D9D3A7B
330
7DE1B343D9D3A9E
100
AcDbEntity
  8
TEXT
100
AcDbLine
 10
1.854235510188536
 20
-0.030530231207191
 30
0.0
 11
1.758743286824926
 21
0.1260495588403464
 31
0.0
  0
LINE
  5
7DE1B343D9D3A7C
330
7DE1B343D9D3A9E
100
AcDbEntity
  8
TEXT
100
AcDbLine
 10
1.77765713781233
 20
-0.030530231207191
 30
0.0
 11
1.854235510188536
 21
-0.030530231207191
 31
0.0
  0
LINE
  5
7DE1B343D9D3A7D
330
7DE1B343D9D3A9E
100
AcDbEntity
  8
TEXT
100
AcDbLine
 10
1.701753604600866
 20
0.1010493372689892
 30
0.0
 11
1.77765713781233
 21
-0.030530231207191
 31
0.0
  0
LINE
  5
7DE1B343D9D3A7E
330
7DE1B343D9D3A9E
100
AcDbEntity
  8
TEXT
100
AcDbLine
 10
1.701753604600866
 20
-0.030530231207191
 30
0.0
 11
1.701753604600866
 21
0.1010493372689892
 31
0.0
  0
LINE
  5
7DE1B343D9D3A7F
330
7DE1B343D9D3A9E
100
AcDbEntity
  8
TEXT
100
AcDbLine
 10
1.701210411505019
 20
0.3014070075489207
 30
0.0
 11
1.632895532955745
 21
0.3014070075489207
 31
0.0
  0
ARC
  5
7DE1B343D9D3A80
330
7DE1B343D9D3A9E
100
AcDbEntity
  8
TEXT
100
AcDbCircle
 10
1.392539793914539
 20
0.1943592346604176
 30
0.0
 40
0.0416329381542859
100
AcDbArc
 50
26.56974201007528
 51
87.20939649401342
  0
LINE
  5
7DE1B343D9D3A81
330
7DE1B343D9D3A9E
100
AcDbEntity
  8
TEXT
100
AcDbLine
 10
1.53742357886615
 20
0.23594280178132
 30
0.0
 11
1.47352667256665
 21
0.23594280178132
 31
0.0
  0
LINE
  5
7DE1B343D9D3A82
330
7DE1B343D9D3A9E
100
AcDbEntity
  8
TEXT
100
AcDbLine
 10
1.53742357886615
 20
0.2083951519204453
 30
0.0
 11
1.53742357886615
 21
0.23594280178132
 31
0.0
  0
ARC
  5
7DE1B343D9D3A83
330
7DE1B343D9D3A9E
100
AcDbEntity
  8
TEXT
100
AcDbCircle
 10
1.568616395929258
 20
0.2046970744990552
 30
0.0
 40
0.0314112657011332
100
AcDbArc
 50
95.88484768694724
 51
173.2388340632136
  0
LINE
  5
7DE1B343D9D3A84
330
7DE1B343D9D3A9E
100
AcDbEntity
  8
TEXT
100
AcDbLine
 10
1.63289553295574
 20
0.23594280178132
 30
0.0
 11
1.565395815306223
 21
0.23594280178132
 31
0.0
  0
LINE
  5
7DE1B343D9D3A85
330
7DE1B343D9D3A9E
100
AcDbEntity
  8
TEXT
100
AcDbLine
 10
1.632895532955745
 20
0.3014070075489207
 30
0.0
 11
1.63289553295574
 21
0.23594280178132
 31
0.0
  0
LINE
  5
7DE1B343D9D3A86
330
7DE1B343D9D3A9E
100
AcDbEntity
  8
TEXT
100
AcDbLine
 10
1.823300402790631
 20
0.23594280178132
 30
0.0
 11
1.748308570061005
 21
0.23594280178132
 31
0.0
  0
ENDSEC
  0
SECTION
  2
OBJECTS
  0
DICTIONARY
  5
7DE1B343D9D3A92
330
0
100
AcDbDictionary
  3
ACAD_GROUP
350
7DE1B343D9D3A93
  3
ACAD_LAYOUT
350
7DE1B343D9D3AB8
  3
ACAD_MLINESTYLE
350
7DE1B343D9D3A94
  3
ACAD_PLOTSETTINGS
350
7DE1B343D9D3AB9
  3
ACAD_PLOTSTYLENAME
350
7DE1B343D9D3AB6
  3
ACDBHEADERROUNDTRIPXREC
350
7DE1B343D9D3AC3
  3
ACDBVARIABLEDICTIONARY
350
7DE1B343D9D3AC0
  0
DICTIONARY
  5
7DE1B343D9D3AE5
330
7DE1B343D9D3A9E
100
AcDbDictionary
280
     1
  3
ACAD_LAYOUTSELFREF
360
7DE1B343D9D3AE6
  0
DICTIONARY
  5
7DE1B343D9D3AE3
330
7DE1B343D9D3A9B
100
AcDbDictionary
280
     1
  3
ACAD_LAYOUTSELFREF
360
7DE1B343D9D3AE4
  0
DICTIONARY
  5
7DE1B343D9D3A93
102
{ACAD_REACTORS
330
7DE1B343D9D3A92
102
}
330
7DE1B343D9D3A92
100
AcDbDictionary
  0
DICTIONARY
  5
7DE1B343D9D3AB8
102
{ACAD_REACTORS
330
7DE1B343D9D3A92
102
}
330
7DE1B343D9D3A92
100
AcDbDictionary
  0
DICTIONARY
  5
7DE1B343D9D3A94
102
{ACAD_REACTORS
330
7DE1B343D9D3A92
102
}
330
7DE1B343D9D3A92
100
AcDbDictionary
  3
STANDARD
350
7DE1B343D9D3AA1
  0
DICTIONARY
  5
7DE1B343D9D3AB9
102
{ACAD_REACTORS
330
7DE1B343D9D3A92
102
}
330
7DE1B343D9D3A92
100
AcDbDictionary
  0
ACDBDICTIONARYWDFLT
  5
7DE1B343D9D3AB6
102
{ACAD_REACTORS
330
7DE1B343D9D3A92
102
}
330
7DE1B343D9D3A92
100
AcDbDictionary
281
     1
  3
Normal
350
7DE1B343D9D3AB7
100
AcDbDictionaryWithDefault
340
7DE1B343D9D3AB7
  0
DICTIONARY
  5
7DE1B343D9D3AC3
102
{ACAD_REACTORS
330
7DE1B343D9D3A92
102
}
330
7DE1B343D9D3A92
100
AcDbDictionary
  3
CEPSNTYPE
350
7DE1B343D9D3ACD
  3
FINGERPRINTGUID
350
7DE1B343D9D3ACE
  3
HYPERLINKBASE
350
7DE1B343D9D3AC6
  3
INSUNITS
350
7DE1B343D9D3ACC
  3
LAYOUTDICT
350
7DE1B343D9D3AC8
  3
LWETCUNION
350
7DE1B343D9D3ACB
  3
PLOTSETDICT
350
7DE1B343D9D3AC9
  3
PLOTSTYLNAMDICT
350
7DE1B343D9D3ACA
  3
PSVPSCALE
350
7DE1B343D9D3AD0
  3
PUCSBASE
350
7DE1B343D9D3AD3
  3
PUCSORGBACK
350
7DE1B343D9D3AD9
  3
PUCSORGBOTTOM
350
7DE1B343D9D3AD5
  3
PUCSORGFRONT
350
7DE1B343D9D3AD8
  3
PUCSORGLEFT
350
7DE1B343D9D3AD6
  3
PUCSORGRIGHT
350
7DE1B343D9D3AD7
  3
PUCSORGTOP
350
7DE1B343D9D3AD4
  3
PUCSORTHOREF
350
7DE1B343D9D3AD1
  3
PUCSORTHOVIEW
350
7DE1B343D9D3AD2
  3
STYLESHEET
350
7DE1B343D9D3AC7
  3
TSTACKALIGN
350
7DE1B343D9D3AC4
  3
TSTACKSIZE
350
7DE1B343D9D3AC5
  3
UCSBASE
350
7DE1B343D9D3ADC
  3
UCSORGBACK
350
7DE1B343D9D3AE2
  3
UCSORGBOTTOM
350
7DE1B343D9D3ADE
  3
UCSORGFRONT
350
7DE1B343D9D3AE1
  3
UCSORGLEFT
350
7DE1B343D9D3ADF
  3
UCSORGRIGHT
350
7DE1B343D9D3AE0
  3
UCSORGTOP
350
7DE1B343D9D3ADD
  3
UCSORTHOREF
350
7DE1B343D9D3ADA
  3
UCSORTHOVIEW
350
7DE1B343D9D3ADB
  3
VERSIONGUID
350
7DE1B343D9D3ACF
  0
DICTIONARY
  5
7DE1B343D9D3AC0
102
{ACAD_REACTORS
330
7DE1B343D9D3A92
102
}
330
7DE1B343D9D3A92
100
AcDbDictionary
  3
DIMASSOC
350
7DE1B343D9D3AC1
  0
XRECORD
  5
7DE1B343D9D3AE6
102
{ACAD_REACTORS
330
7DE1B343D9D3AE5
102
}
330
7DE1B343D9D3AE5
100
AcDbXrecord
340
7DE1B343D9D3A9E
  0
XRECORD
  5
7DE1B343D9D3AE4
102
{ACAD_REACTORS
330
7DE1B343D9D3AE3
102
}
330
7DE1B343D9D3AE3
100
AcDbXrecord
340
7DE1B343D9D3A9B
  0
MLINESTYLE
  5
7DE1B343D9D3AA1
102
{ACAD_REACTORS
330
7DE1B343D9D3A94
102
}
330
7DE1B343D9D3A94
100
AcDbMlineStyle
  2
STANDARD
 70
     0
  3

 62
     0
 51
90.0
 52
90.0
 71
     2
 49
0.5
 62
   256
  6
BYLAYER
 49
-0.5
 62
   256
  6
BYLAYER
  0
ACDBPLACEHOLDER
  5
7DE1B343D9D3AB7
102
{ACAD_REACTORS
330
7DE1B343D9D3AB6
102
}
330
7DE1B343D9D3AB6
100
AcDbPlaceHolder
280
     0
  0
XRECORD
  5
7DE1B343D9D3ACD
102
{ACAD_REACTORS
330
7DE1B343D9D3AC3
102
}
330
7DE1B343D9D3AC3
100
AcDbXrecord
 90
        0
  0
XRECORD
  5
7DE1B343D9D3ACE
102
{ACAD_REACTORS
330
7DE1B343D9D3AC3
102
}
330
7DE1B343D9D3AC3
100
AcDbXrecord
  1
{ABFA0FA0-8DB4-11D6-88E6-0090279574E7}
  0
XRECORD
  5
7DE1B343D9D3AC6
102
{ACAD_REACTORS
330
7DE1B343D9D3AC3
102
}
330
7DE1B343D9D3AC3
100
AcDbXrecord
  1

  0
XRECORD
  5
7DE1B343D9D3ACC
102
{ACAD_REACTORS
330
7DE1B343D9D3AC3
102
}
330
7DE1B343D9D3AC3
100
AcDbXrecord
 90
        0
  0
XRECORD
  5
7DE1B343D9D3AC8
102
{ACAD_REACTORS
330
7DE1B343D9D3AC3
102
}
330
7DE1B343D9D3AC3
100
AcDbXrecord
340
7DE1B343D9D3AB8
  0
XRECORD
  5
7DE1B343D9D3ACB
102
{ACAD_REACTORS
330
7DE1B343D9D3AC3
102
}
330
7DE1B343D9D3AC3
100
AcDbXrecord
 90
    14877
  0
XRECORD
  5
7DE1B343D9D3AC9
102
{ACAD_REACTORS
330
7DE1B343D9D3AC3
102
}
330
7DE1B343D9D3AC3
100
AcDbXrecord
340
7DE1B343D9D3AB9
  0
XRECORD
  5
7DE1B343D9D3ACA
102
{ACAD_REACTORS
330
7DE1B343D9D3AC3
102
}
330
7DE1B343D9D3AC3
100
AcDbXrecord
340
7DE1B343D9D3AB6
  0
XRECORD
  5
7DE1B343D9D3AD0
102
{ACAD_REACTORS
330
7DE1B343D9D3AC3
102
}
330
7DE1B343D9D3AC3
100
AcDbXrecord
 40
0.0
  0
XRECORD
  5
7DE1B343D9D3AD3
102
{ACAD_REACTORS
330
7DE1B343D9D3AC3
102
}
330
7DE1B343D9D3AC3
100
AcDbXrecord
340
0
  0
XRECORD
  5
7DE1B343D9D3AD9
102
{ACAD_REACTORS
330
7DE1B343D9D3AC3
102
}
330
7DE1B343D9D3AC3
100
AcDbXrecord
 10
0.0
 20
0.0
 30
0.0
  0
XRECORD
  5
7DE1B343D9D3AD5
102
{ACAD_REACTORS
330
7DE1B343D9D3AC3
102
}
330
7DE1B343D9D3AC3
100
AcDbXrecord
 10
0.0
 20
0.0
 30
0.0
  0
XRECORD
  5
7DE1B343D9D3AD8
102
{ACAD_REACTORS
330
7DE1B343D9D3AC3
102
}
330
7DE1B343D9D3AC3
100
AcDbXrecord
 10
0.0
 20
0.0
 30
0.0
  0
XRECORD
  5
7DE1B343D9D3AD6
102
{ACAD_REACTORS
330
7DE1B343D9D3AC3
102
}
330
7DE1B343D9D3AC3
100
AcDbXrecord
 10
0.0
 20
0.0
 30
0.0
  0
XRECORD
  5
7DE1B343D9D3AD7
102
{ACAD_REACTORS
330
7DE1B343D9D3AC3
102
}
330
7DE1B343D9D3AC3
100
AcDbXrecord
 10
0.0
 20
0.0
 30
0.0
  0
XRECORD
  5
7DE1B343D9D3AD4
102
{ACAD_REACTORS
330
7DE1B343D9D3AC3
102
}
330
7DE1B343D9D3AC3
100
AcDbXrecord
 10
0.0
 20
0.0
 30
0.0
  0
XRECORD
  5
7DE1B343D9D3AD1
102
{ACAD_REACTORS
330
7DE1B343D9D3AC3
102
}
330
7DE1B343D9D3AC3
100
AcDbXrecord
340
0
  0
XRECORD
  5
7DE1B343D9D3AD2
102
{ACAD_REACTORS
330
7DE1B343D9D3AC3
102
}
330
7DE1B343D9D3AC3
100
AcDbXrecord
 70
     0
  0
XRECORD
  5
7DE1B343D9D3AC7
102
{ACAD_REACTORS
330
7DE1B343D9D3AC3
102
}
330
7DE1B343D9D3AC3
100
AcDbXrecord
  1

  0
XRECORD
  5
7DE1B343D9D3AC4
102
{ACAD_REACTORS
330
7DE1B343D9D3AC3
102
}
330
7DE1B343D9D3AC3
100
AcDbXrecord
 90
        1
  0
XRECORD
  5
7DE1B343D9D3AC5
102
{ACAD_REACTORS
330
7DE1B343D9D3AC3
102
}
330
7DE1B343D9D3AC3
100
AcDbXrecord
 90
       70
  0
XRECORD
  5
7DE1B343D9D3ADC
102
{ACAD_REACTORS
330
7DE1B343D9D3AC3
102
}
330
7DE1B343D9D3AC3
100
AcDbXrecord
340
0
  0
XRECORD
  5
7DE1B343D9D3AE2
102
{ACAD_REACTORS
330
7DE1B343D9D3AC3
102
}
330
7DE1B343D9D3AC3
100
AcDbXrecord
 10
0.0
 20
0.0
 30
0.0
  0
XRECORD
  5
7DE1B343D9D3ADE
102
{ACAD_REACTORS
330
7DE1B343D9D3AC3
102
}
330
7DE1B343D9D3AC3
100
AcDbXrecord
 10
0.0
 20
0.0
 30
0.0
  0
XRECORD
  5
7DE1B343D9D3AE1
102
{ACAD_REACTORS
330
7DE1B343D9D3AC3
102
}
330
7DE1B343D9D3AC3
100
AcDbXrecord
 10
0.0
 20
0.0
 30
0.0
  0
XRECORD
  5
7DE1B343D9D3ADF
102
{ACAD_REACTORS
330
7DE1B343D9D3AC3
102
}
330
7DE1B343D9D3AC3
100
AcDbXrecord
 10
0.0
 20
0.0
 30
0.0
  0
XRECORD
  5
7DE1B343D9D3AE0
102
{ACAD_REACTORS
330
7DE1B343D9D3AC3
102
}
330
7DE1B343D9D3AC3
100
AcDbXrecord
 10
0.0
 20
0.0
 30
0.0
  0
XRECORD
  5
7DE1B343D9D3ADD
102
{ACAD_REACTORS
330
7DE1B343D9D3AC3
102
}
330
7DE1B343D9D3AC3
100
AcDbXrecord
 10
0.0
 20
0.0
 30
0.0
  0
XRECORD
  5
7DE1B343D9D3ADA
102
{ACAD_REACTORS
330
7DE1B343D9D3AC3
102
}
330
7DE1B343D9D3AC3
100
AcDbXrecord
340
0
  0
XRECORD
  5
7DE1B343D9D3ADB
102
{ACAD_REACTORS
330
7DE1B343D9D3AC3
102
}
330
7DE1B343D9D3AC3
100
AcDbXrecord
 70
     0
  0
XRECORD
  5
7DE1B343D9D3ACF
102
{ACAD_REACTORS
330
7DE1B343D9D3AC3
102
}
330
7DE1B343D9D3AC3
100
AcDbXrecord
  1
{ABFA0FA2-8DB4-11D6-88E6-0090279574E7}
  0
DICTIONARYVAR
  5
7DE1B343D9D3AC1
102
{ACAD_REACTORS
330
7DE1B343D9D3AC0
102
}
330
7DE1B343D9D3AC0
100
DictionaryVariables
280
     0
  1
1
  0
ENDSEC
  0
EOF
