  0
SECTION
  2
HEADER
  9
$ACADVER
  1
AC1014
  9
$ACADMAINTVER
 70
     9
  9
$DWGCODEPAGE
  3
ANSI_1252
  9
$INSBASE
 10
1.454268295238055
 20
1.538595696793163
 30
0.0
  9
$EXTMIN
 10
-0.2873227025849257
 20
0.3170677454133544
 30
0.0
  9
$EXTMAX
 10
3.197896619162202
 20
2.061478420730915
 30
0.0
  9
$LIMMIN
 10
0.0
 20
0.0
  9
$LIMMAX
 10
18.0
 20
12.0
  9
$ORTHOMODE
 70
     1
  9
$REGENMODE
 70
     1
  9
$FILLMODE
 70
     1
  9
$QTEXTMODE
 70
     0
  9
$MIRRTEXT
 70
     0
  9
$DRAGMODE
 70
     2
  9
$LTSCALE
 40
1.0
  9
$OSMODE
 70
    39
  9
$ATTMODE
 70
     1
  9
$TEXTSIZE
 40
0.125
  9
$TRACEWID
 40
0.05
  9
$TEXTSTYLE
  7
ROMANS
  9
$CLAYER
  8
0
  9
$CELTYPE
  6
BYLAYER
  9
$CECOLOR
 62
   256
  9
$CELTSCALE
 40
1.0
  9
$DELOBJ
 70
     1
  9
$DISPSILH
 70
     1
  9
$DIMSCALE
 40
1.0
  9
$DIMASZ
 40
0.125
  9
$DIMEXO
 40
0.125
  9
$DIMDLI
 40
0.375
  9
$DIMRND
 40
0.0
  9
$DIMDLE
 40
0.0
  9
$DIMEXE
 40
0.125
  9
$DIMTP
 40
0.0
  9
$DIMTM
 40
0.0
  9
$DIMTXT
 40
0.125
  9
$DIMCEN
 40
-0.125
  9
$DIMTSZ
 40
0.0
  9
$DIMTOL
 70
     0
  9
$DIMLIM
 70
     0
  9
$DIMTIH
 70
     1
  9
$DIMTOH
 70
     1
  9
$DIMSE1
 70
     0
  9
$DIMSE2
 70
     0
  9
$DIMTAD
 70
     0
  9
$DIMZIN
 70
     4
  9
$DIMBLK
  1

  9
$DIMASO
 70
     1
  9
$DIMSHO
 70
     1
  9
$DIMPOST
  1

  9
$DIMAPOST
  1

  9
$DIMALT
 70
     0
  9
$DIMALTD
 70
     2
  9
$DIMALTF
 40
25.4
  9
$DIMLFAC
 40
1.0
  9
$DIMTOFL
 70
     0
  9
$DIMTVP
 40
0.0
  9
$DIMTIX
 70
     1
  9
$DIMSOXD
 70
     0
  9
$DIMSAH
 70
     0
  9
$DIMBLK1
  1

  9
$DIMBLK2
  1

  9
$DIMSTYLE
  2
STANDARD
  9
$DIMCLRD
 70
     0
  9
$DIMCLRE
 70
     0
  9
$DIMCLRT
 70
     0
  9
$DIMTFAC
 40
1.0
  9
$DIMGAP
 40
0.09
  9
$DIMJUST
 70
     0
  9
$DIMSD1
 70
     0
  9
$DIMSD2
 70
     0
  9
$DIMTOLJ
 70
     1
  9
$DIMTZIN
 70
     4
  9
$DIMALTZ
 70
     0
  9
$DIMALTTZ
 70
     0
  9
$DIMFIT
 70
     3
  9
$DIMUPT
 70
     0
  9
$DIMUNIT
 70
     2
  9
$DIMDEC
 70
     3
  9
$DIMTDEC
 70
     3
  9
$DIMALTU
 70
     2
  9
$DIMALTTD
 70
     2
  9
$DIMTXSTY
  7
ROMANS
  9
$DIMAUNIT
 70
     0
  9
$LUNITS
 70
     2
  9
$LUPREC
 70
     3
  9
$SKETCHINC
 40
0.1
  9
$FILLETRAD
 40
0.03125
  9
$AUNITS
 70
     0
  9
$AUPREC
 70
     0
  9
$MENU
  1
ACAD
  9
$ELEVATION
 40
0.0
  9
$PELEVATION
 40
0.0
  9
$THICKNESS
 40
0.0
  9
$LIMCHECK
 70
     0
  9
$BLIPMODE
 70
     0
  9
$CHAMFERA
 40
0.0
  9
$CHAMFERB
 40
0.0
  9
$CHAMFERC
 40
0.0
  9
$CHAMFERD
 40
0.0
  9
$SKPOLY
 70
     0
  9
$TDCREATE
 40
2448994.364079050
  9
$TDUPDATE
 40
2452458.298766493
  9
$TDINDWG
 40
0.0005356134
  9
$TDUSRTIMER
 40
0.0005356134
  9
$USRTIMER
 70
     1
  9
$ANGBASE
 50
0.0
  9
$ANGDIR
 70
     0
  9
$PDMODE
 70
     0
  9
$PDSIZE
 40
0.0
  9
$PLINEWID
 40
0.0
  9
$COORDS
 70
     2
  9
$SPLFRAME
 70
     0
  9
$SPLINETYPE
 70
     6
  9
$SPLINESEGS
 70
     8
  9
$ATTDIA
 70
     0
  9
$ATTREQ
 70
     1
  9
$HANDLING
 70
 22529
  9
$HANDSEED
  5
7DE1B343D9D378C
  9
$SURFTAB1
 70
     6
  9
$SURFTAB2
 70
     6
  9
$SURFTYPE
 70
     6
  9
$SURFU
 70
     6
  9
$SURFV
 70
     6
  9
$UCSNAME
  2

  9
$UCSORG
 10
0.0
 20
0.0
 30
0.0
  9
$UCSXDIR
 10
1.0
 20
0.0
 30
0.0
  9
$UCSYDIR
 10
0.0
 20
1.0
 30
0.0
  9
$PUCSNAME
  2

  9
$PUCSORG
 10
0.0
 20
0.0
 30
0.0
  9
$PUCSXDIR
 10
1.0
 20
0.0
 30
0.0
  9
$PUCSYDIR
 10
0.0
 20
1.0
 30
0.0
  9
$USERI1
 70
     0
  9
$USERI2
 70
     0
  9
$USERI3
 70
     0
  9
$USERI4
 70
     0
  9
$USERI5
 70
     0
  9
$USERR1
 40
0.0
  9
$USERR2
 40
0.0
  9
$USERR3
 40
0.0
  9
$USERR4
 40
0.0
  9
$USERR5
 40
0.0
  9
$WORLDVIEW
 70
     1
  9
$SHADEDGE
 70
     3
  9
$SHADEDIF
 70
    70
  9
$TILEMODE
 70
     1
  9
$MAXACTVP
 70
    16
  9
$PINSBASE
 10
0.3564667158700887
 20
50.00000000000001
 30
0.7347560870744181
  9
$PLIMCHECK
 70
     0
  9
$PEXTMIN
 10
1.000000000000000E+20
 20
1.000000000000000E+20
 30
1.000000000000000E+20
  9
$PEXTMAX
 10
-1.000000000000000E+20
 20
-1.000000000000000E+20
 30
-1.000000000000000E+20
  9
$PLIMMIN
 10
0.0
 20
0.0
  9
$PLIMMAX
 10
12.0
 20
9.0
  9
$UNITMODE
 70
     0
  9
$VISRETAIN
 70
     0
  9
$PLINEGEN
 70
     1
  9
$PSLTSCALE
 70
     0
  9
$TREEDEPTH
 70
  3020
  9
$PICKSTYLE
 70
     1
  9
$CMLSTYLE
  2
STANDARD
  9
$CMLJUST
 70
     0
  9
$CMLSCALE
 40
1.0
  9
$PROXYGRAPHICS
 70
     1
  9
$MEASUREMENT
 70
     0
  0
ENDSEC
  0
SECTION
  2
CLASSES
  0
CLASS
  1
LWPOLYLINE
  2
AcDbPolyline
  3
AutoCAD 2000
 90
        0
280
     0
281
     1
  0
CLASS
  1
ACDBDICTIONARYWDFLT
  2
AcDbDictionaryWithDefault
  3
AutoCAD 2000
 90
        0
280
     0
281
     0
  0
CLASS
  1
ACDBPLACEHOLDER
  2
AcDbPlaceHolder
  3
AutoCAD 2000
 90
        0
280
     0
281
     0
  0
CLASS
  1
LAYOUT
  2
AcDbLayout
  3
AutoCAD 2000
 90
        0
280
     0
281
     0
  0
CLASS
  1
DICTIONARYVAR
  2
AcDbDictionaryVar
  3
AutoCAD 2000
 90
        0
280
     0
281
     0
  0
CLASS
  1
LONG_TRANSACTION
  2
AcDbLongTransaction
  3
AutoCAD 2000
 90
        0
280
     0
281
     0
  0
CLASS
  1
LWPOLYLINE
  2
AcDbPolyline
  3
AutoCAD 2000
 90
        0
280
     0
281
     1
  0
CLASS
  1
HATCH
  2
AcDbHatch
  3
AutoCAD 2000
 90
        0
280
     0
281
     1
  0
CLASS
  1
XRECORD
  2
AcDbXrecord
  3
AutoCAD 2000
 90
        0
280
     0
281
     0
  0
ENDSEC
  0
SECTION
  2
TABLES
  0
TABLE
  2
VPORT
  5
7DE1B343D9D3733
330
0
100
AcDbSymbolTable
 70
     2
  0
VPORT
  5
7DE1B343D9D3767
330
7DE1B343D9D3733
100
AcDbSymbolTableRecord
100
AcDbViewportTableRecord
  2
*ACTIVE
 70
     0
 10
0.0
 20
0.0
 11
1.0
 21
1.0
 12
4.431643942964145
 22
1.189361594604982
 13
0.0
 23
0.0
 14
0.015625
 24
0.015625
 15
0.0
 25
0.0
 16
0.0
 26
0.0
 36
1.0
 17
0.0
 27
0.0
 37
0.0
 40
2.282548292914335
 41
4.320930232558139
 42
50.0
 43
0.0
 44
0.0
 50
0.0
 51
0.0
 71
     0
 72
  2000
 73
     1
 74
     0
 75
     0
 76
     0
 77
     0
 78
     0
  0
ENDTAB
  0
TABLE
  2
LTYPE
  5
7DE1B343D9D3730
330
0
100
AcDbSymbolTable
 70
     1
  0
LTYPE
  5
7DE1B343D9D373D
330
7DE1B343D9D3730
100
AcDbSymbolTableRecord
100
AcDbLinetypeTableRecord
  2
BYBLOCK
 70
     0
  3

 72
    65
 73
     0
 40
0.0
  0
LTYPE
  5
7DE1B343D9D373E
330
7DE1B343D9D3730
100
AcDbSymbolTableRecord
100
AcDbLinetypeTableRecord
  2
BYLAYER
 70
     0
  3

 72
    65
 73
     0
 40
0.0
  0
LTYPE
  5
7DE1B343D9D373F
330
7DE1B343D9D3730
100
AcDbSymbolTableRecord
100
AcDbLinetypeTableRecord
  2
CONTINUOUS
 70
     0
  3
Solid line
 72
    65
 73
     0
 40
0.0
  0
ENDTAB
  0
TABLE
  2
LAYER
  5
7DE1B343D9D372D
330
0
100
AcDbSymbolTable
 70
     2
  0
LAYER
  5
7DE1B343D9D373A
330
7DE1B343D9D372D
100
AcDbSymbolTableRecord
100
AcDbLayerTableRecord
  2
0
 70
     0
 62
     7
  6
CONTINUOUS
  0
LAYER
  5
7DE1B343D9D374A
330
7DE1B343D9D372D
100
AcDbSymbolTableRecord
100
AcDbLayerTableRecord
  2
TEXT
 70
     0
 62
     3
  6
CONTINUOUS
  0
ENDTAB
  0
TABLE
  2
STYLE
  5
7DE1B343D9D372E
330
0
100
AcDbSymbolTable
 70
     3
  0
STYLE
  5
7DE1B343D9D373B
330
7DE1B343D9D372E
100
AcDbSymbolTableRecord
100
AcDbTextStyleTableRecord
  2
STANDARD
 70
     0
 40
0.0
 41
1.0
 50
0.0
 71
     0
 42
0.3125
  3
txt
  4

  0
STYLE
  5
7DE1B343D9D3747
330
7DE1B343D9D372E
100
AcDbSymbolTableRecord
100
AcDbTextStyleTableRecord
  2
ITALICC
 70
     0
 40
0.0
 41
1.0
 50
0.0
 71
     0
 42
0.125
  3
italicc
  4

  0
STYLE
  5
7DE1B343D9D3757
330
7DE1B343D9D372E
100
AcDbSymbolTableRecord
100
AcDbTextStyleTableRecord
  2
ROMANS
 70
     0
 40
0.0
 41
1.0
 50
0.0
 71
     0
 42
0.125
  3
romans.shx
  4

  0
ENDTAB
  0
TABLE
  2
VIEW
  5
7DE1B343D9D3731
330
0
100
AcDbSymbolTable
 70
     0
  0
ENDTAB
  0
TABLE
  2
UCS
  5
7DE1B343D9D3732
330
0
100
AcDbSymbolTable
 70
     0
  0
ENDTAB
  0
TABLE
  2
APPID
  5
7DE1B343D9D3734
330
0
100
AcDbSymbolTable
 70
     1
  0
APPID
  5
7DE1B343D9D373C
330
7DE1B343D9D3734
100
AcDbSymbolTableRecord
100
AcDbRegAppTableRecord
  2
ACAD
 70
     0
  0
ENDTAB
  0
TABLE
  2
DIMSTYLE
  5
7DE1B343D9D3735
330
0
100
AcDbSymbolTable
 70
     1
  0
DIMSTYLE
105
7DE1B343D9D374F
330
7DE1B343D9D3735
100
AcDbSymbolTableRecord
100
AcDbDimStyleTableRecord
  2
STANDARD
 70
     0
  3

  4

  5

  6

  7

 40
1.0
 41
0.125
 42
0.125
 43
0.375
 44
0.125
 45
0.0
 46
0.0
 47
0.0
 48
0.0
140
0.125
141
-0.125
142
0.0
143
25.4
144
1.0
145
0.0
146
1.0
147
0.09
 71
     0
 72
     0
 73
     1
 74
     1
 75
     0
 76
     0
 77
     0
 78
     4
170
     0
171
     2
172
     0
173
     0
174
     1
175
     0
176
     0
177
     0
178
     0
270
     2
271
     3
272
     3
273
     2
274
     2
340
7DE1B343D9D3757
275
     0
280
     0
281
     0
282
     0
283
     1
284
     4
285
     0
286
     0
287
     3
288
     0
  0
ENDTAB
  0
TABLE
  2
BLOCK_RECORD
  5
7DE1B343D9D372C
330
0
100
AcDbSymbolTable
 70
     0
  0
BLOCK_RECORD
  5
7DE1B343D9D3743
102
{ACAD_XDICTIONARY
360
7DE1B343D9D378A
102
}
330
7DE1B343D9D372C
100
AcDbSymbolTableRecord
100
AcDbBlockTableRecord
  2
*MODEL_SPACE
  0
BLOCK_RECORD
  5
7DE1B343D9D3740
102
{ACAD_XDICTIONARY
360
7DE1B343D9D3788
102
}
330
7DE1B343D9D372C
100
AcDbSymbolTableRecord
100
AcDbBlockTableRecord
  2
*PAPER_SPACE
  0
ENDTAB
  0
ENDSEC
  0
SECTION
  2
BLOCKS
  0
BLOCK
  5
7DE1B343D9D374D
330
7DE1B343D9D3743
100
AcDbEntity
  8
0
100
AcDbBlockBegin
  2
*MODEL_SPACE
 70
     0
 10
0.0
 20
0.0
 30
0.0
  3
*MODEL_SPACE
  1

  0
ENDBLK
  5
7DE1B343D9D374E
330
7DE1B343D9D3743
100
AcDbEntity
  8
0
100
AcDbBlockEnd
  0
BLOCK
  5
7DE1B343D9D374B
330
7DE1B343D9D3740
100
AcDbEntity
 67
     1
  8
0
100
AcDbBlockBegin
  2
*PAPER_SPACE
 70
     0
 10
0.0
 20
0.0
 30
0.0
  3
*PAPER_SPACE
  1

  0
ENDBLK
  5
7DE1B343D9D374C
330
7DE1B343D9D3740
100
AcDbEntity
 67
     1
  8
0
100
AcDbBlockEnd
  0
ENDSEC
  0
SECTION
  2
ENTITIES
  0
LWPOLYLINE
  5
7DE1B343D9D237B
330
7DE1B343D9D3743
100
AcDbEntity
  8
0
100
AcDbPolyline
 90
        4
 70
     1
 43
0.0
 10
1.393158876642217
 20
1.061478420730915
 10
1.518158876642217
 20
1.061478420730915
 10
1.518158876642217
 20
2.061478420730915
 10
1.393158876642217
 20
2.061478420730915
  0
TEXT
  5
7DE1B343D9D35EE
330
7DE1B343D9D3743
100
AcDbEntity
  8
TEXT
100
AcDbText
 10
0.7026826861660267
 20
0.775086349495936
 30
0.0
 40
0.125
  1
PART #110166
  7
ITALICC
 72
     1
 11
1.455658876642217
 21
0.775086349495936
 31
0.0
100
AcDbText
  0
TEXT
  5
7DE1B343D9D35EF
330
7DE1B343D9D3743
100
AcDbEntity
  8
TEXT
100
AcDbText
 10
1.868964034892538
 20
0.3281637068235608
 30
0.0
 40
0.0522247191011236
  1
Phone  1-800-328-2495
 41
1.272321428571429
 72
     5
 11
3.197896619162202
 21
0.3281637068235608
 31
0.0
100
AcDbText
  0
TEXT
  5
7DE1B343D9D35F0
330
7DE1B343D9D3743
100
AcDbEntity
  8
TEXT
100
AcDbText
 10
1.868964034892538
 20
0.6079389877224373
 30
0.0
 40
0.0522247191011236
  1
Stylmark  Incorporated
 41
1.221428571428573
 72
     5
 11
3.197896619162202
 21
0.6079389877224373
 31
0.0
100
AcDbText
  0
TEXT
  5
7DE1B343D9D35F1
330
7DE1B343D9D3743
100
AcDbEntity
  8
TEXT
100
AcDbText
 10
1.868964034892538
 20
0.5146805607561451
 30
0.0
 40
0.0522247191011236
  1
6536 Main St. N.E. * P.O. Box 32008
 41
0.8388932496075366
 72
     5
 11
3.197896619162202
 21
0.5146805607561451
 31
0.0
100
AcDbText
  0
TEXT
  5
7DE1B343D9D35F2
330
7DE1B343D9D3743
100
AcDbEntity
  8
TEXT
100
AcDbText
 10
1.868964034892538
 20
0.4214221337898529
 30
0.0
 40
0.0522247191011236
  1
Minneapolis, MN 55432-0008
 41
1.11444212721585
 72
     5
 11
3.197896619162202
 21
0.4214221337898529
 31
0.0
100
AcDbText
  0
LWPOLYLINE
  5
7DE1B343D9D35F3
330
7DE1B343D9D3743
100
AcDbEntity
  8
TEXT
100
AcDbPolyline
 90
        3
 70
     0
 43
0.0006660908203125
 10
-0.2869896571747694
 20
0.4418084694609956
 10
-0.2869896571747694
 20
0.328573030007868
 10
-0.1737542177216471
 20
0.328573030007868
  0
LWPOLYLINE
  5
7DE1B343D9D35F8
330
7DE1B343D9D3743
100
AcDbEntity
  8
TEXT
100
AcDbPolyline
 90
        3
 70
     0
 43
0.0006660908203125
 10
-0.2603460243622719
 20
0.4418084694609956
 10
-0.2603460243622719
 20
0.355216662820369
 10
-0.1737542177216471
 20
0.355216662820369
  0
LWPOLYLINE
  5
7DE1B343D9D35FD
330
7DE1B343D9D3743
100
AcDbEntity
  8
TEXT
100
AcDbPolyline
 90
        2
 70
     0
 43
0.0001332181640625
 10
-0.2137196669403951
 20
0.4517998317656808
 10
-0.2869896571747694
 20
0.4418084694609956
  0
LWPOLYLINE
  5
7DE1B343D9D3601
330
7DE1B343D9D3743
100
AcDbEntity
  8
TEXT
100
AcDbPolyline
 90
        2
 70
     0
 43
0.0001332181640625
 10
-0.2603460243622719
 20
0.4418084694609956
 10
-0.2003978505341446
 20
0.4517998317656808
  0
LWPOLYLINE
  5
7DE1B343D9D3605
330
7DE1B343D9D3743
100
AcDbEntity
  8
TEXT
100
AcDbPolyline
 90
        2
 70
     0
 43
0.0001332181640625
 10
-0.2603460243622719
 20
0.355216662820369
 10
-0.2003978505341446
 20
0.4151648366484946
  0
LWPOLYLINE
  5
7DE1B343D9D3609
330
7DE1B343D9D3743
100
AcDbEntity
  8
TEXT
100
AcDbPolyline
 90
        3
 70
     0
 43
0.0006660908203125
 10
-0.1737542177216471
 20
0.5950093581328713
 10
-0.2869896571747694
 20
0.5950093581328713
 10
-0.2869896571747694
 20
0.4817739186797436
  0
LWPOLYLINE
  5
7DE1B343D9D360E
330
7DE1B343D9D3743
100
AcDbEntity
  8
TEXT
100
AcDbPolyline
 90
        3
 70
     0
 43
0.0006660908203125
 10
-0.1737542177216471
 20
0.5683657253203702
 10
-0.2603460243622719
 20
0.5683657253203702
 10
-0.2603460243622719
 20
0.4817739186797436
  0
LWPOLYLINE
  5
7DE1B343D9D3613
330
7DE1B343D9D3743
100
AcDbEntity
  8
TEXT
100
AcDbPolyline
 90
        2
 70
     0
 43
0.0001332181640625
 10
-0.2603460243622719
 20
0.5683657253203702
 10
-0.2003978505341464
 20
0.5084175514922447
  0
LWPOLYLINE
  5
7DE1B343D9D3617
330
7DE1B343D9D3743
100
AcDbEntity
  8
TEXT
100
AcDbPolyline
 90
        2
 70
     0
 43
0.0001332181640625
 10
-0.2603460243622719
 20
0.4817739186797436
 10
-0.2003978505341464
 20
0.4717825563750548
  0
LWPOLYLINE
  5
7DE1B343D9D361B
330
7DE1B343D9D3743
100
AcDbEntity
  8
TEXT
100
AcDbPolyline
 90
        2
 70
     0
 43
0.0001332181640625
 10
-0.2869896571747694
 20
0.4817739186797436
 10
-0.2137196669403951
 20
0.4717825563750548
  0
LWPOLYLINE
  5
7DE1B343D9D361F
330
7DE1B343D9D3743
100
AcDbEntity
  8
TEXT
100
AcDbPolyline
 90
        2
 70
     0
 43
0.0006660908203125
 10
-0.2603460243622719
 20
0.4418084694609956
 10
-0.2869896571747694
 20
0.4418084694609956
  0
LWPOLYLINE
  5
7DE1B343D9D3623
330
7DE1B343D9D3743
100
AcDbEntity
  8
TEXT
100
AcDbPolyline
 90
        2
 70
     0
 43
0.0006660908203125
 10
-0.2603460243622719
 20
0.4817739186797436
 10
-0.2869896571747694
 20
0.4817739186797436
  0
LINE
  5
7DE1B343D9D3627
330
7DE1B343D9D3743
100
AcDbEntity
  8
TEXT
100
AcDbLine
 10
1.228200771951728
 20
0.5307326634761023
 30
0.0
 11
1.120994498564438
 21
0.5307326634761023
 31
0.0
  0
LINE
  5
7DE1B343D9D3628
330
7DE1B343D9D3743
100
AcDbEntity
  8
TEXT
100
AcDbLine
 10
1.257231670296206
 20
0.5950093581328677
 30
0.0
 11
1.122399761079147
 21
0.5950093581328677
 31
0.0
  0
ARC
  5
7DE1B343D9D3629
330
7DE1B343D9D3743
100
AcDbEntity
  8
TEXT
100
AcDbCircle
 10
1.181713857472464
 20
0.4257721088698514
 30
0.0
 40
0.0676855811441166
100
AcDbArc
 50
90.0
 51
153.7768192527749
  0
LWPOLYLINE
  5
7DE1B343D9D362A
330
7DE1B343D9D3743
100
AcDbEntity
  8
TEXT
100
AcDbPolyline
 90
        2
 70
     0
 43
0.0
 10
1.119962003109628
 20
0.3720272700947949
 42
0.2901071551932823
 10
1.163037935977264
 20
0.3285363251443567
 42
5.328517124445801
  0
ARC
  5
7DE1B343D9D362E
330
7DE1B343D9D3743
100
AcDbEntity
  8
TEXT
100
AcDbCircle
 10
0.4765824798009786
 20
0.3883287164824065
 30
0.0
 40
0.0601160179737537
100
AcDbArc
 50
180.0000000000003
 51
264.0521544866073
  0
LINE
  5
7DE1B343D9D362F
330
7DE1B343D9D3743
100
AcDbEntity
  8
TEXT
100
AcDbLine
 10
0.4800978354265264
 20
0.6293972757270059
 30
0.0
 11
0.4200552305825194
 21
0.6293972757270059
 31
0.0
  0
ARC
  5
7DE1B343D9D3630
330
7DE1B343D9D3743
100
AcDbEntity
  8
TEXT
100
AcDbCircle
 10
0.244323477684008
 20
0.5129218986863659
 30
0.0
 40
0.0820874594465043
100
AcDbArc
 50
90.0
 51
270.0
  0
LWPOLYLINE
  5
7DE1B343D9D3631
330
7DE1B343D9D3743
100
AcDbEntity
  8
TEXT
100
AcDbPolyline
 90
        2
 70
     0
 43
0.0001332181640625
 10
-0.1637628554169566
 20
0.5217393678984916
 10
-0.1737542177216471
 20
0.5950093581328713
  0
LWPOLYLINE
  5
7DE1B343D9D3635
330
7DE1B343D9D3743
100
AcDbEntity
  8
TEXT
100
AcDbPolyline
 90
        2
 70
     0
 43
0.0001332181640625
 10
-0.1737542177216471
 20
0.5683657253203702
 10
-0.1637628554169566
 20
0.5084175514922447
  0
LWPOLYLINE
  5
7DE1B343D9D3639
330
7DE1B343D9D3743
100
AcDbEntity
  8
TEXT
100
AcDbPolyline
 90
        3
 70
     0
 43
0.0006660908203125
 10
-0.0205533290497697
 20
0.4817739186797436
 10
-0.0205533290497697
 20
0.5950093581328713
 10
-0.1337887685028956
 20
0.5950093581328713
  0
LWPOLYLINE
  5
7DE1B343D9D363E
330
7DE1B343D9D3743
100
AcDbEntity
  8
TEXT
100
AcDbPolyline
 90
        3
 70
     0
 43
0.0006660908203125
 10
-0.0471969618622707
 20
0.4817739186797436
 10
-0.0471969618622707
 20
0.5683657253203702
 10
-0.1337887685028956
 20
0.5683657253203702
  0
LWPOLYLINE
  5
7DE1B343D9D3643
330
7DE1B343D9D3743
100
AcDbEntity
  8
TEXT
100
AcDbPolyline
 90
        2
 70
     0
 43
0.0001332181640625
 10
-0.0471969618622707
 20
0.5683657253203702
 10
-0.1071451356903945
 20
0.5084175514922447
  0
LWPOLYLINE
  5
7DE1B343D9D3647
330
7DE1B343D9D3743
100
AcDbEntity
  8
TEXT
100
AcDbPolyline
 90
        2
 70
     0
 43
0.0001332181640625
 10
-0.1337887685028956
 20
0.5683657253203702
 10
-0.1437801308075843
 20
0.5084175514922447
  0
LWPOLYLINE
  5
7DE1B343D9D364B
330
7DE1B343D9D3743
100
AcDbEntity
  8
TEXT
100
AcDbPolyline
 90
        2
 70
     0
 43
0.0001332181640625
 10
-0.1337887685028956
 20
0.5950093581328713
 10
-0.1437801308075843
 20
0.5217393678984916
  0
LWPOLYLINE
  5
7DE1B343D9D364F
330
7DE1B343D9D3743
100
AcDbEntity
  8
TEXT
100
AcDbPolyline
 90
        2
 70
     0
 43
0.0001332181640625
 10
-0.0938233192841458
 20
0.4717825563750548
 10
-0.0205533290497697
 20
0.4817739186797436
  0
LWPOLYLINE
  5
7DE1B343D9D3653
330
7DE1B343D9D3743
100
AcDbEntity
  8
TEXT
100
AcDbPolyline
 90
        2
 70
     0
 43
0.0001332181640625
 10
-0.0471969618622707
 20
0.4817739186797436
 10
-0.1071451356903945
 20
0.4717825563750548
  0
LWPOLYLINE
  5
7DE1B343D9D3657
330
7DE1B343D9D3743
100
AcDbEntity
  8
TEXT
100
AcDbPolyline
 90
        2
 70
     0
 43
0.0001332181640625
 10
-0.0205533290497697
 20
0.4418084694609956
 10
-0.0938233192841458
 20
0.4517998317656808
  0
LWPOLYLINE
  5
7DE1B343D9D365B
330
7DE1B343D9D3743
100
AcDbEntity
  8
TEXT
100
AcDbPolyline
 90
        2
 70
     0
 43
0.0001332181640625
 10
-0.0471969618622707
 20
0.4418084694609956
 10
-0.1071451356903945
 20
0.4517998317656808
  0
LWPOLYLINE
  5
7DE1B343D9D365F
330
7DE1B343D9D3743
100
AcDbEntity
  8
TEXT
100
AcDbPolyline
 90
        2
 70
     0
 43
0.0001332181640625
 10
-0.0471969618622707
 20
0.355216662820369
 10
-0.1071451356903945
 20
0.4151648366484946
  0
LWPOLYLINE
  5
7DE1B343D9D3663
330
7DE1B343D9D3743
100
AcDbEntity
  8
TEXT
100
AcDbPolyline
 90
        3
 70
     0
 43
0.0006660908203125
 10
-0.1337887685028956
 20
0.355216662820369
 10
-0.0471969618622707
 20
0.355216662820369
 10
-0.0471969618622707
 20
0.4418084694609956
  0
LWPOLYLINE
  5
7DE1B343D9D3668
330
7DE1B343D9D3743
100
AcDbEntity
  8
TEXT
100
AcDbPolyline
 90
        3
 70
     0
 43
0.0006660908203125
 10
-0.1337887685028956
 20
0.328573030007868
 10
-0.0205533290497697
 20
0.328573030007868
 10
-0.0205533290497697
 20
0.4418084694609956
  0
LWPOLYLINE
  5
7DE1B343D9D366D
330
7DE1B343D9D3743
100
AcDbEntity
  8
TEXT
100
AcDbPolyline
 90
        5
 70
     0
 43
0.0001332181640625
 10
-0.1637628554169566
 20
0.401843020242244
 10
-0.1637628554169566
 20
0.4151648366484946
 10
-0.2003978505341446
 20
0.4151648366484946
 10
-0.2003978505341446
 20
0.4517998317656808
 10
-0.2137196669403951
 20
0.4517998317656808
  0
LWPOLYLINE
  5
7DE1B343D9D3674
330
7DE1B343D9D3743
100
AcDbEntity
  8
TEXT
100
AcDbPolyline
 90
        2
 70
     0
 43
0.0006660908203125
 10
-0.1737542177216471
 20
0.355216662820369
 10
-0.1737542177216471
 20
0.328573030007868
  0
LWPOLYLINE
  5
7DE1B343D9D3678
330
7DE1B343D9D3743
100
AcDbEntity
  8
TEXT
100
AcDbPolyline
 90
        2
 70
     0
 43
0.0001332181640625
 10
-0.1737542177216471
 20
0.355216662820369
 10
-0.1637628554169566
 20
0.4151648366484946
  0
LWPOLYLINE
  5
7DE1B343D9D367C
330
7DE1B343D9D3743
100
AcDbEntity
  8
TEXT
100
AcDbPolyline
 90
        2
 70
     0
 43
0.0001332181640625
 10
-0.1737542177216471
 20
0.328573030007868
 10
-0.1637628554169566
 20
0.401843020242244
  0
LWPOLYLINE
  5
7DE1B343D9D3680
330
7DE1B343D9D3743
100
AcDbEntity
  8
TEXT
100
AcDbPolyline
 90
        5
 70
     0
 43
0.0001332181640625
 10
-0.2137196669403951
 20
0.4717825563750548
 10
-0.2003978505341464
 20
0.4717825563750548
 10
-0.2003978505341464
 20
0.5084175514922447
 10
-0.1637628554169566
 20
0.5084175514922447
 10
-0.1637628554169566
 20
0.5217393678984916
  0
LWPOLYLINE
  5
7DE1B343D9D3687
330
7DE1B343D9D3743
100
AcDbEntity
  8
TEXT
100
AcDbPolyline
 90
        5
 70
     0
 43
0.0001332181640625
 10
-0.1437801308075843
 20
0.5217393678984916
 10
-0.1437801308075843
 20
0.5084175514922447
 10
-0.1071451356903945
 20
0.5084175514922447
 10
-0.1071451356903945
 20
0.4717825563750548
 10
-0.0938233192841458
 20
0.4717825563750548
  0
LWPOLYLINE
  5
7DE1B343D9D368E
330
7DE1B343D9D3743
100
AcDbEntity
  8
TEXT
100
AcDbPolyline
 90
        2
 70
     0
 43
0.0001332181640625
 10
-0.1337887685028956
 20
0.355216662820369
 10
-0.1437801308075843
 20
0.4151648366484946
  0
LWPOLYLINE
  5
7DE1B343D9D3692
330
7DE1B343D9D3743
100
AcDbEntity
  8
TEXT
100
AcDbPolyline
 90
        2
 70
     0
 43
0.0001332181640625
 10
-0.1437801308075843
 20
0.401843020242244
 10
-0.1337887685028956
 20
0.328573030007868
  0
LWPOLYLINE
  5
7DE1B343D9D3696
330
7DE1B343D9D3743
100
AcDbEntity
  8
TEXT
100
AcDbPolyline
 90
        2
 70
     0
 43
0.0006660908203125
 10
-0.1337887685028956
 20
0.355216662820369
 10
-0.1337887685028956
 20
0.328573030007868
  0
LWPOLYLINE
  5
7DE1B343D9D369A
330
7DE1B343D9D3743
100
AcDbEntity
  8
TEXT
100
AcDbPolyline
 90
        5
 70
     0
 43
0.0001332181640625
 10
-0.0938233192841458
 20
0.4517998317656808
 10
-0.1071451356903945
 20
0.4517998317656808
 10
-0.1071451356903945
 20
0.4151648366484946
 10
-0.1437801308075843
 20
0.4151648366484946
 10
-0.1437801308075843
 20
0.401843020242244
  0
LWPOLYLINE
  5
7DE1B343D9D36A1
330
7DE1B343D9D3743
100
AcDbEntity
  8
TEXT
100
AcDbPolyline
 90
        2
 70
     0
 43
0.0006660908203125
 10
-0.0471969618622707
 20
0.4817739186797436
 10
-0.0205533290497697
 20
0.4817739186797436
  0
LWPOLYLINE
  5
7DE1B343D9D36A5
330
7DE1B343D9D3743
100
AcDbEntity
  8
TEXT
100
AcDbPolyline
 90
        2
 70
     0
 43
0.0006660908203125
 10
-0.0471969618622707
 20
0.4418084694609956
 10
-0.0205533290497697
 20
0.4418084694609956
  0
LINE
  5
7DE1B343D9D36A9
330
7DE1B343D9D3743
100
AcDbEntity
  8
TEXT
100
AcDbLine
 10
0.2495608077982552
 20
0.5307326634761023
 30
0.0
 11
0.4164664618272265
 21
0.5307326634761023
 31
0.0
  0
LINE
  5
7DE1B343D9D36AA
330
7DE1B343D9D3743
100
AcDbEntity
  8
TEXT
100
AcDbLine
 10
0.3151609440425562
 20
0.4949279418654744
 30
0.0
 11
0.2495608077982552
 21
0.4949279418654744
 31
0.0
  0
LINE
  5
7DE1B343D9D36AB
330
7DE1B343D9D3743
100
AcDbEntity
  8
TEXT
100
AcDbLine
 10
0.1622360182375035
 20
0.3285363251443567
 30
0.0
 11
0.3151609440425562
 21
0.3285363251443567
 31
0.0
  0
LINE
  5
7DE1B343D9D36AC
330
7DE1B343D9D3743
100
AcDbEntity
  8
TEXT
100
AcDbLine
 10
0.3201013179488359
 20
0.396893331477796
 30
0.0
 11
0.1622360182375018
 21
0.396893331477796
 31
0.0
  0
LINE
  5
7DE1B343D9D36AD
330
7DE1B343D9D3743
100
AcDbEntity
  8
TEXT
100
AcDbLine
 10
0.2443234776840071
 20
0.4308344392398606
 30
0.0
 11
0.3201013179488359
 21
0.4308344392398606
 31
0.0
  0
ARC
  5
7DE1B343D9D36AE
330
7DE1B343D9D3743
100
AcDbEntity
  8
TEXT
100
AcDbCircle
 10
0.2495608077982561
 20
0.5128303026707901
 30
0.0
 40
0.017902360805315
100
AcDbArc
 50
90.0
 51
270.0
  0
LINE
  5
7DE1B343D9D36AF
330
7DE1B343D9D3743
100
AcDbEntity
  8
TEXT
100
AcDbLine
 10
0.1622360182375018
 20
0.396893331477796
 30
0.0
 11
0.1622360182375035
 21
0.3285363251443567
 31
0.0
  0
LINE
  5
7DE1B343D9D36B0
330
7DE1B343D9D3743
100
AcDbEntity
  8
TEXT
100
AcDbLine
 10
0.4164664618272265
 20
0.5307326634761023
 30
0.0
 11
0.4164664618272265
 21
0.3883287164824065
 31
0.0
  0
ARC
  5
7DE1B343D9D36B1
330
7DE1B343D9D3743
100
AcDbEntity
  8
TEXT
100
AcDbCircle
 10
0.3151609440425571
 20
0.4117321335049138
 30
0.0
 40
0.0831958083605586
100
AcDbArc
 50
270.0
 51
90.0
  0
ARC
  5
7DE1B343D9D36B2
330
7DE1B343D9D3743
100
AcDbEntity
  8
TEXT
100
AcDbCircle
 10
0.3201013179488368
 20
0.4138638853588301
 30
0.0
 40
0.0169705538810321
100
AcDbArc
 50
270.0
 51
90.0
  0
LWPOLYLINE
  5
7DE1B343D9D36B3
330
7DE1B343D9D3743
100
AcDbEntity
  8
TEXT
100
AcDbPolyline
 90
        2
 70
     0
 43
0.0006660908203125
 10
-0.1737542177216471
 20
0.5683657253203702
 10
-0.1737542177216471
 20
0.5950093581328713
  0
LWPOLYLINE
  5
7DE1B343D9D36B7
330
7DE1B343D9D3743
100
AcDbEntity
  8
TEXT
100
AcDbPolyline
 90
        2
 70
     0
 43
0.0006660908203125
 10
-0.1337887685028956
 20
0.5683657253203702
 10
-0.1337887685028956
 20
0.5950093581328713
  0
LINE
  5
7DE1B343D9D36BB
330
7DE1B343D9D3743
100
AcDbEntity
  8
TEXT
100
AcDbLine
 10
0.4200552305825194
 20
0.5950093581328677
 30
0.0
 11
0.2443234776840071
 21
0.5950093581328677
 31
0.0
  0
LINE
  5
7DE1B343D9D36BC
330
7DE1B343D9D3743
100
AcDbEntity
  8
TEXT
100
AcDbLine
 10
0.4200552305825194
 20
0.6293972757270059
 30
0.0
 11
0.4200552305825194
 21
0.5950093581328677
 31
0.0
  0
LINE
  5
7DE1B343D9D36BD
330
7DE1B343D9D3743
100
AcDbEntity
  8
TEXT
100
AcDbLine
 10
0.6105271226023717
 20
0.4941373620197471
 30
0.0
 11
0.5518968015704338
 21
0.5950093581328677
 31
0.0
  0
LINE
  5
7DE1B343D9D36BE
330
7DE1B343D9D3743
100
AcDbEntity
  8
TEXT
100
AcDbLine
 10
0.6692756854082372
 20
0.5950093581328677
 30
0.0
 11
0.6105271226023717
 21
0.4941373620197471
 31
0.0
  0
LINE
  5
7DE1B343D9D36BF
330
7DE1B343D9D3743
100
AcDbEntity
  8
TEXT
100
AcDbLine
 10
0.7662063107679784
 20
0.4109241632473559
 30
0.0
 11
0.7662063107679784
 21
0.6630208358716783
 31
0.0
  0
LINE
  5
7DE1B343D9D36C0
330
7DE1B343D9D3743
100
AcDbEntity
  8
TEXT
100
AcDbLine
 10
0.7985181649056386
 20
0.5950093581328677
 30
0.0
 11
0.7985181649056386
 21
0.3941451514004595
 31
0.0
  0
LINE
  5
7DE1B343D9D36C1
330
7DE1B343D9D3743
100
AcDbEntity
  8
TEXT
100
AcDbLine
 10
0.7985181649056386
 20
0.3941451514004595
 30
0.0
 11
0.7815245280210373
 21
0.3941451514004595
 31
0.0
  0
LINE
  5
7DE1B343D9D36C2
330
7DE1B343D9D3743
100
AcDbEntity
  8
TEXT
100
AcDbLine
 10
0.7673458842641732
 20
0.3285363251443567
 30
0.0
 11
0.8653492179636078
 21
0.3285363251443567
 31
0.0
  0
LINE
  5
7DE1B343D9D36C3
330
7DE1B343D9D3743
100
AcDbEntity
  8
TEXT
100
AcDbLine
 10
0.6009268856054173
 20
0.3484948312493696
 30
0.0
 11
0.698226591698862
 21
0.5128450421846378
 31
0.0
  0
ARC
  5
7DE1B343D9D36C4
330
7DE1B343D9D3743
100
AcDbEntity
  8
TEXT
100
AcDbCircle
 10
0.5668833256932034
 20
0.3680840474180524
 30
0.0
 40
0.0392772371940762
100
AcDbArc
 50
270.1604552698595
 51
330.0831797321295
  0
LINE
  5
7DE1B343D9D36C5
330
7DE1B343D9D3743
100
AcDbEntity
  8
TEXT
100
AcDbLine
 10
0.4703530693073322
 20
0.3285363251443567
 30
0.0
 11
0.5669933203823266
 21
0.328806964242639
 31
0.0
  0
LWPOLYLINE
  5
7DE1B343D9D36C6
330
7DE1B343D9D3743
100
AcDbEntity
  8
TEXT
100
AcDbPolyline
 90
        6
 70
     1
 43
0.0
 10
0.5128768728824818
 20
0.5307326634761023
 10
0.4825602786622736
 20
0.5307326634761023
 10
0.4825602786622736
 20
0.4076216654212079
 42
0.407328721240804
 10
0.49410392982375
 20
0.3958027507448218
 10
0.5547256288684808
 20
0.3958027507448218
 10
0.5721909692757987
 20
0.428614979788301
  0
LINE
  5
7DE1B343D9D36CE
330
7DE1B343D9D3743
100
AcDbEntity
  8
TEXT
100
AcDbLine
 10
0.698226591698862
 20
0.5128450421846378
 30
0.0
 11
0.698226591698862
 21
0.3800876673592815
 31
0.0
  0
ARC
  5
7DE1B343D9D36CF
330
7DE1B343D9D3743
100
AcDbEntity
  8
TEXT
100
AcDbCircle
 10
0.7815245280210355
 20
0.4095269576438849
 30
0.0
 40
0.0153818062434269
100
AcDbArc
 50
174.7883570302258
 51
270.0
  0
LWPOLYLINE
  5
7DE1B343D9D36D0
330
7DE1B343D9D3743
100
AcDbEntity
  8
TEXT
100
AcDbPolyline
 90
        2
 70
     0
 43
0.0
 10
0.6982265916988602
 20
0.380087667359285
 42
0.3318488747599744
 10
0.7673458842641732
 20
0.3285363251443567
 42
-6.868794160588311
  0
LINE
  5
7DE1B343D9D36D4
330
7DE1B343D9D3743
100
AcDbEntity
  8
TEXT
100
AcDbLine
 10
0.9227382869528689
 20
0.3285363251443567
 30
0.0
 11
0.9897963337347089
 21
0.3285363251443567
 31
0.0
  0
LINE
  5
7DE1B343D9D36D5
330
7DE1B343D9D3743
100
AcDbEntity
  8
TEXT
100
AcDbLine
 10
0.9227382869528689
 20
0.5231788743099923
 30
0.0
 11
0.9227382869528689
 21
0.3285363251443567
 31
0.0
  0
LINE
  5
7DE1B343D9D36D6
330
7DE1B343D9D3743
100
AcDbEntity
  8
TEXT
100
AcDbLine
 10
0.8653492179636078
 20
0.5307326634761023
 30
0.0
 11
0.9151844977867554
 21
0.5307326634761023
 31
0.0
  0
LINE
  5
7DE1B343D9D36D7
330
7DE1B343D9D3743
100
AcDbEntity
  8
TEXT
100
AcDbLine
 10
0.8653492179636078
 20
0.3285363251443567
 30
0.0
 11
0.8653492179636078
 21
0.5307326634761023
 31
0.0
  0
LWPOLYLINE
  5
7DE1B343D9D36D8
330
7DE1B343D9D3743
100
AcDbEntity
  8
TEXT
100
AcDbPolyline
 90
        2
 70
     0
 43
0.0
 10
0.9151844977867536
 20
0.5307326634761023
 42
-0.4142135623731017
 10
0.9227382869528671
 20
0.5231788743099923
 42
-0.9999999999999998
  0
LINE
  5
7DE1B343D9D36DC
330
7DE1B343D9D3743
100
AcDbEntity
  8
TEXT
100
AcDbLine
 10
1.120994498564438
 20
0.5307326634761023
 30
0.0
 11
1.120994498564438
 21
0.4556802574018957
 31
0.0
  0
LINE
  5
7DE1B343D9D36DD
330
7DE1B343D9D3743
100
AcDbEntity
  8
TEXT
100
AcDbLine
 10
0.9897963337347089
 20
0.5307326634761023
 30
0.0
 11
1.043929930655659
 21
0.5307326634761023
 31
0.0
  0
LINE
  5
7DE1B343D9D36DE
330
7DE1B343D9D3743
100
AcDbEntity
  8
TEXT
100
AcDbLine
 10
0.9897963337347089
 20
0.3285363251443567
 30
0.0
 11
0.9897963337347089
 21
0.5307326634761023
 31
0.0
  0
LWPOLYLINE
  5
7DE1B343D9D36DF
330
7DE1B343D9D3743
100
AcDbEntity
  8
TEXT
100
AcDbPolyline
 90
        2
 70
     0
 43
0.0
 10
1.043929930655657
 20
0.5307326634761023
 42
-0.4142135623731017
 10
1.05148371982177
 20
0.5231788743099923
 42
-0.9999999999999998
  0
LWPOLYLINE
  5
7DE1B343D9D36E3
330
7DE1B343D9D3743
100
AcDbEntity
  8
TEXT
100
AcDbPolyline
 90
        4
 70
     0
 43
0.0
 10
1.05148371982177
 20
0.5231788743099923
 10
1.05148371982177
 20
0.3285363251443567
 10
1.119962003109628
 20
0.3285363251443567
 10
1.119962003109628
 20
0.3720272700947949
 42
-1.714843617202739
  0
LINE
  5
7DE1B343D9D36E9
330
7DE1B343D9D3743
100
AcDbEntity
  8
TEXT
100
AcDbLine
 10
0.4800978354265264
 20
0.5950093581328677
 30
0.0
 11
0.4800978354265264
 21
0.6293972757270059
 31
0.0
  0
LINE
  5
7DE1B343D9D36EA
330
7DE1B343D9D3743
100
AcDbEntity
  8
TEXT
100
AcDbLine
 10
0.5518968015704338
 20
0.5950093581328677
 30
0.0
 11
0.4800978354265264
 21
0.5950093581328677
 31
0.0
  0
LINE
  5
7DE1B343D9D36EB
330
7DE1B343D9D3743
100
AcDbEntity
  8
TEXT
100
AcDbLine
 10
0.6993975982016134
 20
0.5950093581328677
 30
0.0
 11
0.6692756854082372
 21
0.5950093581328677
 31
0.0
  0
LINE
  5
7DE1B343D9D36EC
330
7DE1B343D9D3743
100
AcDbEntity
  8
TEXT
100
AcDbLine
 10
0.6993975982016134
 20
0.6630208358716783
 30
0.0
 11
0.6993975982016134
 21
0.5950093581328677
 31
0.0
  0
LINE
  5
7DE1B343D9D36ED
330
7DE1B343D9D3743
100
AcDbEntity
  8
TEXT
100
AcDbLine
 10
0.7662063107679784
 20
0.6630208358716783
 30
0.0
 11
0.6993975982016134
 21
0.6630208358716783
 31
0.0
  0
LWPOLYLINE
  5
7DE1B343D9D36EE
330
7DE1B343D9D3743
100
AcDbEntity
  8
TEXT
100
AcDbPolyline
 90
        3
 70
     0
 43
0.0
 10
1.08661807036598
 20
0.5950093581328713
 10
0.9683179115499363
 20
0.5950093581328713
 10
0.9683179115499363
 20
0.5678418613719753
 42
-1.960274751411753
  0
LINE
  5
7DE1B343D9D36F3
330
7DE1B343D9D3743
100
AcDbEntity
  8
TEXT
100
AcDbLine
 10
0.9325362208367749
 20
0.5950093581328677
 30
0.0
 11
0.7985181649056386
 21
0.5950093581328677
 31
0.0
  0
LWPOLYLINE
  5
7DE1B343D9D36F4
330
7DE1B343D9D3743
100
AcDbEntity
  8
TEXT
100
AcDbPolyline
 90
        2
 70
     0
 43
0.0
 10
0.9325362208367749
 20
0.5950093581328713
 42
-0.3328679258950098
 10
0.9683179115499363
 20
0.5678418613719753
 42
6.772930709997214
  0
LINE
  5
7DE1B343D9D36F8
330
7DE1B343D9D3743
100
AcDbEntity
  8
TEXT
100
AcDbLine
 10
1.122399761079147
 20
0.5950093581328677
 30
0.0
 11
1.122399761079147
 21
0.5666868123632238
 31
0.0
  0
LWPOLYLINE
  5
7DE1B343D9D36F9
330
7DE1B343D9D3743
100
AcDbEntity
  8
TEXT
100
AcDbPolyline
 90
        2
 70
     0
 43
0.0
 10
1.08661807036598
 20
0.5950093581328713
 42
-0.3277054968067132
 10
1.122399761079145
 20
0.5666868123632274
 42
6.667889725900311
  0
LINE
  5
7DE1B343D9D36FD
330
7DE1B343D9D3743
100
AcDbEntity
  8
TEXT
100
AcDbLine
 10
1.336191609171247
 20
0.4897973795794404
 30
0.0
 11
1.292440837989345
 21
0.5720476555755856
 31
0.0
  0
LINE
  5
7DE1B343D9D36FE
330
7DE1B343D9D3743
100
AcDbEntity
  8
TEXT
100
AcDbLine
 10
1.336191609171247
 20
0.5950093581328677
 30
0.0
 11
1.336191609171247
 21
0.4897973795794404
 31
0.0
  0
LINE
  5
7DE1B343D9D36FF
330
7DE1B343D9D3743
100
AcDbEntity
  8
TEXT
100
AcDbLine
 10
1.563875348109616
 20
0.5191440317213296
 30
0.0
 11
1.563875348109616
 21
0.6604735639004684
 31
0.0
  0
LINE
  5
7DE1B343D9D3700
330
7DE1B343D9D3743
100
AcDbEntity
  8
TEXT
100
AcDbLine
 10
1.610973506665601
 20
0.5950093581328677
 30
0.0
 11
1.563875348109616
 21
0.5191440317213296
 31
0.0
  0
LINE
  5
7DE1B343D9D3701
330
7DE1B343D9D3743
100
AcDbEntity
  8
TEXT
100
AcDbLine
 10
1.621408223429523
 20
0.4851161151918941
 30
0.0
 11
1.685965339395229
 21
0.5950093581328677
 31
0.0
  0
LINE
  5
7DE1B343D9D3702
330
7DE1B343D9D3743
100
AcDbEntity
  8
TEXT
100
AcDbLine
 10
1.500040356886843
 20
0.3285363251443567
 30
0.0
 11
1.564418541205463
 21
0.3285363251443567
 31
0.0
  0
LWPOLYLINE
  5
7DE1B343D9D3703
330
7DE1B343D9D3743
100
AcDbEntity
  8
TEXT
100
AcDbPolyline
 90
        2
 70
     0
 43
0.0
 10
1.340131286476285
 20
0.3720272700947949
 42
-0.2901071551932486
 10
1.29705535360864
 20
0.3285363251443567
 42
-5.328517124445184
  0
ARC
  5
7DE1B343D9D3707
330
7DE1B343D9D3743
100
AcDbEntity
  8
TEXT
100
AcDbCircle
 10
1.228200771951726
 20
0.502373288476105
 30
0.0
 40
0.028359375
100
AcDbArc
 50
25.78218179591245
 51
90.0
  0
LINE
  5
7DE1B343D9D3708
330
7DE1B343D9D3743
100
AcDbEntity
  8
TEXT
100
AcDbLine
 10
1.264001847255849
 20
0.49345769001397
 30
0.0
 11
1.253737086842285
 21
0.5147082295866643
 31
0.0
  0
LINE
  5
7DE1B343D9D3709
330
7DE1B343D9D3743
100
AcDbEntity
  8
TEXT
100
AcDbLine
 10
1.181713857472466
 20
0.49345769001397
 30
0.0
 11
1.264001847255849
 21
0.49345769001397
 31
0.0
  0
LWPOLYLINE
  5
7DE1B343D9D370A
330
7DE1B343D9D3743
100
AcDbEntity
  8
TEXT
100
AcDbPolyline
 90
        4
 70
     1
 43
0.0
 10
1.276932888538748
 20
0.4315003031283819
 10
1.188272569878889
 20
0.4315003031283819
 42
0.9999999999999998
 10
1.188272569878889
 20
0.3891017626245212
 10
1.276932888538748
 20
0.3891017626245212
 42
1.0
  0
LWPOLYLINE
  5
7DE1B343D9D3710
330
7DE1B343D9D3743
100
AcDbEntity
  8
TEXT
100
AcDbPolyline
 90
        2
 70
     0
 43
0.0
 10
1.163037935977264
 20
0.3285363251443567
 10
1.29705535360864
 20
0.3285363251443567
 42
0.9999999999999998
  0
LINE
  5
7DE1B343D9D3714
330
7DE1B343D9D3743
100
AcDbEntity
  8
TEXT
100
AcDbLine
 10
1.42339237559428
 20
0.5307326634761023
 30
0.0
 11
1.500040356886838
 21
0.5307326634761023
 31
0.0
  0
LINE
  5
7DE1B343D9D3715
330
7DE1B343D9D3743
100
AcDbEntity
  8
TEXT
100
AcDbLine
 10
1.500040356886838
 20
0.5307326634761023
 30
0.0
 11
1.500040356886843
 21
0.3285363251443567
 31
0.0
  0
ARC
  5
7DE1B343D9D3716
330
7DE1B343D9D3743
100
AcDbEntity
  8
TEXT
100
AcDbCircle
 10
1.423392375594278
 20
0.5058267881934395
 30
0.0
 40
0.0249058752826653
100
AcDbArc
 50
89.99971217465335
 51
179.9999999999985
  0
LINE
  5
7DE1B343D9D3717
330
7DE1B343D9D3743
100
AcDbEntity
  8
TEXT
100
AcDbLine
 10
1.398486500311621
 20
0.3285363251443567
 30
0.0
 11
1.398486500311615
 21
0.5058268305758251
 31
0.0
  0
LWPOLYLINE
  5
7DE1B343D9D3718
330
7DE1B343D9D3743
100
AcDbEntity
  8
TEXT
100
AcDbPolyline
 90
        2
 70
     0
 43
0.0
 10
1.340131286476285
 20
0.3285363251443567
 10
1.398486500311619
 20
0.3285363251443567
  0
LWPOLYLINE
  5
7DE1B343D9D371C
330
7DE1B343D9D3743
100
AcDbEntity
  8
TEXT
100
AcDbPolyline
 90
        2
 70
     0
 43
0.0
 10
1.340131286476285
 20
0.3720272700947949
 10
1.340131286476285
 20
0.3285363251443567
  0
LINE
  5
7DE1B343D9D3720
330
7DE1B343D9D3743
100
AcDbEntity
  8
TEXT
100
AcDbLine
 10
1.716900446793134
 20
0.3285363251443567
 30
0.0
 11
1.621408223429523
 21
0.4851161151918941
 31
0.0
  0
LINE
  5
7DE1B343D9D3721
330
7DE1B343D9D3743
100
AcDbEntity
  8
TEXT
100
AcDbLine
 10
1.640322074416928
 20
0.3285363251443567
 30
0.0
 11
1.716900446793134
 21
0.3285363251443567
 31
0.0
  0
LINE
  5
7DE1B343D9D3722
330
7DE1B343D9D3743
100
AcDbEntity
  8
TEXT
100
AcDbLine
 10
1.564418541205463
 20
0.4601158936205369
 30
0.0
 11
1.640322074416928
 21
0.3285363251443567
 31
0.0
  0
LINE
  5
7DE1B343D9D3723
330
7DE1B343D9D3743
100
AcDbEntity
  8
TEXT
100
AcDbLine
 10
1.564418541205463
 20
0.3285363251443567
 30
0.0
 11
1.564418541205463
 21
0.4601158936205369
 31
0.0
  0
LINE
  5
7DE1B343D9D3724
330
7DE1B343D9D3743
100
AcDbEntity
  8
TEXT
100
AcDbLine
 10
1.563875348109616
 20
0.6604735639004684
 30
0.0
 11
1.495560469560343
 21
0.6604735639004684
 31
0.0
  0
ARC
  5
7DE1B343D9D3725
330
7DE1B343D9D3743
100
AcDbEntity
  8
TEXT
100
AcDbCircle
 10
1.255204730519137
 20
0.5534257910119653
 30
0.0
 40
0.0416329381542859
100
AcDbArc
 50
26.56974201007528
 51
87.20939649401342
  0
LINE
  5
7DE1B343D9D3726
330
7DE1B343D9D3743
100
AcDbEntity
  8
TEXT
100
AcDbLine
 10
1.400088515470748
 20
0.5950093581328677
 30
0.0
 11
1.336191609171247
 21
0.5950093581328677
 31
0.0
  0
LINE
  5
7DE1B343D9D3727
330
7DE1B343D9D3743
100
AcDbEntity
  8
TEXT
100
AcDbLine
 10
1.400088515470748
 20
0.567461708271993
 30
0.0
 11
1.400088515470748
 21
0.5950093581328677
 31
0.0
  0
ARC
  5
7DE1B343D9D3728
330
7DE1B343D9D3743
100
AcDbEntity
  8
TEXT
100
AcDbCircle
 10
1.431281332533856
 20
0.5637636308506029
 30
0.0
 40
0.0314112657011332
100
AcDbArc
 50
95.88484768694724
 51
173.2388340632136
  0
LINE
  5
7DE1B343D9D3729
330
7DE1B343D9D3743
100
AcDbEntity
  8
TEXT
100
AcDbLine
 10
1.495560469560337
 20
0.5950093581328677
 30
0.0
 11
1.428060751910821
 21
0.5950093581328677
 31
0.0
  0
LINE
  5
7DE1B343D9D372A
330
7DE1B343D9D3743
100
AcDbEntity
  8
TEXT
100
AcDbLine
 10
1.495560469560343
 20
0.6604735639004684
 30
0.0
 11
1.495560469560337
 21
0.5950093581328677
 31
0.0
  0
LINE
  5
7DE1B343D9D372B
330
7DE1B343D9D3743
100
AcDbEntity
  8
TEXT
100
AcDbLine
 10
1.685965339395229
 20
0.5950093581328677
 30
0.0
 11
1.610973506665602
 21
0.5950093581328677
 31
0.0
  0
ENDSEC
  0
SECTION
  2
OBJECTS
  0
DICTIONARY
  5
7DE1B343D9D3737
330
0
100
AcDbDictionary
  3
ACAD_GROUP
350
7DE1B343D9D3738
  3
ACAD_LAYOUT
350
7DE1B343D9D375D
  3
ACAD_MLINESTYLE
350
7DE1B343D9D3739
  3
ACAD_PLOTSETTINGS
350
7DE1B343D9D375E
  3
ACAD_PLOTSTYLENAME
350
7DE1B343D9D375B
  3
ACDBHEADERROUNDTRIPXREC
350
7DE1B343D9D3768
  3
ACDBVARIABLEDICTIONARY
350
7DE1B343D9D3765
  0
DICTIONARY
  5
7DE1B343D9D378A
330
7DE1B343D9D3743
100
AcDbDictionary
280
     1
  3
ACAD_LAYOUTSELFREF
360
7DE1B343D9D378B
  0
DICTIONARY
  5
7DE1B343D9D3788
330
7DE1B343D9D3740
100
AcDbDictionary
280
     1
  3
ACAD_LAYOUTSELFREF
360
7DE1B343D9D3789
  0
DICTIONARY
  5
7DE1B343D9D3738
102
{ACAD_REACTORS
330
7DE1B343D9D3737
102
}
330
7DE1B343D9D3737
100
AcDbDictionary
  0
DICTIONARY
  5
7DE1B343D9D375D
102
{ACAD_REACTORS
330
7DE1B343D9D3737
102
}
330
7DE1B343D9D3737
100
AcDbDictionary
  0
DICTIONARY
  5
7DE1B343D9D3739
102
{ACAD_REACTORS
330
7DE1B343D9D3737
102
}
330
7DE1B343D9D3737
100
AcDbDictionary
  3
STANDARD
350
7DE1B343D9D3746
  0
DICTIONARY
  5
7DE1B343D9D375E
102
{ACAD_REACTORS
330
7DE1B343D9D3737
102
}
330
7DE1B343D9D3737
100
AcDbDictionary
  0
ACDBDICTIONARYWDFLT
  5
7DE1B343D9D375B
102
{ACAD_REACTORS
330
7DE1B343D9D3737
102
}
330
7DE1B343D9D3737
100
AcDbDictionary
281
     1
  3
Normal
350
7DE1B343D9D375C
100
AcDbDictionaryWithDefault
340
7DE1B343D9D375C
  0
DICTIONARY
  5
7DE1B343D9D3768
102
{ACAD_REACTORS
330
7DE1B343D9D3737
102
}
330
7DE1B343D9D3737
100
AcDbDictionary
  3
CEPSNTYPE
350
7DE1B343D9D3772
  3
FINGERPRINTGUID
350
7DE1B343D9D3773
  3
HYPERLINKBASE
350
7DE1B343D9D376B
  3
INSUNITS
350
7DE1B343D9D3771
  3
LAYOUTDICT
350
7DE1B343D9D376D
  3
LWETCUNION
350
7DE1B343D9D3770
  3
PLOTSETDICT
350
7DE1B343D9D376E
  3
PLOTSTYLNAMDICT
350
7DE1B343D9D376F
  3
PSVPSCALE
350
7DE1B343D9D3775
  3
PUCSBASE
350
7DE1B343D9D3778
  3
PUCSORGBACK
350
7DE1B343D9D377E
  3
PUCSORGBOTTOM
350
7DE1B343D9D377A
  3
PUCSORGFRONT
350
7DE1B343D9D377D
  3
PUCSORGLEFT
350
7DE1B343D9D377B
  3
PUCSORGRIGHT
350
7DE1B343D9D377C
  3
PUCSORGTOP
350
7DE1B343D9D3779
  3
PUCSORTHOREF
350
7DE1B343D9D3776
  3
PUCSORTHOVIEW
350
7DE1B343D9D3777
  3
STYLESHEET
350
7DE1B343D9D376C
  3
TSTACKALIGN
350
7DE1B343D9D3769
  3
TSTACKSIZE
350
7DE1B343D9D376A
  3
UCSBASE
350
7DE1B343D9D3781
  3
UCSORGBACK
350
7DE1B343D9D3787
  3
UCSORGBOTTOM
350
7DE1B343D9D3783
  3
UCSORGFRONT
350
7DE1B343D9D3786
  3
UCSORGLEFT
350
7DE1B343D9D3784
  3
UCSORGRIGHT
350
7DE1B343D9D3785
  3
UCSORGTOP
350
7DE1B343D9D3782
  3
UCSORTHOREF
350
7DE1B343D9D377F
  3
UCSORTHOVIEW
350
7DE1B343D9D3780
  3
VERSIONGUID
350
7DE1B343D9D3774
  0
DICTIONARY
  5
7DE1B343D9D3765
102
{ACAD_REACTORS
330
7DE1B343D9D3737
102
}
330
7DE1B343D9D3737
100
AcDbDictionary
  3
DIMASSOC
350
7DE1B343D9D3766
  0
XRECORD
  5
7DE1B343D9D378B
102
{ACAD_REACTORS
330
7DE1B343D9D378A
102
}
330
7DE1B343D9D378A
100
AcDbXrecord
340
7DE1B343D9D3743
  0
XRECORD
  5
7DE1B343D9D3789
102
{ACAD_REACTORS
330
7DE1B343D9D3788
102
}
330
7DE1B343D9D3788
100
AcDbXrecord
340
7DE1B343D9D3740
  0
MLINESTYLE
  5
7DE1B343D9D3746
102
{ACAD_REACTORS
330
7DE1B343D9D3739
102
}
330
7DE1B343D9D3739
100
AcDbMlineStyle
  2
STANDARD
 70
     0
  3

 62
     0
 51
90.0
 52
90.0
 71
     2
 49
0.5
 62
   256
  6
BYLAYER
 49
-0.5
 62
   256
  6
BYLAYER
  0
ACDBPLACEHOLDER
  5
7DE1B343D9D375C
102
{ACAD_REACTORS
330
7DE1B343D9D375B
102
}
330
7DE1B343D9D375B
100
AcDbPlaceHolder
280
     0
  0
XRECORD
  5
7DE1B343D9D3772
102
{ACAD_REACTORS
330
7DE1B343D9D3768
102
}
330
7DE1B343D9D3768
100
AcDbXrecord
 90
        0
  0
XRECORD
  5
7DE1B343D9D3773
102
{ACAD_REACTORS
330
7DE1B343D9D3768
102
}
330
7DE1B343D9D3768
100
AcDbXrecord
  1
{A82817A0-8DB4-11D6-88E6-0090279574E7}
  0
XRECORD
  5
7DE1B343D9D376B
102
{ACAD_REACTORS
330
7DE1B343D9D3768
102
}
330
7DE1B343D9D3768
100
AcDbXrecord
  1

  0
XRECORD
  5
7DE1B343D9D3771
102
{ACAD_REACTORS
330
7DE1B343D9D3768
102
}
330
7DE1B343D9D3768
100
AcDbXrecord
 90
        0
  0
XRECORD
  5
7DE1B343D9D376D
102
{ACAD_REACTORS
330
7DE1B343D9D3768
102
}
330
7DE1B343D9D3768
100
AcDbXrecord
340
7DE1B343D9D375D
  0
XRECORD
  5
7DE1B343D9D3770
102
{ACAD_REACTORS
330
7DE1B343D9D3768
102
}
330
7DE1B343D9D3768
100
AcDbXrecord
 90
    14877
  0
XRECORD
  5
7DE1B343D9D376E
102
{ACAD_REACTORS
330
7DE1B343D9D3768
102
}
330
7DE1B343D9D3768
100
AcDbXrecord
340
7DE1B343D9D375E
  0
XRECORD
  5
7DE1B343D9D376F
102
{ACAD_REACTORS
330
7DE1B343D9D3768
102
}
330
7DE1B343D9D3768
100
AcDbXrecord
340
7DE1B343D9D375B
  0
XRECORD
  5
7DE1B343D9D3775
102
{ACAD_REACTORS
330
7DE1B343D9D3768
102
}
330
7DE1B343D9D3768
100
AcDbXrecord
 40
0.0
  0
XRECORD
  5
7DE1B343D9D3778
102
{ACAD_REACTORS
330
7DE1B343D9D3768
102
}
330
7DE1B343D9D3768
100
AcDbXrecord
340
0
  0
XRECORD
  5
7DE1B343D9D377E
102
{ACAD_REACTORS
330
7DE1B343D9D3768
102
}
330
7DE1B343D9D3768
100
AcDbXrecord
 10
0.0
 20
0.0
 30
0.0
  0
XRECORD
  5
7DE1B343D9D377A
102
{ACAD_REACTORS
330
7DE1B343D9D3768
102
}
330
7DE1B343D9D3768
100
AcDbXrecord
 10
0.0
 20
0.0
 30
0.0
  0
XRECORD
  5
7DE1B343D9D377D
102
{ACAD_REACTORS
330
7DE1B343D9D3768
102
}
330
7DE1B343D9D3768
100
AcDbXrecord
 10
0.0
 20
0.0
 30
0.0
  0
XRECORD
  5
7DE1B343D9D377B
102
{ACAD_REACTORS
330
7DE1B343D9D3768
102
}
330
7DE1B343D9D3768
100
AcDbXrecord
 10
0.0
 20
0.0
 30
0.0
  0
XRECORD
  5
7DE1B343D9D377C
102
{ACAD_REACTORS
330
7DE1B343D9D3768
102
}
330
7DE1B343D9D3768
100
AcDbXrecord
 10
0.0
 20
0.0
 30
0.0
  0
XRECORD
  5
7DE1B343D9D3779
102
{ACAD_REACTORS
330
7DE1B343D9D3768
102
}
330
7DE1B343D9D3768
100
AcDbXrecord
 10
0.0
 20
0.0
 30
0.0
  0
XRECORD
  5
7DE1B343D9D3776
102
{ACAD_REACTORS
330
7DE1B343D9D3768
102
}
330
7DE1B343D9D3768
100
AcDbXrecord
340
0
  0
XRECORD
  5
7DE1B343D9D3777
102
{ACAD_REACTORS
330
7DE1B343D9D3768
102
}
330
7DE1B343D9D3768
100
AcDbXrecord
 70
     0
  0
XRECORD
  5
7DE1B343D9D376C
102
{ACAD_REACTORS
330
7DE1B343D9D3768
102
}
330
7DE1B343D9D3768
100
AcDbXrecord
  1

  0
XRECORD
  5
7DE1B343D9D3769
102
{ACAD_REACTORS
330
7DE1B343D9D3768
102
}
330
7DE1B343D9D3768
100
AcDbXrecord
 90
        1
  0
XRECORD
  5
7DE1B343D9D376A
102
{ACAD_REACTORS
330
7DE1B343D9D3768
102
}
330
7DE1B343D9D3768
100
AcDbXrecord
 90
       70
  0
XRECORD
  5
7DE1B343D9D3781
102
{ACAD_REACTORS
330
7DE1B343D9D3768
102
}
330
7DE1B343D9D3768
100
AcDbXrecord
340
0
  0
XRECORD
  5
7DE1B343D9D3787
102
{ACAD_REACTORS
330
7DE1B343D9D3768
102
}
330
7DE1B343D9D3768
100
AcDbXrecord
 10
0.0
 20
0.0
 30
0.0
  0
XRECORD
  5
7DE1B343D9D3783
102
{ACAD_REACTORS
330
7DE1B343D9D3768
102
}
330
7DE1B343D9D3768
100
AcDbXrecord
 10
0.0
 20
0.0
 30
0.0
  0
XRECORD
  5
7DE1B343D9D3786
102
{ACAD_REACTORS
330
7DE1B343D9D3768
102
}
330
7DE1B343D9D3768
100
AcDbXrecord
 10
0.0
 20
0.0
 30
0.0
  0
XRECORD
  5
7DE1B343D9D3784
102
{ACAD_REACTORS
330
7DE1B343D9D3768
102
}
330
7DE1B343D9D3768
100
AcDbXrecord
 10
0.0
 20
0.0
 30
0.0
  0
XRECORD
  5
7DE1B343D9D3785
102
{ACAD_REACTORS
330
7DE1B343D9D3768
102
}
330
7DE1B343D9D3768
100
AcDbXrecord
 10
0.0
 20
0.0
 30
0.0
  0
XRECORD
  5
7DE1B343D9D3782
102
{ACAD_REACTORS
330
7DE1B343D9D3768
102
}
330
7DE1B343D9D3768
100
AcDbXrecord
 10
0.0
 20
0.0
 30
0.0
  0
XRECORD
  5
7DE1B343D9D377F
102
{ACAD_REACTORS
330
7DE1B343D9D3768
102
}
330
7DE1B343D9D3768
100
AcDbXrecord
340
0
  0
XRECORD
  5
7DE1B343D9D3780
102
{ACAD_REACTORS
330
7DE1B343D9D3768
102
}
330
7DE1B343D9D3768
100
AcDbXrecord
 70
     0
  0
XRECORD
  5
7DE1B343D9D3774
102
{ACAD_REACTORS
330
7DE1B343D9D3768
102
}
330
7DE1B343D9D3768
100
AcDbXrecord
  1
{A82817A2-8DB4-11D6-88E6-0090279574E7}
  0
DICTIONARYVAR
  5
7DE1B343D9D3766
102
{ACAD_REACTORS
330
7DE1B343D9D3765
102
}
330
7DE1B343D9D3765
100
DictionaryVariables
280
     0
  1
1
  0
ENDSEC
  0
EOF
