  0
SECTION
  2
HEADER
  9
$ACADVER
  1
AC1014
  9
$ACADMAINTVER
 70
     9
  9
$DWGCODEPAGE
  3
ANSI_1252
  9
$INSBASE
 10
1.616085182898497
 20
1.169760825008296
 30
0.0
  9
$EXTMIN
 10
0.3731036036713539
 20
0.4375370460691308
 30
0.0
  9
$EXTMAX
 10
3.858322925418481
 20
2.169760825008296
 30
0.0
  9
$LIMMIN
 10
0.0
 20
0.0
  9
$LIMMAX
 10
18.0
 20
12.0
  9
$ORTHOMODE
 70
     1
  9
$REGENMODE
 70
     1
  9
$FILLMODE
 70
     1
  9
$QTEXTMODE
 70
     0
  9
$MIRRTEXT
 70
     0
  9
$DRAGMODE
 70
     2
  9
$LTSCALE
 40
1.0
  9
$OSMODE
 70
    39
  9
$ATTMODE
 70
     1
  9
$TEXTSIZE
 40
0.125
  9
$TRACEWID
 40
0.05
  9
$TEXTSTYLE
  7
ROMANS
  9
$CLAYER
  8
0
  9
$CELTYPE
  6
BYLAYER
  9
$CECOLOR
 62
   256
  9
$CELTSCALE
 40
1.0
  9
$DELOBJ
 70
     1
  9
$DISPSILH
 70
     1
  9
$DIMSCALE
 40
1.0
  9
$DIMASZ
 40
0.125
  9
$DIMEXO
 40
0.125
  9
$DIMDLI
 40
0.375
  9
$DIMRND
 40
0.0
  9
$DIMDLE
 40
0.0
  9
$DIMEXE
 40
0.125
  9
$DIMTP
 40
0.0
  9
$DIMTM
 40
0.0
  9
$DIMTXT
 40
0.125
  9
$DIMCEN
 40
-0.125
  9
$DIMTSZ
 40
0.0
  9
$DIMTOL
 70
     0
  9
$DIMLIM
 70
     0
  9
$DIMTIH
 70
     1
  9
$DIMTOH
 70
     1
  9
$DIMSE1
 70
     0
  9
$DIMSE2
 70
     0
  9
$DIMTAD
 70
     0
  9
$DIMZIN
 70
     4
  9
$DIMBLK
  1

  9
$DIMASO
 70
     1
  9
$DIMSHO
 70
     1
  9
$DIMPOST
  1

  9
$DIMAPOST
  1

  9
$DIMALT
 70
     0
  9
$DIMALTD
 70
     2
  9
$DIMALTF
 40
25.4
  9
$DIMLFAC
 40
1.0
  9
$DIMTOFL
 70
     0
  9
$DIMTVP
 40
0.0
  9
$DIMTIX
 70
     1
  9
$DIMSOXD
 70
     0
  9
$DIMSAH
 70
     0
  9
$DIMBLK1
  1

  9
$DIMBLK2
  1

  9
$DIMSTYLE
  2
STANDARD
  9
$DIMCLRD
 70
     0
  9
$DIMCLRE
 70
     0
  9
$DIMCLRT
 70
     0
  9
$DIMTFAC
 40
1.0
  9
$DIMGAP
 40
0.09
  9
$DIMJUST
 70
     0
  9
$DIMSD1
 70
     0
  9
$DIMSD2
 70
     0
  9
$DIMTOLJ
 70
     1
  9
$DIMTZIN
 70
     4
  9
$DIMALTZ
 70
     0
  9
$DIMALTTZ
 70
     0
  9
$DIMFIT
 70
     3
  9
$DIMUPT
 70
     0
  9
$DIMUNIT
 70
     2
  9
$DIMDEC
 70
     3
  9
$DIMTDEC
 70
     3
  9
$DIMALTU
 70
     2
  9
$DIMALTTD
 70
     2
  9
$DIMTXSTY
  7
ROMANS
  9
$DIMAUNIT
 70
     0
  9
$LUNITS
 70
     2
  9
$LUPREC
 70
     3
  9
$SKETCHINC
 40
0.1
  9
$FILLETRAD
 40
0.03125
  9
$AUNITS
 70
     0
  9
$AUPREC
 70
     0
  9
$MENU
  1
ACAD
  9
$ELEVATION
 40
0.0
  9
$PELEVATION
 40
0.0
  9
$THICKNESS
 40
0.0
  9
$LIMCHECK
 70
     0
  9
$BLIPMODE
 70
     0
  9
$CHAMFERA
 40
0.0
  9
$CHAMFERB
 40
0.0
  9
$CHAMFERC
 40
0.0
  9
$CHAMFERD
 40
0.0
  9
$SKPOLY
 70
     0
  9
$TDCREATE
 40
2448994.362978587
  9
$TDUPDATE
 40
2452458.298674583
  9
$TDINDWG
 40
0.0006491319
  9
$TDUSRTIMER
 40
0.0006491319
  9
$USRTIMER
 70
     1
  9
$ANGBASE
 50
0.0
  9
$ANGDIR
 70
     0
  9
$PDMODE
 70
     0
  9
$PDSIZE
 40
0.0
  9
$PLINEWID
 40
0.0
  9
$COORDS
 70
     2
  9
$SPLFRAME
 70
     0
  9
$SPLINETYPE
 70
     6
  9
$SPLINESEGS
 70
     8
  9
$ATTDIA
 70
     0
  9
$ATTREQ
 70
     1
  9
$HANDLING
 70
 22529
  9
$HANDSEED
  5
7DE1B343D9D3453
  9
$SURFTAB1
 70
     6
  9
$SURFTAB2
 70
     6
  9
$SURFTYPE
 70
     6
  9
$SURFU
 70
     6
  9
$SURFV
 70
     6
  9
$UCSNAME
  2

  9
$UCSORG
 10
0.0
 20
0.0
 30
0.0
  9
$UCSXDIR
 10
1.0
 20
0.0
 30
0.0
  9
$UCSYDIR
 10
0.0
 20
1.0
 30
0.0
  9
$PUCSNAME
  2

  9
$PUCSORG
 10
0.0
 20
0.0
 30
0.0
  9
$PUCSXDIR
 10
1.0
 20
0.0
 30
0.0
  9
$PUCSYDIR
 10
0.0
 20
1.0
 30
0.0
  9
$USERI1
 70
     0
  9
$USERI2
 70
     0
  9
$USERI3
 70
     0
  9
$USERI4
 70
     0
  9
$USERI5
 70
     0
  9
$USERR1
 40
0.0
  9
$USERR2
 40
0.0
  9
$USERR3
 40
0.0
  9
$USERR4
 40
0.0
  9
$USERR5
 40
0.0
  9
$WORLDVIEW
 70
     1
  9
$SHADEDGE
 70
     3
  9
$SHADEDIF
 70
    70
  9
$TILEMODE
 70
     1
  9
$MAXACTVP
 70
    16
  9
$PINSBASE
 10
0.0
 20
0.0
 30
0.0
  9
$PLIMCHECK
 70
     0
  9
$PEXTMIN
 10
1.000000000000000E+20
 20
1.000000000000000E+20
 30
1.000000000000000E+20
  9
$PEXTMAX
 10
-1.000000000000000E+20
 20
-1.000000000000000E+20
 30
-1.000000000000000E+20
  9
$PLIMMIN
 10
0.0
 20
0.0
  9
$PLIMMAX
 10
12.0
 20
9.0
  9
$UNITMODE
 70
     0
  9
$VISRETAIN
 70
     0
  9
$PLINEGEN
 70
     1
  9
$PSLTSCALE
 70
     0
  9
$TREEDEPTH
 70
  3020
  9
$PICKSTYLE
 70
     1
  9
$CMLSTYLE
  2
STANDARD
  9
$CMLJUST
 70
     0
  9
$CMLSCALE
 40
1.0
  9
$PROXYGRAPHICS
 70
     1
  9
$MEASUREMENT
 70
     0
  0
ENDSEC
  0
SECTION
  2
CLASSES
  0
CLASS
  1
LWPOLYLINE
  2
AcDbPolyline
  3
AutoCAD 2000
 90
        0
280
     0
281
     1
  0
CLASS
  1
ACDBDICTIONARYWDFLT
  2
AcDbDictionaryWithDefault
  3
AutoCAD 2000
 90
        0
280
     0
281
     0
  0
CLASS
  1
ACDBPLACEHOLDER
  2
AcDbPlaceHolder
  3
AutoCAD 2000
 90
        0
280
     0
281
     0
  0
CLASS
  1
LAYOUT
  2
AcDbLayout
  3
AutoCAD 2000
 90
        0
280
     0
281
     0
  0
CLASS
  1
DICTIONARYVAR
  2
AcDbDictionaryVar
  3
AutoCAD 2000
 90
        0
280
     0
281
     0
  0
CLASS
  1
LONG_TRANSACTION
  2
AcDbLongTransaction
  3
AutoCAD 2000
 90
        0
280
     0
281
     0
  0
CLASS
  1
LWPOLYLINE
  2
AcDbPolyline
  3
AutoCAD 2000
 90
        0
280
     0
281
     1
  0
CLASS
  1
HATCH
  2
AcDbHatch
  3
AutoCAD 2000
 90
        0
280
     0
281
     1
  0
CLASS
  1
XRECORD
  2
AcDbXrecord
  3
AutoCAD 2000
 90
        0
280
     0
281
     0
  0
ENDSEC
  0
SECTION
  2
TABLES
  0
TABLE
  2
VPORT
  5
7DE1B343D9D33FA
330
0
100
AcDbSymbolTable
 70
     2
  0
VPORT
  5
7DE1B343D9D342E
330
7DE1B343D9D33FA
100
AcDbSymbolTableRecord
100
AcDbViewportTableRecord
  2
*ACTIVE
 70
     0
 10
0.0
 20
0.0
 11
1.0
 21
1.0
 12
5.090856214143251
 22
1.303802512706958
 13
0.0
 23
0.0
 14
0.015625
 24
0.015625
 15
0.0
 25
0.0
 16
0.0
 26
0.0
 36
1.0
 17
0.0
 27
0.0
 37
0.0
 40
2.281748181188984
 41
4.320930232558139
 42
50.0
 43
0.0
 44
0.0
 50
0.0
 51
0.0
 71
     0
 72
  2000
 73
     1
 74
     0
 75
     0
 76
     0
 77
     0
 78
     0
  0
ENDTAB
  0
TABLE
  2
LTYPE
  5
7DE1B343D9D33F7
330
0
100
AcDbSymbolTable
 70
     1
  0
LTYPE
  5
7DE1B343D9D3404
330
7DE1B343D9D33F7
100
AcDbSymbolTableRecord
100
AcDbLinetypeTableRecord
  2
BYBLOCK
 70
     0
  3

 72
    65
 73
     0
 40
0.0
  0
LTYPE
  5
7DE1B343D9D3405
330
7DE1B343D9D33F7
100
AcDbSymbolTableRecord
100
AcDbLinetypeTableRecord
  2
BYLAYER
 70
     0
  3

 72
    65
 73
     0
 40
0.0
  0
LTYPE
  5
7DE1B343D9D3406
330
7DE1B343D9D33F7
100
AcDbSymbolTableRecord
100
AcDbLinetypeTableRecord
  2
CONTINUOUS
 70
     0
  3
Solid line
 72
    65
 73
     0
 40
0.0
  0
ENDTAB
  0
TABLE
  2
LAYER
  5
7DE1B343D9D33F4
330
0
100
AcDbSymbolTable
 70
     2
  0
LAYER
  5
7DE1B343D9D3401
330
7DE1B343D9D33F4
100
AcDbSymbolTableRecord
100
AcDbLayerTableRecord
  2
0
 70
     0
 62
     7
  6
CONTINUOUS
  0
LAYER
  5
7DE1B343D9D3411
330
7DE1B343D9D33F4
100
AcDbSymbolTableRecord
100
AcDbLayerTableRecord
  2
TEXT
 70
     0
 62
     3
  6
CONTINUOUS
  0
ENDTAB
  0
TABLE
  2
STYLE
  5
7DE1B343D9D33F5
330
0
100
AcDbSymbolTable
 70
     3
  0
STYLE
  5
7DE1B343D9D3402
330
7DE1B343D9D33F5
100
AcDbSymbolTableRecord
100
AcDbTextStyleTableRecord
  2
STANDARD
 70
     0
 40
0.0
 41
1.0
 50
0.0
 71
     0
 42
0.3125
  3
txt
  4

  0
STYLE
  5
7DE1B343D9D340E
330
7DE1B343D9D33F5
100
AcDbSymbolTableRecord
100
AcDbTextStyleTableRecord
  2
ITALICC
 70
     0
 40
0.0
 41
1.0
 50
0.0
 71
     0
 42
0.125
  3
italicc
  4

  0
STYLE
  5
7DE1B343D9D341E
330
7DE1B343D9D33F5
100
AcDbSymbolTableRecord
100
AcDbTextStyleTableRecord
  2
ROMANS
 70
     0
 40
0.0
 41
1.0
 50
0.0
 71
     0
 42
0.125
  3
romans.shx
  4

  0
ENDTAB
  0
TABLE
  2
VIEW
  5
7DE1B343D9D33F8
330
0
100
AcDbSymbolTable
 70
     0
  0
ENDTAB
  0
TABLE
  2
UCS
  5
7DE1B343D9D33F9
330
0
100
AcDbSymbolTable
 70
     0
  0
ENDTAB
  0
TABLE
  2
APPID
  5
7DE1B343D9D33FB
330
0
100
AcDbSymbolTable
 70
     1
  0
APPID
  5
7DE1B343D9D3403
330
7DE1B343D9D33FB
100
AcDbSymbolTableRecord
100
AcDbRegAppTableRecord
  2
ACAD
 70
     0
  0
ENDTAB
  0
TABLE
  2
DIMSTYLE
  5
7DE1B343D9D33FC
330
0
100
AcDbSymbolTable
 70
     1
  0
DIMSTYLE
105
7DE1B343D9D3416
330
7DE1B343D9D33FC
100
AcDbSymbolTableRecord
100
AcDbDimStyleTableRecord
  2
STANDARD
 70
     0
  3

  4

  5

  6

  7

 40
1.0
 41
0.125
 42
0.125
 43
0.375
 44
0.125
 45
0.0
 46
0.0
 47
0.0
 48
0.0
140
0.125
141
-0.125
142
0.0
143
25.4
144
1.0
145
0.0
146
1.0
147
0.09
 71
     0
 72
     0
 73
     1
 74
     1
 75
     0
 76
     0
 77
     0
 78
     4
170
     0
171
     2
172
     0
173
     0
174
     1
175
     0
176
     0
177
     0
178
     0
270
     2
271
     3
272
     3
273
     2
274
     2
340
7DE1B343D9D341E
275
     0
280
     0
281
     0
282
     0
283
     1
284
     4
285
     0
286
     0
287
     3
288
     0
  0
ENDTAB
  0
TABLE
  2
BLOCK_RECORD
  5
7DE1B343D9D33F3
330
0
100
AcDbSymbolTable
 70
     0
  0
BLOCK_RECORD
  5
7DE1B343D9D340A
102
{ACAD_XDICTIONARY
360
7DE1B343D9D3451
102
}
330
7DE1B343D9D33F3
100
AcDbSymbolTableRecord
100
AcDbBlockTableRecord
  2
*MODEL_SPACE
  0
BLOCK_RECORD
  5
7DE1B343D9D3407
102
{ACAD_XDICTIONARY
360
7DE1B343D9D344F
102
}
330
7DE1B343D9D33F3
100
AcDbSymbolTableRecord
100
AcDbBlockTableRecord
  2
*PAPER_SPACE
  0
ENDTAB
  0
ENDSEC
  0
SECTION
  2
BLOCKS
  0
BLOCK
  5
7DE1B343D9D3414
330
7DE1B343D9D340A
100
AcDbEntity
  8
0
100
AcDbBlockBegin
  2
*MODEL_SPACE
 70
     0
 10
0.0
 20
0.0
 30
0.0
  3
*MODEL_SPACE
  1

  0
ENDBLK
  5
7DE1B343D9D3415
330
7DE1B343D9D340A
100
AcDbEntity
  8
0
100
AcDbBlockEnd
  0
BLOCK
  5
7DE1B343D9D3412
330
7DE1B343D9D3407
100
AcDbEntity
 67
     1
  8
0
100
AcDbBlockBegin
  2
*PAPER_SPACE
 70
     0
 10
0.0
 20
0.0
 30
0.0
  3
*PAPER_SPACE
  1

  0
ENDBLK
  5
7DE1B343D9D3413
330
7DE1B343D9D3407
100
AcDbEntity
 67
     1
  8
0
100
AcDbBlockEnd
  0
ENDSEC
  0
SECTION
  2
ENTITIES
  0
LWPOLYLINE
  5
7DE1B343D9D2038
330
7DE1B343D9D340A
100
AcDbEntity
  8
0
100
AcDbPolyline
 90
        6
 70
     1
 43
0.0
 10
1.616085182898497
 20
2.169760825008296
 10
1.616085182898497
 20
1.169760825008296
 10
2.616085182898497
 20
1.169760825008296
 10
2.616085182898497
 20
1.232260825008296
 10
1.678585182898497
 20
1.232260825008296
 10
1.678585182898497
 20
2.169760825008296
  0
TEXT
  5
7DE1B343D9D32B5
330
7DE1B343D9D340A
100
AcDbEntity
  8
TEXT
100
AcDbText
 10
1.360132801946115
 20
0.8955556501517122
 30
0.0
 40
0.125
  1
PART #110165
  7
ITALICC
 72
     1
 11
2.116085182898497
 21
0.8955556501517122
 31
0.0
100
AcDbText
  0
TEXT
  5
7DE1B343D9D32B6
330
7DE1B343D9D340A
100
AcDbEntity
  8
TEXT
100
AcDbText
 10
2.529390341148817
 20
0.4486330074793372
 30
0.0
 40
0.0522247191011236
  1
Phone  1-800-328-2495
 41
1.272321428571429
 72
     5
 11
3.858322925418481
 21
0.4486330074793372
 31
0.0
100
AcDbText
  0
TEXT
  5
7DE1B343D9D32B7
330
7DE1B343D9D340A
100
AcDbEntity
  8
TEXT
100
AcDbText
 10
2.529390341148817
 20
0.7284082883782137
 30
0.0
 40
0.0522247191011236
  1
Stylmark  Incorporated
 41
1.221428571428573
 72
     5
 11
3.858322925418481
 21
0.7284082883782137
 31
0.0
100
AcDbText
  0
TEXT
  5
7DE1B343D9D32B8
330
7DE1B343D9D340A
100
AcDbEntity
  8
TEXT
100
AcDbText
 10
2.529390341148817
 20
0.6351498614119216
 30
0.0
 40
0.0522247191011236
  1
6536 Main St. N.E. * P.O. Box 32008
 41
0.8388932496075366
 72
     5
 11
3.858322925418481
 21
0.6351498614119216
 31
0.0
100
AcDbText
  0
TEXT
  5
7DE1B343D9D32B9
330
7DE1B343D9D340A
100
AcDbEntity
  8
TEXT
100
AcDbText
 10
2.529390341148817
 20
0.5418914344456294
 30
0.0
 40
0.0522247191011236
  1
Minneapolis, MN 55432-0008
 41
1.11444212721585
 72
     5
 11
3.858322925418481
 21
0.5418914344456294
 31
0.0
100
AcDbText
  0
LWPOLYLINE
  5
7DE1B343D9D32BA
330
7DE1B343D9D340A
100
AcDbEntity
  8
TEXT
100
AcDbPolyline
 90
        3
 70
     0
 43
0.0006660908203125
 10
0.3734366490815102
 20
0.5622777701167721
 10
0.3734366490815102
 20
0.4490423306636444
 10
0.4866720885346325
 20
0.4490423306636444
  0
LWPOLYLINE
  5
7DE1B343D9D32BF
330
7DE1B343D9D340A
100
AcDbEntity
  8
TEXT
100
AcDbPolyline
 90
        3
 70
     0
 43
0.0006660908203125
 10
0.4000802818940077
 20
0.5622777701167721
 10
0.4000802818940077
 20
0.4756859634761455
 10
0.4866720885346325
 20
0.4756859634761455
  0
LWPOLYLINE
  5
7DE1B343D9D32C4
330
7DE1B343D9D340A
100
AcDbEntity
  8
TEXT
100
AcDbPolyline
 90
        2
 70
     0
 43
0.0001332181640625
 10
0.4467066393158845
 20
0.5722691324214573
 10
0.3734366490815102
 20
0.5622777701167721
  0
LWPOLYLINE
  5
7DE1B343D9D32C8
330
7DE1B343D9D340A
100
AcDbEntity
  8
TEXT
100
AcDbPolyline
 90
        2
 70
     0
 43
0.0001332181640625
 10
0.4000802818940077
 20
0.5622777701167721
 10
0.4600284557221351
 20
0.5722691324214573
  0
LWPOLYLINE
  5
7DE1B343D9D32CC
330
7DE1B343D9D340A
100
AcDbEntity
  8
TEXT
100
AcDbPolyline
 90
        2
 70
     0
 43
0.0001332181640625
 10
0.4000802818940077
 20
0.4756859634761455
 10
0.4600284557221351
 20
0.535634137304271
  0
LWPOLYLINE
  5
7DE1B343D9D32D0
330
7DE1B343D9D340A
100
AcDbEntity
  8
TEXT
100
AcDbPolyline
 90
        3
 70
     0
 43
0.0006660908203125
 10
0.4866720885346325
 20
0.7154786587886477
 10
0.3734366490815102
 20
0.7154786587886477
 10
0.3734366490815102
 20
0.6022432193355201
  0
LWPOLYLINE
  5
7DE1B343D9D32D5
330
7DE1B343D9D340A
100
AcDbEntity
  8
TEXT
100
AcDbPolyline
 90
        3
 70
     0
 43
0.0006660908203125
 10
0.4866720885346325
 20
0.6888350259761467
 10
0.4000802818940077
 20
0.6888350259761467
 10
0.4000802818940077
 20
0.6022432193355201
  0
LWPOLYLINE
  5
7DE1B343D9D32DA
330
7DE1B343D9D340A
100
AcDbEntity
  8
TEXT
100
AcDbPolyline
 90
        2
 70
     0
 43
0.0001332181640625
 10
0.4000802818940077
 20
0.6888350259761467
 10
0.4600284557221333
 20
0.6288868521480211
  0
LWPOLYLINE
  5
7DE1B343D9D32DE
330
7DE1B343D9D340A
100
AcDbEntity
  8
TEXT
100
AcDbPolyline
 90
        2
 70
     0
 43
0.0001332181640625
 10
0.4000802818940077
 20
0.6022432193355201
 10
0.4600284557221333
 20
0.5922518570308313
  0
LWPOLYLINE
  5
7DE1B343D9D32E2
330
7DE1B343D9D340A
100
AcDbEntity
  8
TEXT
100
AcDbPolyline
 90
        2
 70
     0
 43
0.0001332181640625
 10
0.3734366490815102
 20
0.6022432193355201
 10
0.4467066393158845
 20
0.5922518570308313
  0
LWPOLYLINE
  5
7DE1B343D9D32E6
330
7DE1B343D9D340A
100
AcDbEntity
  8
TEXT
100
AcDbPolyline
 90
        2
 70
     0
 43
0.0006660908203125
 10
0.4000802818940077
 20
0.5622777701167721
 10
0.3734366490815102
 20
0.5622777701167721
  0
LWPOLYLINE
  5
7DE1B343D9D32EA
330
7DE1B343D9D340A
100
AcDbEntity
  8
TEXT
100
AcDbPolyline
 90
        2
 70
     0
 43
0.0006660908203125
 10
0.4000802818940077
 20
0.6022432193355201
 10
0.3734366490815102
 20
0.6022432193355201
  0
LINE
  5
7DE1B343D9D32EE
330
7DE1B343D9D340A
100
AcDbEntity
  8
TEXT
100
AcDbLine
 10
1.888627078208007
 20
0.6512019641318787
 30
0.0
 11
1.781420804820718
 21
0.6512019641318787
 31
0.0
  0
LINE
  5
7DE1B343D9D32EF
330
7DE1B343D9D340A
100
AcDbEntity
  8
TEXT
100
AcDbLine
 10
1.917657976552486
 20
0.7154786587886442
 30
0.0
 11
1.782826067335427
 21
0.7154786587886442
 31
0.0
  0
ARC
  5
7DE1B343D9D32F0
330
7DE1B343D9D340A
100
AcDbEntity
  8
TEXT
100
AcDbCircle
 10
1.842140163728744
 20
0.5462414095256279
 30
0.0
 40
0.0676855811441166
100
AcDbArc
 50
90.0
 51
153.7768192527749
  0
LWPOLYLINE
  5
7DE1B343D9D32F1
330
7DE1B343D9D340A
100
AcDbEntity
  8
TEXT
100
AcDbPolyline
 90
        2
 70
     0
 43
0.0
 10
1.780388309365908
 20
0.4924965707505713
 42
0.2901071551932823
 10
1.823464242233543
 20
0.4490056258001332
 42
5.328517124445801
  0
ARC
  5
7DE1B343D9D32F5
330
7DE1B343D9D340A
100
AcDbEntity
  8
TEXT
100
AcDbCircle
 10
1.137008786057258
 20
0.508798017138183
 30
0.0
 40
0.0601160179737537
100
AcDbArc
 50
180.0000000000003
 51
264.0521544866073
  0
LINE
  5
7DE1B343D9D32F6
330
7DE1B343D9D340A
100
AcDbEntity
  8
TEXT
100
AcDbLine
 10
1.140524141682806
 20
0.7498665763827824
 30
0.0
 11
1.080481536838798
 21
0.7498665763827824
 31
0.0
  0
ARC
  5
7DE1B343D9D32F7
330
7DE1B343D9D340A
100
AcDbEntity
  8
TEXT
100
AcDbCircle
 10
0.9047497839402875
 20
0.6333911993421424
 30
0.0
 40
0.0820874594465043
100
AcDbArc
 50
90.0
 51
270.0
  0
LWPOLYLINE
  5
7DE1B343D9D32F8
330
7DE1B343D9D340A
100
AcDbEntity
  8
TEXT
100
AcDbPolyline
 90
        2
 70
     0
 43
0.0001332181640625
 10
0.4966634508393231
 20
0.6422086685542681
 10
0.4866720885346325
 20
0.7154786587886477
  0
LWPOLYLINE
  5
7DE1B343D9D32FC
330
7DE1B343D9D340A
100
AcDbEntity
  8
TEXT
100
AcDbPolyline
 90
        2
 70
     0
 43
0.0001332181640625
 10
0.4866720885346325
 20
0.6888350259761467
 10
0.4966634508393231
 20
0.6288868521480211
  0
LWPOLYLINE
  5
7DE1B343D9D3300
330
7DE1B343D9D340A
100
AcDbEntity
  8
TEXT
100
AcDbPolyline
 90
        3
 70
     0
 43
0.0006660908203125
 10
0.63987297720651
 20
0.6022432193355201
 10
0.63987297720651
 20
0.7154786587886477
 10
0.5266375377533841
 20
0.7154786587886477
  0
LWPOLYLINE
  5
7DE1B343D9D3305
330
7DE1B343D9D340A
100
AcDbEntity
  8
TEXT
100
AcDbPolyline
 90
        3
 70
     0
 43
0.0006660908203125
 10
0.6132293443940089
 20
0.6022432193355201
 10
0.6132293443940089
 20
0.6888350259761467
 10
0.5266375377533841
 20
0.6888350259761467
  0
LWPOLYLINE
  5
7DE1B343D9D330A
330
7DE1B343D9D340A
100
AcDbEntity
  8
TEXT
100
AcDbPolyline
 90
        2
 70
     0
 43
0.0001332181640625
 10
0.6132293443940089
 20
0.6888350259761467
 10
0.5532811705658851
 20
0.6288868521480211
  0
LWPOLYLINE
  5
7DE1B343D9D330E
330
7DE1B343D9D340A
100
AcDbEntity
  8
TEXT
100
AcDbPolyline
 90
        2
 70
     0
 43
0.0001332181640625
 10
0.5266375377533841
 20
0.6888350259761467
 10
0.5166461754486953
 20
0.6288868521480211
  0
LWPOLYLINE
  5
7DE1B343D9D3312
330
7DE1B343D9D340A
100
AcDbEntity
  8
TEXT
100
AcDbPolyline
 90
        2
 70
     0
 43
0.0001332181640625
 10
0.5266375377533841
 20
0.7154786587886477
 10
0.5166461754486953
 20
0.6422086685542681
  0
LWPOLYLINE
  5
7DE1B343D9D3316
330
7DE1B343D9D340A
100
AcDbEntity
  8
TEXT
100
AcDbPolyline
 90
        2
 70
     0
 43
0.0001332181640625
 10
0.5666029869721339
 20
0.5922518570308313
 10
0.63987297720651
 20
0.6022432193355201
  0
LWPOLYLINE
  5
7DE1B343D9D331A
330
7DE1B343D9D340A
100
AcDbEntity
  8
TEXT
100
AcDbPolyline
 90
        2
 70
     0
 43
0.0001332181640625
 10
0.6132293443940089
 20
0.6022432193355201
 10
0.5532811705658851
 20
0.5922518570308313
  0
LWPOLYLINE
  5
7DE1B343D9D331E
330
7DE1B343D9D340A
100
AcDbEntity
  8
TEXT
100
AcDbPolyline
 90
        2
 70
     0
 43
0.0001332181640625
 10
0.63987297720651
 20
0.5622777701167721
 10
0.5666029869721339
 20
0.5722691324214573
  0
LWPOLYLINE
  5
7DE1B343D9D3322
330
7DE1B343D9D340A
100
AcDbEntity
  8
TEXT
100
AcDbPolyline
 90
        2
 70
     0
 43
0.0001332181640625
 10
0.6132293443940089
 20
0.5622777701167721
 10
0.5532811705658851
 20
0.5722691324214573
  0
LWPOLYLINE
  5
7DE1B343D9D3326
330
7DE1B343D9D340A
100
AcDbEntity
  8
TEXT
100
AcDbPolyline
 90
        2
 70
     0
 43
0.0001332181640625
 10
0.6132293443940089
 20
0.4756859634761455
 10
0.5532811705658851
 20
0.535634137304271
  0
LWPOLYLINE
  5
7DE1B343D9D332A
330
7DE1B343D9D340A
100
AcDbEntity
  8
TEXT
100
AcDbPolyline
 90
        3
 70
     0
 43
0.0006660908203125
 10
0.5266375377533841
 20
0.4756859634761455
 10
0.6132293443940089
 20
0.4756859634761455
 10
0.6132293443940089
 20
0.5622777701167721
  0
LWPOLYLINE
  5
7DE1B343D9D332F
330
7DE1B343D9D340A
100
AcDbEntity
  8
TEXT
100
AcDbPolyline
 90
        3
 70
     0
 43
0.0006660908203125
 10
0.5266375377533841
 20
0.4490423306636444
 10
0.63987297720651
 20
0.4490423306636444
 10
0.63987297720651
 20
0.5622777701167721
  0
LWPOLYLINE
  5
7DE1B343D9D3334
330
7DE1B343D9D340A
100
AcDbEntity
  8
TEXT
100
AcDbPolyline
 90
        5
 70
     0
 43
0.0001332181640625
 10
0.4966634508393231
 20
0.5223123208980205
 10
0.4966634508393231
 20
0.535634137304271
 10
0.4600284557221351
 20
0.535634137304271
 10
0.4600284557221351
 20
0.5722691324214573
 10
0.4467066393158845
 20
0.5722691324214573
  0
LWPOLYLINE
  5
7DE1B343D9D333B
330
7DE1B343D9D340A
100
AcDbEntity
  8
TEXT
100
AcDbPolyline
 90
        2
 70
     0
 43
0.0006660908203125
 10
0.4866720885346325
 20
0.4756859634761455
 10
0.4866720885346325
 20
0.4490423306636444
  0
LWPOLYLINE
  5
7DE1B343D9D333F
330
7DE1B343D9D340A
100
AcDbEntity
  8
TEXT
100
AcDbPolyline
 90
        2
 70
     0
 43
0.0001332181640625
 10
0.4866720885346325
 20
0.4756859634761455
 10
0.4966634508393231
 20
0.535634137304271
  0
LWPOLYLINE
  5
7DE1B343D9D3343
330
7DE1B343D9D340A
100
AcDbEntity
  8
TEXT
100
AcDbPolyline
 90
        2
 70
     0
 43
0.0001332181640625
 10
0.4866720885346325
 20
0.4490423306636444
 10
0.4966634508393231
 20
0.5223123208980205
  0
LWPOLYLINE
  5
7DE1B343D9D3347
330
7DE1B343D9D340A
100
AcDbEntity
  8
TEXT
100
AcDbPolyline
 90
        5
 70
     0
 43
0.0001332181640625
 10
0.4467066393158845
 20
0.5922518570308313
 10
0.4600284557221333
 20
0.5922518570308313
 10
0.4600284557221333
 20
0.6288868521480211
 10
0.4966634508393231
 20
0.6288868521480211
 10
0.4966634508393231
 20
0.6422086685542681
  0
LWPOLYLINE
  5
7DE1B343D9D334E
330
7DE1B343D9D340A
100
AcDbEntity
  8
TEXT
100
AcDbPolyline
 90
        5
 70
     0
 43
0.0001332181640625
 10
0.5166461754486953
 20
0.6422086685542681
 10
0.5166461754486953
 20
0.6288868521480211
 10
0.5532811705658851
 20
0.6288868521480211
 10
0.5532811705658851
 20
0.5922518570308313
 10
0.5666029869721339
 20
0.5922518570308313
  0
LWPOLYLINE
  5
7DE1B343D9D3355
330
7DE1B343D9D340A
100
AcDbEntity
  8
TEXT
100
AcDbPolyline
 90
        2
 70
     0
 43
0.0001332181640625
 10
0.5266375377533841
 20
0.4756859634761455
 10
0.5166461754486953
 20
0.535634137304271
  0
LWPOLYLINE
  5
7DE1B343D9D3359
330
7DE1B343D9D340A
100
AcDbEntity
  8
TEXT
100
AcDbPolyline
 90
        2
 70
     0
 43
0.0001332181640625
 10
0.5166461754486953
 20
0.5223123208980205
 10
0.5266375377533841
 20
0.4490423306636444
  0
LWPOLYLINE
  5
7DE1B343D9D335D
330
7DE1B343D9D340A
100
AcDbEntity
  8
TEXT
100
AcDbPolyline
 90
        2
 70
     0
 43
0.0006660908203125
 10
0.5266375377533841
 20
0.4756859634761455
 10
0.5266375377533841
 20
0.4490423306636444
  0
LWPOLYLINE
  5
7DE1B343D9D3361
330
7DE1B343D9D340A
100
AcDbEntity
  8
TEXT
100
AcDbPolyline
 90
        5
 70
     0
 43
0.0001332181640625
 10
0.5666029869721339
 20
0.5722691324214573
 10
0.5532811705658851
 20
0.5722691324214573
 10
0.5532811705658851
 20
0.535634137304271
 10
0.5166461754486953
 20
0.535634137304271
 10
0.5166461754486953
 20
0.5223123208980205
  0
LWPOLYLINE
  5
7DE1B343D9D3368
330
7DE1B343D9D340A
100
AcDbEntity
  8
TEXT
100
AcDbPolyline
 90
        2
 70
     0
 43
0.0006660908203125
 10
0.6132293443940089
 20
0.6022432193355201
 10
0.63987297720651
 20
0.6022432193355201
  0
LWPOLYLINE
  5
7DE1B343D9D336C
330
7DE1B343D9D340A
100
AcDbEntity
  8
TEXT
100
AcDbPolyline
 90
        2
 70
     0
 43
0.0006660908203125
 10
0.6132293443940089
 20
0.5622777701167721
 10
0.63987297720651
 20
0.5622777701167721
  0
LINE
  5
7DE1B343D9D3370
330
7DE1B343D9D340A
100
AcDbEntity
  8
TEXT
100
AcDbLine
 10
0.9099871140545348
 20
0.6512019641318787
 30
0.0
 11
1.076892768083506
 21
0.6512019641318787
 31
0.0
  0
LINE
  5
7DE1B343D9D3371
330
7DE1B343D9D340A
100
AcDbEntity
  8
TEXT
100
AcDbLine
 10
0.9755872502988358
 20
0.6153972425212509
 30
0.0
 11
0.9099871140545348
 21
0.6153972425212509
 31
0.0
  0
LINE
  5
7DE1B343D9D3372
330
7DE1B343D9D340A
100
AcDbEntity
  8
TEXT
100
AcDbLine
 10
0.8226623244937831
 20
0.4490056258001332
 30
0.0
 11
0.9755872502988358
 21
0.4490056258001332
 31
0.0
  0
LINE
  5
7DE1B343D9D3373
330
7DE1B343D9D340A
100
AcDbEntity
  8
TEXT
100
AcDbLine
 10
0.9805276242051155
 20
0.5173626321335725
 30
0.0
 11
0.8226623244937814
 21
0.5173626321335725
 31
0.0
  0
LINE
  5
7DE1B343D9D3374
330
7DE1B343D9D340A
100
AcDbEntity
  8
TEXT
100
AcDbLine
 10
0.9047497839402867
 20
0.5513037398956371
 30
0.0
 11
0.9805276242051155
 21
0.5513037398956371
 31
0.0
  0
ARC
  5
7DE1B343D9D3375
330
7DE1B343D9D340A
100
AcDbEntity
  8
TEXT
100
AcDbCircle
 10
0.9099871140545356
 20
0.6332996033265666
 30
0.0
 40
0.017902360805315
100
AcDbArc
 50
90.0
 51
270.0
  0
LINE
  5
7DE1B343D9D3376
330
7DE1B343D9D340A
100
AcDbEntity
  8
TEXT
100
AcDbLine
 10
0.8226623244937814
 20
0.5173626321335725
 30
0.0
 11
0.8226623244937831
 21
0.4490056258001332
 31
0.0
  0
LINE
  5
7DE1B343D9D3377
330
7DE1B343D9D340A
100
AcDbEntity
  8
TEXT
100
AcDbLine
 10
1.076892768083506
 20
0.6512019641318787
 30
0.0
 11
1.076892768083506
 21
0.508798017138183
 31
0.0
  0
ARC
  5
7DE1B343D9D3378
330
7DE1B343D9D340A
100
AcDbEntity
  8
TEXT
100
AcDbCircle
 10
0.9755872502988367
 20
0.5322014341606903
 30
0.0
 40
0.0831958083605586
100
AcDbArc
 50
270.0
 51
90.0
  0
ARC
  5
7DE1B343D9D3379
330
7DE1B343D9D340A
100
AcDbEntity
  8
TEXT
100
AcDbCircle
 10
0.9805276242051164
 20
0.5343331860146066
 30
0.0
 40
0.0169705538810321
100
AcDbArc
 50
270.0
 51
90.0
  0
LWPOLYLINE
  5
7DE1B343D9D337A
330
7DE1B343D9D340A
100
AcDbEntity
  8
TEXT
100
AcDbPolyline
 90
        2
 70
     0
 43
0.0006660908203125
 10
0.4866720885346325
 20
0.6888350259761467
 10
0.4866720885346325
 20
0.7154786587886477
  0
LWPOLYLINE
  5
7DE1B343D9D337E
330
7DE1B343D9D340A
100
AcDbEntity
  8
TEXT
100
AcDbPolyline
 90
        2
 70
     0
 43
0.0006660908203125
 10
0.5266375377533841
 20
0.6888350259761467
 10
0.5266375377533841
 20
0.7154786587886477
  0
LINE
  5
7DE1B343D9D3382
330
7DE1B343D9D340A
100
AcDbEntity
  8
TEXT
100
AcDbLine
 10
1.080481536838798
 20
0.7154786587886442
 30
0.0
 11
0.9047497839402867
 21
0.7154786587886442
 31
0.0
  0
LINE
  5
7DE1B343D9D3383
330
7DE1B343D9D340A
100
AcDbEntity
  8
TEXT
100
AcDbLine
 10
1.080481536838798
 20
0.7498665763827824
 30
0.0
 11
1.080481536838798
 21
0.7154786587886442
 31
0.0
  0
LINE
  5
7DE1B343D9D3384
330
7DE1B343D9D340A
100
AcDbEntity
  8
TEXT
100
AcDbLine
 10
1.270953428858651
 20
0.6146066626755236
 30
0.0
 11
1.212323107826713
 21
0.7154786587886442
 31
0.0
  0
LINE
  5
7DE1B343D9D3385
330
7DE1B343D9D340A
100
AcDbEntity
  8
TEXT
100
AcDbLine
 10
1.329701991664516
 20
0.7154786587886442
 30
0.0
 11
1.270953428858651
 21
0.6146066626755236
 31
0.0
  0
LINE
  5
7DE1B343D9D3386
330
7DE1B343D9D340A
100
AcDbEntity
  8
TEXT
100
AcDbLine
 10
1.426632617024258
 20
0.5313934639031324
 30
0.0
 11
1.426632617024258
 21
0.7834901365274547
 31
0.0
  0
LINE
  5
7DE1B343D9D3387
330
7DE1B343D9D340A
100
AcDbEntity
  8
TEXT
100
AcDbLine
 10
1.458944471161918
 20
0.7154786587886442
 30
0.0
 11
1.458944471161918
 21
0.5146144520562359
 31
0.0
  0
LINE
  5
7DE1B343D9D3388
330
7DE1B343D9D340A
100
AcDbEntity
  8
TEXT
100
AcDbLine
 10
1.458944471161918
 20
0.5146144520562359
 30
0.0
 11
1.441950834277316
 21
0.5146144520562359
 31
0.0
  0
LINE
  5
7DE1B343D9D3389
330
7DE1B343D9D340A
100
AcDbEntity
  8
TEXT
100
AcDbLine
 10
1.427772190520452
 20
0.4490056258001332
 30
0.0
 11
1.525775524219887
 21
0.4490056258001332
 31
0.0
  0
LINE
  5
7DE1B343D9D338A
330
7DE1B343D9D340A
100
AcDbEntity
  8
TEXT
100
AcDbLine
 10
1.261353191861696
 20
0.4689641319051461
 30
0.0
 11
1.358652897955141
 21
0.6333143428404143
 31
0.0
  0
ARC
  5
7DE1B343D9D338B
330
7DE1B343D9D340A
100
AcDbEntity
  8
TEXT
100
AcDbCircle
 10
1.227309631949482
 20
0.4885533480738289
 30
0.0
 40
0.0392772371940762
100
AcDbArc
 50
270.1604552698595
 51
330.0831797321295
  0
LINE
  5
7DE1B343D9D338C
330
7DE1B343D9D340A
100
AcDbEntity
  8
TEXT
100
AcDbLine
 10
1.130779375563611
 20
0.4490056258001332
 30
0.0
 11
1.227419626638606
 21
0.4492762648984155
 31
0.0
  0
LWPOLYLINE
  5
7DE1B343D9D338D
330
7DE1B343D9D340A
100
AcDbEntity
  8
TEXT
100
AcDbPolyline
 90
        6
 70
     1
 43
0.0
 10
1.173303179138761
 20
0.6512019641318787
 10
1.142986584918553
 20
0.6512019641318787
 10
1.142986584918553
 20
0.5280909660769844
 42
0.407328721240804
 10
1.154530236080029
 20
0.5162720514005983
 10
1.21515193512476
 20
0.5162720514005983
 10
1.232617275532078
 20
0.5490842804440775
  0
LINE
  5
7DE1B343D9D3395
330
7DE1B343D9D340A
100
AcDbEntity
  8
TEXT
100
AcDbLine
 10
1.358652897955141
 20
0.6333143428404143
 30
0.0
 11
1.358652897955141
 21
0.5005569680150579
 31
0.0
  0
ARC
  5
7DE1B343D9D3396
330
7DE1B343D9D340A
100
AcDbEntity
  8
TEXT
100
AcDbCircle
 10
1.441950834277315
 20
0.5299962582996614
 30
0.0
 40
0.0153818062434269
100
AcDbArc
 50
174.7883570302258
 51
270.0
  0
LWPOLYLINE
  5
7DE1B343D9D3397
330
7DE1B343D9D340A
100
AcDbEntity
  8
TEXT
100
AcDbPolyline
 90
        2
 70
     0
 43
0.0
 10
1.358652897955139
 20
0.5005569680150615
 42
0.3318488747599744
 10
1.427772190520452
 20
0.4490056258001332
 42
-6.868794160588311
  0
LINE
  5
7DE1B343D9D339B
330
7DE1B343D9D340A
100
AcDbEntity
  8
TEXT
100
AcDbLine
 10
1.583164593209148
 20
0.4490056258001332
 30
0.0
 11
1.650222639990988
 21
0.4490056258001332
 31
0.0
  0
LINE
  5
7DE1B343D9D339C
330
7DE1B343D9D340A
100
AcDbEntity
  8
TEXT
100
AcDbLine
 10
1.583164593209148
 20
0.6436481749657688
 30
0.0
 11
1.583164593209148
 21
0.4490056258001332
 31
0.0
  0
LINE
  5
7DE1B343D9D339D
330
7DE1B343D9D340A
100
AcDbEntity
  8
TEXT
100
AcDbLine
 10
1.525775524219887
 20
0.6512019641318787
 30
0.0
 11
1.575610804043034
 21
0.6512019641318787
 31
0.0
  0
LINE
  5
7DE1B343D9D339E
330
7DE1B343D9D340A
100
AcDbEntity
  8
TEXT
100
AcDbLine
 10
1.525775524219887
 20
0.4490056258001332
 30
0.0
 11
1.525775524219887
 21
0.6512019641318787
 31
0.0
  0
LWPOLYLINE
  5
7DE1B343D9D339F
330
7DE1B343D9D340A
100
AcDbEntity
  8
TEXT
100
AcDbPolyline
 90
        2
 70
     0
 43
0.0
 10
1.575610804043033
 20
0.6512019641318787
 42
-0.4142135623731017
 10
1.583164593209146
 20
0.6436481749657688
 42
-0.9999999999999998
  0
LINE
  5
7DE1B343D9D33A3
330
7DE1B343D9D340A
100
AcDbEntity
  8
TEXT
100
AcDbLine
 10
1.781420804820718
 20
0.6512019641318787
 30
0.0
 11
1.781420804820718
 21
0.5761495580576721
 31
0.0
  0
LINE
  5
7DE1B343D9D33A4
330
7DE1B343D9D340A
100
AcDbEntity
  8
TEXT
100
AcDbLine
 10
1.650222639990988
 20
0.6512019641318787
 30
0.0
 11
1.704356236911938
 21
0.6512019641318787
 31
0.0
  0
LINE
  5
7DE1B343D9D33A5
330
7DE1B343D9D340A
100
AcDbEntity
  8
TEXT
100
AcDbLine
 10
1.650222639990988
 20
0.4490056258001332
 30
0.0
 11
1.650222639990988
 21
0.6512019641318787
 31
0.0
  0
LWPOLYLINE
  5
7DE1B343D9D33A6
330
7DE1B343D9D340A
100
AcDbEntity
  8
TEXT
100
AcDbPolyline
 90
        2
 70
     0
 43
0.0
 10
1.704356236911936
 20
0.6512019641318787
 42
-0.4142135623731017
 10
1.71191002607805
 20
0.6436481749657688
 42
-0.9999999999999998
  0
LWPOLYLINE
  5
7DE1B343D9D33AA
330
7DE1B343D9D340A
100
AcDbEntity
  8
TEXT
100
AcDbPolyline
 90
        4
 70
     0
 43
0.0
 10
1.71191002607805
 20
0.6436481749657688
 10
1.71191002607805
 20
0.4490056258001332
 10
1.780388309365908
 20
0.4490056258001332
 10
1.780388309365908
 20
0.4924965707505713
 42
-1.714843617202739
  0
LINE
  5
7DE1B343D9D33B0
330
7DE1B343D9D340A
100
AcDbEntity
  8
TEXT
100
AcDbLine
 10
1.140524141682806
 20
0.7154786587886442
 30
0.0
 11
1.140524141682806
 21
0.7498665763827824
 31
0.0
  0
LINE
  5
7DE1B343D9D33B1
330
7DE1B343D9D340A
100
AcDbEntity
  8
TEXT
100
AcDbLine
 10
1.212323107826713
 20
0.7154786587886442
 30
0.0
 11
1.140524141682806
 21
0.7154786587886442
 31
0.0
  0
LINE
  5
7DE1B343D9D33B2
330
7DE1B343D9D340A
100
AcDbEntity
  8
TEXT
100
AcDbLine
 10
1.359823904457893
 20
0.7154786587886442
 30
0.0
 11
1.329701991664516
 21
0.7154786587886442
 31
0.0
  0
LINE
  5
7DE1B343D9D33B3
330
7DE1B343D9D340A
100
AcDbEntity
  8
TEXT
100
AcDbLine
 10
1.359823904457893
 20
0.7834901365274547
 30
0.0
 11
1.359823904457893
 21
0.7154786587886442
 31
0.0
  0
LINE
  5
7DE1B343D9D33B4
330
7DE1B343D9D340A
100
AcDbEntity
  8
TEXT
100
AcDbLine
 10
1.426632617024258
 20
0.7834901365274547
 30
0.0
 11
1.359823904457893
 21
0.7834901365274547
 31
0.0
  0
LWPOLYLINE
  5
7DE1B343D9D33B5
330
7DE1B343D9D340A
100
AcDbEntity
  8
TEXT
100
AcDbPolyline
 90
        3
 70
     0
 43
0.0
 10
1.74704437662226
 20
0.7154786587886477
 10
1.628744217806215
 20
0.7154786587886477
 10
1.628744217806215
 20
0.6883111620277518
 42
-1.960274751411753
  0
LINE
  5
7DE1B343D9D33BA
330
7DE1B343D9D340A
100
AcDbEntity
  8
TEXT
100
AcDbLine
 10
1.592962527093054
 20
0.7154786587886442
 30
0.0
 11
1.458944471161918
 21
0.7154786587886442
 31
0.0
  0
LWPOLYLINE
  5
7DE1B343D9D33BB
330
7DE1B343D9D340A
100
AcDbEntity
  8
TEXT
100
AcDbPolyline
 90
        2
 70
     0
 43
0.0
 10
1.592962527093054
 20
0.7154786587886477
 42
-0.3328679258950098
 10
1.628744217806215
 20
0.6883111620277518
 42
6.772930709997214
  0
LINE
  5
7DE1B343D9D33BF
330
7DE1B343D9D340A
100
AcDbEntity
  8
TEXT
100
AcDbLine
 10
1.782826067335427
 20
0.7154786587886442
 30
0.0
 11
1.782826067335427
 21
0.6871561130190003
 31
0.0
  0
LWPOLYLINE
  5
7DE1B343D9D33C0
330
7DE1B343D9D340A
100
AcDbEntity
  8
TEXT
100
AcDbPolyline
 90
        2
 70
     0
 43
0.0
 10
1.74704437662226
 20
0.7154786587886477
 42
-0.3277054968067132
 10
1.782826067335425
 20
0.6871561130190039
 42
6.667889725900311
  0
LINE
  5
7DE1B343D9D33C4
330
7DE1B343D9D340A
100
AcDbEntity
  8
TEXT
100
AcDbLine
 10
1.996617915427527
 20
0.6102666802352168
 30
0.0
 11
1.952867144245625
 21
0.692516956231362
 31
0.0
  0
LINE
  5
7DE1B343D9D33C5
330
7DE1B343D9D340A
100
AcDbEntity
  8
TEXT
100
AcDbLine
 10
1.996617915427527
 20
0.7154786587886442
 30
0.0
 11
1.996617915427527
 21
0.6102666802352168
 31
0.0
  0
LINE
  5
7DE1B343D9D33C6
330
7DE1B343D9D340A
100
AcDbEntity
  8
TEXT
100
AcDbLine
 10
2.224301654365896
 20
0.6396133323771061
 30
0.0
 11
2.224301654365896
 21
0.7809428645562449
 31
0.0
  0
LINE
  5
7DE1B343D9D33C7
330
7DE1B343D9D340A
100
AcDbEntity
  8
TEXT
100
AcDbLine
 10
2.27139981292188
 20
0.7154786587886442
 30
0.0
 11
2.224301654365896
 21
0.6396133323771061
 31
0.0
  0
LINE
  5
7DE1B343D9D33C8
330
7DE1B343D9D340A
100
AcDbEntity
  8
TEXT
100
AcDbLine
 10
2.281834529685803
 20
0.6055854158476706
 30
0.0
 11
2.346391645651508
 21
0.7154786587886442
 31
0.0
  0
LINE
  5
7DE1B343D9D33C9
330
7DE1B343D9D340A
100
AcDbEntity
  8
TEXT
100
AcDbLine
 10
2.160466663143123
 20
0.4490056258001332
 30
0.0
 11
2.224844847461743
 21
0.4490056258001332
 31
0.0
  0
LWPOLYLINE
  5
7DE1B343D9D33CA
330
7DE1B343D9D340A
100
AcDbEntity
  8
TEXT
100
AcDbPolyline
 90
        2
 70
     0
 43
0.0
 10
2.000557592732564
 20
0.4924965707505713
 42
-0.2901071551932486
 10
1.95748165986492
 20
0.4490056258001332
 42
-5.328517124445184
  0
ARC
  5
7DE1B343D9D33CE
330
7DE1B343D9D340A
100
AcDbEntity
  8
TEXT
100
AcDbCircle
 10
1.888627078208005
 20
0.6228425891318814
 30
0.0
 40
0.028359375
100
AcDbArc
 50
25.78218179591245
 51
90.0
  0
LINE
  5
7DE1B343D9D33CF
330
7DE1B343D9D340A
100
AcDbEntity
  8
TEXT
100
AcDbLine
 10
1.924428153512129
 20
0.6139269906697465
 30
0.0
 11
1.914163393098564
 21
0.6351775302424408
 31
0.0
  0
LINE
  5
7DE1B343D9D33D0
330
7DE1B343D9D340A
100
AcDbEntity
  8
TEXT
100
AcDbLine
 10
1.842140163728745
 20
0.6139269906697465
 30
0.0
 11
1.924428153512129
 21
0.6139269906697465
 31
0.0
  0
LWPOLYLINE
  5
7DE1B343D9D33D1
330
7DE1B343D9D340A
100
AcDbEntity
  8
TEXT
100
AcDbPolyline
 90
        4
 70
     1
 43
0.0
 10
1.937359194795027
 20
0.5519696037841584
 10
1.848698876135169
 20
0.5519696037841584
 42
0.9999999999999998
 10
1.848698876135169
 20
0.5095710632802977
 10
1.937359194795027
 20
0.5095710632802977
 42
1.0
  0
LWPOLYLINE
  5
7DE1B343D9D33D7
330
7DE1B343D9D340A
100
AcDbEntity
  8
TEXT
100
AcDbPolyline
 90
        2
 70
     0
 43
0.0
 10
1.823464242233543
 20
0.4490056258001332
 10
1.95748165986492
 20
0.4490056258001332
 42
0.9999999999999998
  0
LINE
  5
7DE1B343D9D33DB
330
7DE1B343D9D340A
100
AcDbEntity
  8
TEXT
100
AcDbLine
 10
2.083818681850559
 20
0.6512019641318787
 30
0.0
 11
2.160466663143117
 21
0.6512019641318787
 31
0.0
  0
LINE
  5
7DE1B343D9D33DC
330
7DE1B343D9D340A
100
AcDbEntity
  8
TEXT
100
AcDbLine
 10
2.160466663143117
 20
0.6512019641318787
 30
0.0
 11
2.160466663143123
 21
0.4490056258001332
 31
0.0
  0
ARC
  5
7DE1B343D9D33DD
330
7DE1B343D9D340A
100
AcDbEntity
  8
TEXT
100
AcDbCircle
 10
2.083818681850558
 20
0.626296088849216
 30
0.0
 40
0.0249058752826653
100
AcDbArc
 50
89.99971217465335
 51
179.9999999999985
  0
LINE
  5
7DE1B343D9D33DE
330
7DE1B343D9D340A
100
AcDbEntity
  8
TEXT
100
AcDbLine
 10
2.0589128065679
 20
0.4490056258001332
 30
0.0
 11
2.058912806567895
 21
0.6262961312316016
 31
0.0
  0
LWPOLYLINE
  5
7DE1B343D9D33DF
330
7DE1B343D9D340A
100
AcDbEntity
  8
TEXT
100
AcDbPolyline
 90
        2
 70
     0
 43
0.0
 10
2.000557592732564
 20
0.4490056258001332
 10
2.058912806567898
 20
0.4490056258001332
  0
LWPOLYLINE
  5
7DE1B343D9D33E3
330
7DE1B343D9D340A
100
AcDbEntity
  8
TEXT
100
AcDbPolyline
 90
        2
 70
     0
 43
0.0
 10
2.000557592732564
 20
0.4924965707505713
 10
2.000557592732564
 20
0.4490056258001332
  0
LINE
  5
7DE1B343D9D33E7
330
7DE1B343D9D340A
100
AcDbEntity
  8
TEXT
100
AcDbLine
 10
2.377326753049413
 20
0.4490056258001332
 30
0.0
 11
2.281834529685803
 21
0.6055854158476706
 31
0.0
  0
LINE
  5
7DE1B343D9D33E8
330
7DE1B343D9D340A
100
AcDbEntity
  8
TEXT
100
AcDbLine
 10
2.300748380673208
 20
0.4490056258001332
 30
0.0
 11
2.377326753049413
 21
0.4490056258001332
 31
0.0
  0
LINE
  5
7DE1B343D9D33E9
330
7DE1B343D9D340A
100
AcDbEntity
  8
TEXT
100
AcDbLine
 10
2.224844847461743
 20
0.5805851942763134
 30
0.0
 11
2.300748380673208
 21
0.4490056258001332
 31
0.0
  0
LINE
  5
7DE1B343D9D33EA
330
7DE1B343D9D340A
100
AcDbEntity
  8
TEXT
100
AcDbLine
 10
2.224844847461743
 20
0.4490056258001332
 30
0.0
 11
2.224844847461743
 21
0.5805851942763134
 31
0.0
  0
LINE
  5
7DE1B343D9D33EB
330
7DE1B343D9D340A
100
AcDbEntity
  8
TEXT
100
AcDbLine
 10
2.224301654365896
 20
0.7809428645562449
 30
0.0
 11
2.155986775816622
 21
0.7809428645562449
 31
0.0
  0
ARC
  5
7DE1B343D9D33EC
330
7DE1B343D9D340A
100
AcDbEntity
  8
TEXT
100
AcDbCircle
 10
1.915631036775416
 20
0.6738950916677418
 30
0.0
 40
0.0416329381542859
100
AcDbArc
 50
26.56974201007528
 51
87.20939649401342
  0
LINE
  5
7DE1B343D9D33ED
330
7DE1B343D9D340A
100
AcDbEntity
  8
TEXT
100
AcDbLine
 10
2.060514821727028
 20
0.7154786587886442
 30
0.0
 11
1.996617915427527
 21
0.7154786587886442
 31
0.0
  0
LINE
  5
7DE1B343D9D33EE
330
7DE1B343D9D340A
100
AcDbEntity
  8
TEXT
100
AcDbLine
 10
2.060514821727028
 20
0.6879310089277695
 30
0.0
 11
2.060514821727028
 21
0.7154786587886442
 31
0.0
  0
ARC
  5
7DE1B343D9D33EF
330
7DE1B343D9D340A
100
AcDbEntity
  8
TEXT
100
AcDbCircle
 10
2.091707638790135
 20
0.6842329315063794
 30
0.0
 40
0.0314112657011332
100
AcDbArc
 50
95.88484768694724
 51
173.2388340632136
  0
LINE
  5
7DE1B343D9D33F0
330
7DE1B343D9D340A
100
AcDbEntity
  8
TEXT
100
AcDbLine
 10
2.155986775816617
 20
0.7154786587886442
 30
0.0
 11
2.088487058167101
 21
0.7154786587886442
 31
0.0
  0
LINE
  5
7DE1B343D9D33F1
330
7DE1B343D9D340A
100
AcDbEntity
  8
TEXT
100
AcDbLine
 10
2.155986775816622
 20
0.7809428645562449
 30
0.0
 11
2.155986775816617
 21
0.7154786587886442
 31
0.0
  0
LINE
  5
7DE1B343D9D33F2
330
7DE1B343D9D340A
100
AcDbEntity
  8
TEXT
100
AcDbLine
 10
2.346391645651508
 20
0.7154786587886442
 30
0.0
 11
2.271399812921882
 21
0.7154786587886442
 31
0.0
  0
ENDSEC
  0
SECTION
  2
OBJECTS
  0
DICTIONARY
  5
7DE1B343D9D33FE
330
0
100
AcDbDictionary
  3
ACAD_GROUP
350
7DE1B343D9D33FF
  3
ACAD_LAYOUT
350
7DE1B343D9D3424
  3
ACAD_MLINESTYLE
350
7DE1B343D9D3400
  3
ACAD_PLOTSETTINGS
350
7DE1B343D9D3425
  3
ACAD_PLOTSTYLENAME
350
7DE1B343D9D3422
  3
ACDBHEADERROUNDTRIPXREC
350
7DE1B343D9D342F
  3
ACDBVARIABLEDICTIONARY
350
7DE1B343D9D342C
  0
DICTIONARY
  5
7DE1B343D9D3451
330
7DE1B343D9D340A
100
AcDbDictionary
280
     1
  3
ACAD_LAYOUTSELFREF
360
7DE1B343D9D3452
  0
DICTIONARY
  5
7DE1B343D9D344F
330
7DE1B343D9D3407
100
AcDbDictionary
280
     1
  3
ACAD_LAYOUTSELFREF
360
7DE1B343D9D3450
  0
DICTIONARY
  5
7DE1B343D9D33FF
102
{ACAD_REACTORS
330
7DE1B343D9D33FE
102
}
330
7DE1B343D9D33FE
100
AcDbDictionary
  0
DICTIONARY
  5
7DE1B343D9D3424
102
{ACAD_REACTORS
330
7DE1B343D9D33FE
102
}
330
7DE1B343D9D33FE
100
AcDbDictionary
  0
DICTIONARY
  5
7DE1B343D9D3400
102
{ACAD_REACTORS
330
7DE1B343D9D33FE
102
}
330
7DE1B343D9D33FE
100
AcDbDictionary
  3
STANDARD
350
7DE1B343D9D340D
  0
DICTIONARY
  5
7DE1B343D9D3425
102
{ACAD_REACTORS
330
7DE1B343D9D33FE
102
}
330
7DE1B343D9D33FE
100
AcDbDictionary
  0
ACDBDICTIONARYWDFLT
  5
7DE1B343D9D3422
102
{ACAD_REACTORS
330
7DE1B343D9D33FE
102
}
330
7DE1B343D9D33FE
100
AcDbDictionary
281
     1
  3
Normal
350
7DE1B343D9D3423
100
AcDbDictionaryWithDefault
340
7DE1B343D9D3423
  0
DICTIONARY
  5
7DE1B343D9D342F
102
{ACAD_REACTORS
330
7DE1B343D9D33FE
102
}
330
7DE1B343D9D33FE
100
AcDbDictionary
  3
CEPSNTYPE
350
7DE1B343D9D3439
  3
FINGERPRINTGUID
350
7DE1B343D9D343A
  3
HYPERLINKBASE
350
7DE1B343D9D3432
  3
INSUNITS
350
7DE1B343D9D3438
  3
LAYOUTDICT
350
7DE1B343D9D3434
  3
LWETCUNION
350
7DE1B343D9D3437
  3
PLOTSETDICT
350
7DE1B343D9D3435
  3
PLOTSTYLNAMDICT
350
7DE1B343D9D3436
  3
PSVPSCALE
350
7DE1B343D9D343C
  3
PUCSBASE
350
7DE1B343D9D343F
  3
PUCSORGBACK
350
7DE1B343D9D3445
  3
PUCSORGBOTTOM
350
7DE1B343D9D3441
  3
PUCSORGFRONT
350
7DE1B343D9D3444
  3
PUCSORGLEFT
350
7DE1B343D9D3442
  3
PUCSORGRIGHT
350
7DE1B343D9D3443
  3
PUCSORGTOP
350
7DE1B343D9D3440
  3
PUCSORTHOREF
350
7DE1B343D9D343D
  3
PUCSORTHOVIEW
350
7DE1B343D9D343E
  3
STYLESHEET
350
7DE1B343D9D3433
  3
TSTACKALIGN
350
7DE1B343D9D3430
  3
TSTACKSIZE
350
7DE1B343D9D3431
  3
UCSBASE
350
7DE1B343D9D3448
  3
UCSORGBACK
350
7DE1B343D9D344E
  3
UCSORGBOTTOM
350
7DE1B343D9D344A
  3
UCSORGFRONT
350
7DE1B343D9D344D
  3
UCSORGLEFT
350
7DE1B343D9D344B
  3
UCSORGRIGHT
350
7DE1B343D9D344C
  3
UCSORGTOP
350
7DE1B343D9D3449
  3
UCSORTHOREF
350
7DE1B343D9D3446
  3
UCSORTHOVIEW
350
7DE1B343D9D3447
  3
VERSIONGUID
350
7DE1B343D9D343B
  0
DICTIONARY
  5
7DE1B343D9D342C
102
{ACAD_REACTORS
330
7DE1B343D9D33FE
102
}
330
7DE1B343D9D33FE
100
AcDbDictionary
  3
DIMASSOC
350
7DE1B343D9D342D
  0
XRECORD
  5
7DE1B343D9D3452
102
{ACAD_REACTORS
330
7DE1B343D9D3451
102
}
330
7DE1B343D9D3451
100
AcDbXrecord
340
7DE1B343D9D340A
  0
XRECORD
  5
7DE1B343D9D3450
102
{ACAD_REACTORS
330
7DE1B343D9D344F
102
}
330
7DE1B343D9D344F
100
AcDbXrecord
340
7DE1B343D9D3407
  0
MLINESTYLE
  5
7DE1B343D9D340D
102
{ACAD_REACTORS
330
7DE1B343D9D3400
102
}
330
7DE1B343D9D3400
100
AcDbMlineStyle
  2
STANDARD
 70
     0
  3

 62
     0
 51
90.0
 52
90.0
 71
     2
 49
0.5
 62
   256
  6
BYLAYER
 49
-0.5
 62
   256
  6
BYLAYER
  0
ACDBPLACEHOLDER
  5
7DE1B343D9D3423
102
{ACAD_REACTORS
330
7DE1B343D9D3422
102
}
330
7DE1B343D9D3422
100
AcDbPlaceHolder
280
     0
  0
XRECORD
  5
7DE1B343D9D3439
102
{ACAD_REACTORS
330
7DE1B343D9D342F
102
}
330
7DE1B343D9D342F
100
AcDbXrecord
 90
        0
  0
XRECORD
  5
7DE1B343D9D343A
102
{ACAD_REACTORS
330
7DE1B343D9D342F
102
}
330
7DE1B343D9D342F
100
AcDbXrecord
  1
{A35E9340-8DB4-11D6-88E6-0090279574E7}
  0
XRECORD
  5
7DE1B343D9D3432
102
{ACAD_REACTORS
330
7DE1B343D9D342F
102
}
330
7DE1B343D9D342F
100
AcDbXrecord
  1

  0
XRECORD
  5
7DE1B343D9D3438
102
{ACAD_REACTORS
330
7DE1B343D9D342F
102
}
330
7DE1B343D9D342F
100
AcDbXrecord
 90
        0
  0
XRECORD
  5
7DE1B343D9D3434
102
{ACAD_REACTORS
330
7DE1B343D9D342F
102
}
330
7DE1B343D9D342F
100
AcDbXrecord
340
7DE1B343D9D3424
  0
XRECORD
  5
7DE1B343D9D3437
102
{ACAD_REACTORS
330
7DE1B343D9D342F
102
}
330
7DE1B343D9D342F
100
AcDbXrecord
 90
    14877
  0
XRECORD
  5
7DE1B343D9D3435
102
{ACAD_REACTORS
330
7DE1B343D9D342F
102
}
330
7DE1B343D9D342F
100
AcDbXrecord
340
7DE1B343D9D3425
  0
XRECORD
  5
7DE1B343D9D3436
102
{ACAD_REACTORS
330
7DE1B343D9D342F
102
}
330
7DE1B343D9D342F
100
AcDbXrecord
340
7DE1B343D9D3422
  0
XRECORD
  5
7DE1B343D9D343C
102
{ACAD_REACTORS
330
7DE1B343D9D342F
102
}
330
7DE1B343D9D342F
100
AcDbXrecord
 40
0.0
  0
XRECORD
  5
7DE1B343D9D343F
102
{ACAD_REACTORS
330
7DE1B343D9D342F
102
}
330
7DE1B343D9D342F
100
AcDbXrecord
340
0
  0
XRECORD
  5
7DE1B343D9D3445
102
{ACAD_REACTORS
330
7DE1B343D9D342F
102
}
330
7DE1B343D9D342F
100
AcDbXrecord
 10
0.0
 20
0.0
 30
0.0
  0
XRECORD
  5
7DE1B343D9D3441
102
{ACAD_REACTORS
330
7DE1B343D9D342F
102
}
330
7DE1B343D9D342F
100
AcDbXrecord
 10
0.0
 20
0.0
 30
0.0
  0
XRECORD
  5
7DE1B343D9D3444
102
{ACAD_REACTORS
330
7DE1B343D9D342F
102
}
330
7DE1B343D9D342F
100
AcDbXrecord
 10
0.0
 20
0.0
 30
0.0
  0
XRECORD
  5
7DE1B343D9D3442
102
{ACAD_REACTORS
330
7DE1B343D9D342F
102
}
330
7DE1B343D9D342F
100
AcDbXrecord
 10
0.0
 20
0.0
 30
0.0
  0
XRECORD
  5
7DE1B343D9D3443
102
{ACAD_REACTORS
330
7DE1B343D9D342F
102
}
330
7DE1B343D9D342F
100
AcDbXrecord
 10
0.0
 20
0.0
 30
0.0
  0
XRECORD
  5
7DE1B343D9D3440
102
{ACAD_REACTORS
330
7DE1B343D9D342F
102
}
330
7DE1B343D9D342F
100
AcDbXrecord
 10
0.0
 20
0.0
 30
0.0
  0
XRECORD
  5
7DE1B343D9D343D
102
{ACAD_REACTORS
330
7DE1B343D9D342F
102
}
330
7DE1B343D9D342F
100
AcDbXrecord
340
0
  0
XRECORD
  5
7DE1B343D9D343E
102
{ACAD_REACTORS
330
7DE1B343D9D342F
102
}
330
7DE1B343D9D342F
100
AcDbXrecord
 70
     0
  0
XRECORD
  5
7DE1B343D9D3433
102
{ACAD_REACTORS
330
7DE1B343D9D342F
102
}
330
7DE1B343D9D342F
100
AcDbXrecord
  1

  0
XRECORD
  5
7DE1B343D9D3430
102
{ACAD_REACTORS
330
7DE1B343D9D342F
102
}
330
7DE1B343D9D342F
100
AcDbXrecord
 90
        1
  0
XRECORD
  5
7DE1B343D9D3431
102
{ACAD_REACTORS
330
7DE1B343D9D342F
102
}
330
7DE1B343D9D342F
100
AcDbXrecord
 90
       70
  0
XRECORD
  5
7DE1B343D9D3448
102
{ACAD_REACTORS
330
7DE1B343D9D342F
102
}
330
7DE1B343D9D342F
100
AcDbXrecord
340
0
  0
XRECORD
  5
7DE1B343D9D344E
102
{ACAD_REACTORS
330
7DE1B343D9D342F
102
}
330
7DE1B343D9D342F
100
AcDbXrecord
 10
0.0
 20
0.0
 30
0.0
  0
XRECORD
  5
7DE1B343D9D344A
102
{ACAD_REACTORS
330
7DE1B343D9D342F
102
}
330
7DE1B343D9D342F
100
AcDbXrecord
 10
0.0
 20
0.0
 30
0.0
  0
XRECORD
  5
7DE1B343D9D344D
102
{ACAD_REACTORS
330
7DE1B343D9D342F
102
}
330
7DE1B343D9D342F
100
AcDbXrecord
 10
0.0
 20
0.0
 30
0.0
  0
XRECORD
  5
7DE1B343D9D344B
102
{ACAD_REACTORS
330
7DE1B343D9D342F
102
}
330
7DE1B343D9D342F
100
AcDbXrecord
 10
0.0
 20
0.0
 30
0.0
  0
XRECORD
  5
7DE1B343D9D344C
102
{ACAD_REACTORS
330
7DE1B343D9D342F
102
}
330
7DE1B343D9D342F
100
AcDbXrecord
 10
0.0
 20
0.0
 30
0.0
  0
XRECORD
  5
7DE1B343D9D3449
102
{ACAD_REACTORS
330
7DE1B343D9D342F
102
}
330
7DE1B343D9D342F
100
AcDbXrecord
 10
0.0
 20
0.0
 30
0.0
  0
XRECORD
  5
7DE1B343D9D3446
102
{ACAD_REACTORS
330
7DE1B343D9D342F
102
}
330
7DE1B343D9D342F
100
AcDbXrecord
340
0
  0
XRECORD
  5
7DE1B343D9D3447
102
{ACAD_REACTORS
330
7DE1B343D9D342F
102
}
330
7DE1B343D9D342F
100
AcDbXrecord
 70
     0
  0
XRECORD
  5
7DE1B343D9D343B
102
{ACAD_REACTORS
330
7DE1B343D9D342F
102
}
330
7DE1B343D9D342F
100
AcDbXrecord
  1
{A35E9342-8DB4-11D6-88E6-0090279574E7}
  0
DICTIONARYVAR
  5
7DE1B343D9D342D
102
{ACAD_REACTORS
330
7DE1B343D9D342C
102
}
330
7DE1B343D9D342C
100
DictionaryVariables
280
     0
  1
1
  0
ENDSEC
  0
EOF
