  0
SECTION
  2
HEADER
  9
$ACADVER
  1
AC1014
  9
$ACADMAINTVER
 70
     9
  9
$DWGCODEPAGE
  3
ANSI_1252
  9
$INSBASE
 10
2.698170739973281
 20
1.733586049734564
 30
0.0
  9
$EXTMIN
 10
0.9140839888454348
 20
0.8864129449076436
 30
0.0
  9
$EXTMAX
 10
4.399303310592564
 20
1.880664662751392
 30
0.0
  9
$LIMMIN
 10
0.0
 20
0.0
  9
$LIMMAX
 10
18.0
 20
12.0
  9
$ORTHOMODE
 70
     1
  9
$REGENMODE
 70
     1
  9
$FILLMODE
 70
     1
  9
$QTEXTMODE
 70
     0
  9
$MIRRTEXT
 70
     0
  9
$DRAGMODE
 70
     2
  9
$LTSCALE
 40
1.0
  9
$OSMODE
 70
    39
  9
$ATTMODE
 70
     1
  9
$TEXTSIZE
 40
0.125
  9
$TRACEWID
 40
0.05
  9
$TEXTSTYLE
  7
ROMANS
  9
$CLAYER
  8
0
  9
$CELTYPE
  6
BYLAYER
  9
$CECOLOR
 62
   256
  9
$CELTSCALE
 40
1.0
  9
$DELOBJ
 70
     1
  9
$DISPSILH
 70
     1
  9
$DIMSCALE
 40
1.0
  9
$DIMASZ
 40
0.125
  9
$DIMEXO
 40
0.125
  9
$DIMDLI
 40
0.375
  9
$DIMRND
 40
0.0
  9
$DIMDLE
 40
0.0
  9
$DIMEXE
 40
0.125
  9
$DIMTP
 40
0.0
  9
$DIMTM
 40
0.0
  9
$DIMTXT
 40
0.125
  9
$DIMCEN
 40
-0.125
  9
$DIMTSZ
 40
0.0
  9
$DIMTOL
 70
     0
  9
$DIMLIM
 70
     0
  9
$DIMTIH
 70
     1
  9
$DIMTOH
 70
     1
  9
$DIMSE1
 70
     0
  9
$DIMSE2
 70
     0
  9
$DIMTAD
 70
     0
  9
$DIMZIN
 70
     4
  9
$DIMBLK
  1

  9
$DIMASO
 70
     1
  9
$DIMSHO
 70
     1
  9
$DIMPOST
  1

  9
$DIMAPOST
  1

  9
$DIMALT
 70
     0
  9
$DIMALTD
 70
     2
  9
$DIMALTF
 40
25.4
  9
$DIMLFAC
 40
1.0
  9
$DIMTOFL
 70
     0
  9
$DIMTVP
 40
0.0
  9
$DIMTIX
 70
     1
  9
$DIMSOXD
 70
     0
  9
$DIMSAH
 70
     0
  9
$DIMBLK1
  1

  9
$DIMBLK2
  1

  9
$DIMSTYLE
  2
STANDARD
  9
$DIMCLRD
 70
     0
  9
$DIMCLRE
 70
     0
  9
$DIMCLRT
 70
     0
  9
$DIMTFAC
 40
1.0
  9
$DIMGAP
 40
0.09
  9
$DIMJUST
 70
     0
  9
$DIMSD1
 70
     0
  9
$DIMSD2
 70
     0
  9
$DIMTOLJ
 70
     1
  9
$DIMTZIN
 70
     4
  9
$DIMALTZ
 70
     0
  9
$DIMALTTZ
 70
     0
  9
$DIMFIT
 70
     3
  9
$DIMUPT
 70
     0
  9
$DIMUNIT
 70
     2
  9
$DIMDEC
 70
     3
  9
$DIMTDEC
 70
     3
  9
$DIMALTU
 70
     2
  9
$DIMALTTD
 70
     2
  9
$DIMTXSTY
  7
ROMANS
  9
$DIMAUNIT
 70
     0
  9
$LUNITS
 70
     2
  9
$LUPREC
 70
     3
  9
$SKETCHINC
 40
0.1
  9
$FILLETRAD
 40
0.03125
  9
$AUNITS
 70
     0
  9
$AUPREC
 70
     0
  9
$MENU
  1
ACAD
  9
$ELEVATION
 40
0.0
  9
$PELEVATION
 40
0.0
  9
$THICKNESS
 40
0.0
  9
$LIMCHECK
 70
     0
  9
$BLIPMODE
 70
     0
  9
$CHAMFERA
 40
0.0
  9
$CHAMFERB
 40
0.0
  9
$CHAMFERC
 40
0.0
  9
$CHAMFERD
 40
0.0
  9
$SKPOLY
 70
     0
  9
$TDCREATE
 40
2448994.361741550
  9
$TDUPDATE
 40
2452458.298583715
  9
$TDINDWG
 40
0.0006894097
  9
$TDUSRTIMER
 40
0.0006894097
  9
$USRTIMER
 70
     1
  9
$ANGBASE
 50
0.0
  9
$ANGDIR
 70
     0
  9
$PDMODE
 70
     0
  9
$PDSIZE
 40
0.0
  9
$PLINEWID
 40
0.0
  9
$COORDS
 70
     2
  9
$SPLFRAME
 70
     0
  9
$SPLINETYPE
 70
     6
  9
$SPLINESEGS
 70
     8
  9
$ATTDIA
 70
     0
  9
$ATTREQ
 70
     1
  9
$HANDLING
 70
 22529
  9
$HANDSEED
  5
7DE1B343D9D3108
  9
$SURFTAB1
 70
     6
  9
$SURFTAB2
 70
     6
  9
$SURFTYPE
 70
     6
  9
$SURFU
 70
     6
  9
$SURFV
 70
     6
  9
$UCSNAME
  2

  9
$UCSORG
 10
0.0
 20
0.0
 30
0.0
  9
$UCSXDIR
 10
1.0
 20
0.0
 30
0.0
  9
$UCSYDIR
 10
0.0
 20
1.0
 30
0.0
  9
$PUCSNAME
  2

  9
$PUCSORG
 10
0.0
 20
0.0
 30
0.0
  9
$PUCSXDIR
 10
1.0
 20
0.0
 30
0.0
  9
$PUCSYDIR
 10
0.0
 20
1.0
 30
0.0
  9
$USERI1
 70
     0
  9
$USERI2
 70
     0
  9
$USERI3
 70
     0
  9
$USERI4
 70
     0
  9
$USERI5
 70
     0
  9
$USERR1
 40
0.0
  9
$USERR2
 40
0.0
  9
$USERR3
 40
0.0
  9
$USERR4
 40
0.0
  9
$USERR5
 40
0.0
  9
$WORLDVIEW
 70
     1
  9
$SHADEDGE
 70
     3
  9
$SHADEDIF
 70
    70
  9
$TILEMODE
 70
     1
  9
$MAXACTVP
 70
    16
  9
$PINSBASE
 10
0.0
 20
0.0
 30
0.0
  9
$PLIMCHECK
 70
     0
  9
$PEXTMIN
 10
1.000000000000000E+20
 20
1.000000000000000E+20
 30
1.000000000000000E+20
  9
$PEXTMAX
 10
-1.000000000000000E+20
 20
-1.000000000000000E+20
 30
-1.000000000000000E+20
  9
$PLIMMIN
 10
0.0
 20
0.0
  9
$PLIMMAX
 10
12.0
 20
9.0
  9
$UNITMODE
 70
     0
  9
$VISRETAIN
 70
     0
  9
$PLINEGEN
 70
     1
  9
$PSLTSCALE
 70
     0
  9
$TREEDEPTH
 70
  3020
  9
$PICKSTYLE
 70
     1
  9
$CMLSTYLE
  2
STANDARD
  9
$CMLJUST
 70
     0
  9
$CMLSCALE
 40
1.0
  9
$PROXYGRAPHICS
 70
     1
  9
$MEASUREMENT
 70
     0
  0
ENDSEC
  0
SECTION
  2
CLASSES
  0
CLASS
  1
LWPOLYLINE
  2
AcDbPolyline
  3
AutoCAD 2000
 90
        0
280
     0
281
     1
  0
CLASS
  1
ACDBDICTIONARYWDFLT
  2
AcDbDictionaryWithDefault
  3
AutoCAD 2000
 90
        0
280
     0
281
     0
  0
CLASS
  1
ACDBPLACEHOLDER
  2
AcDbPlaceHolder
  3
AutoCAD 2000
 90
        0
280
     0
281
     0
  0
CLASS
  1
LAYOUT
  2
AcDbLayout
  3
AutoCAD 2000
 90
        0
280
     0
281
     0
  0
CLASS
  1
DICTIONARYVAR
  2
AcDbDictionaryVar
  3
AutoCAD 2000
 90
        0
280
     0
281
     0
  0
CLASS
  1
LONG_TRANSACTION
  2
AcDbLongTransaction
  3
AutoCAD 2000
 90
        0
280
     0
281
     0
  0
CLASS
  1
LWPOLYLINE
  2
AcDbPolyline
  3
AutoCAD 2000
 90
        0
280
     0
281
     1
  0
CLASS
  1
HATCH
  2
AcDbHatch
  3
AutoCAD 2000
 90
        0
280
     0
281
     1
  0
CLASS
  1
XRECORD
  2
AcDbXrecord
  3
AutoCAD 2000
 90
        0
280
     0
281
     0
  0
ENDSEC
  0
SECTION
  2
TABLES
  0
TABLE
  2
VPORT
  5
7DE1B343D9D30AF
330
0
100
AcDbSymbolTable
 70
     2
  0
VPORT
  5
7DE1B343D9D30E3
330
7DE1B343D9D30AF
100
AcDbSymbolTableRecord
100
AcDbViewportTableRecord
  2
*ACTIVE
 70
     0
 10
0.0
 20
0.0
 11
1.0
 21
1.0
 12
5.631932874929397
 22
1.383453391705934
 13
0.0
 23
0.0
 14
0.015625
 24
0.015625
 15
0.0
 25
0.0
 16
0.0
 26
0.0
 36
1.0
 17
0.0
 27
0.0
 37
0.0
 40
2.281748181188984
 41
4.320930232558139
 42
50.0
 43
0.0
 44
0.0
 50
0.0
 51
0.0
 71
     0
 72
  2000
 73
     1
 74
     0
 75
     0
 76
     0
 77
     0
 78
     0
  0
ENDTAB
  0
TABLE
  2
LTYPE
  5
7DE1B343D9D30AC
330
0
100
AcDbSymbolTable
 70
     1
  0
LTYPE
  5
7DE1B343D9D30B9
330
7DE1B343D9D30AC
100
AcDbSymbolTableRecord
100
AcDbLinetypeTableRecord
  2
BYBLOCK
 70
     0
  3

 72
    65
 73
     0
 40
0.0
  0
LTYPE
  5
7DE1B343D9D30BA
330
7DE1B343D9D30AC
100
AcDbSymbolTableRecord
100
AcDbLinetypeTableRecord
  2
BYLAYER
 70
     0
  3

 72
    65
 73
     0
 40
0.0
  0
LTYPE
  5
7DE1B343D9D30BB
330
7DE1B343D9D30AC
100
AcDbSymbolTableRecord
100
AcDbLinetypeTableRecord
  2
CONTINUOUS
 70
     0
  3
Solid line
 72
    65
 73
     0
 40
0.0
  0
ENDTAB
  0
TABLE
  2
LAYER
  5
7DE1B343D9D30A9
330
0
100
AcDbSymbolTable
 70
     2
  0
LAYER
  5
7DE1B343D9D30B6
330
7DE1B343D9D30A9
100
AcDbSymbolTableRecord
100
AcDbLayerTableRecord
  2
0
 70
     0
 62
     7
  6
CONTINUOUS
  0
LAYER
  5
7DE1B343D9D30C6
330
7DE1B343D9D30A9
100
AcDbSymbolTableRecord
100
AcDbLayerTableRecord
  2
TEXT
 70
     0
 62
     3
  6
CONTINUOUS
  0
ENDTAB
  0
TABLE
  2
STYLE
  5
7DE1B343D9D30AA
330
0
100
AcDbSymbolTable
 70
     3
  0
STYLE
  5
7DE1B343D9D30B7
330
7DE1B343D9D30AA
100
AcDbSymbolTableRecord
100
AcDbTextStyleTableRecord
  2
STANDARD
 70
     0
 40
0.0
 41
1.0
 50
0.0
 71
     0
 42
0.3125
  3
txt
  4

  0
STYLE
  5
7DE1B343D9D30C3
330
7DE1B343D9D30AA
100
AcDbSymbolTableRecord
100
AcDbTextStyleTableRecord
  2
ITALICC
 70
     0
 40
0.0
 41
1.0
 50
0.0
 71
     0
 42
0.125
  3
italicc
  4

  0
STYLE
  5
7DE1B343D9D30D3
330
7DE1B343D9D30AA
100
AcDbSymbolTableRecord
100
AcDbTextStyleTableRecord
  2
ROMANS
 70
     0
 40
0.0
 41
1.0
 50
0.0
 71
     0
 42
0.125
  3
romans.shx
  4

  0
ENDTAB
  0
TABLE
  2
VIEW
  5
7DE1B343D9D30AD
330
0
100
AcDbSymbolTable
 70
     0
  0
ENDTAB
  0
TABLE
  2
UCS
  5
7DE1B343D9D30AE
330
0
100
AcDbSymbolTable
 70
     0
  0
ENDTAB
  0
TABLE
  2
APPID
  5
7DE1B343D9D30B0
330
0
100
AcDbSymbolTable
 70
     1
  0
APPID
  5
7DE1B343D9D30B8
330
7DE1B343D9D30B0
100
AcDbSymbolTableRecord
100
AcDbRegAppTableRecord
  2
ACAD
 70
     0
  0
ENDTAB
  0
TABLE
  2
DIMSTYLE
  5
7DE1B343D9D30B1
330
0
100
AcDbSymbolTable
 70
     1
  0
DIMSTYLE
105
7DE1B343D9D30CB
330
7DE1B343D9D30B1
100
AcDbSymbolTableRecord
100
AcDbDimStyleTableRecord
  2
STANDARD
 70
     0
  3

  4

  5

  6

  7

 40
1.0
 41
0.125
 42
0.125
 43
0.375
 44
0.125
 45
0.0
 46
0.0
 47
0.0
 48
0.0
140
0.125
141
-0.125
142
0.0
143
25.4
144
1.0
145
0.0
146
1.0
147
0.09
 71
     0
 72
     0
 73
     1
 74
     1
 75
     0
 76
     0
 77
     0
 78
     4
170
     0
171
     2
172
     0
173
     0
174
     1
175
     0
176
     0
177
     0
178
     0
270
     2
271
     3
272
     3
273
     2
274
     2
340
7DE1B343D9D30D3
275
     0
280
     0
281
     0
282
     0
283
     1
284
     4
285
     0
286
     0
287
     3
288
     0
  0
ENDTAB
  0
TABLE
  2
BLOCK_RECORD
  5
7DE1B343D9D30A8
330
0
100
AcDbSymbolTable
 70
     0
  0
BLOCK_RECORD
  5
7DE1B343D9D30BF
102
{ACAD_XDICTIONARY
360
7DE1B343D9D3106
102
}
330
7DE1B343D9D30A8
100
AcDbSymbolTableRecord
100
AcDbBlockTableRecord
  2
*MODEL_SPACE
  0
BLOCK_RECORD
  5
7DE1B343D9D30BC
102
{ACAD_XDICTIONARY
360
7DE1B343D9D3104
102
}
330
7DE1B343D9D30A8
100
AcDbSymbolTableRecord
100
AcDbBlockTableRecord
  2
*PAPER_SPACE
  0
ENDTAB
  0
ENDSEC
  0
SECTION
  2
BLOCKS
  0
BLOCK
  5
7DE1B343D9D30C9
330
7DE1B343D9D30BF
100
AcDbEntity
  8
0
100
AcDbBlockBegin
  2
*MODEL_SPACE
 70
     0
 10
0.0
 20
0.0
 30
0.0
  3
*MODEL_SPACE
  1

  0
ENDBLK
  5
7DE1B343D9D30CA
330
7DE1B343D9D30BF
100
AcDbEntity
  8
0
100
AcDbBlockEnd
  0
BLOCK
  5
7DE1B343D9D30C7
330
7DE1B343D9D30BC
100
AcDbEntity
 67
     1
  8
0
100
AcDbBlockBegin
  2
*PAPER_SPACE
 70
     0
 10
0.0
 20
0.0
 30
0.0
  3
*PAPER_SPACE
  1

  0
ENDBLK
  5
7DE1B343D9D30C8
330
7DE1B343D9D30BC
100
AcDbEntity
 67
     1
  8
0
100
AcDbBlockEnd
  0
ENDSEC
  0
SECTION
  2
ENTITIES
  0
LWPOLYLINE
  5
7DE1B343D9D1B14
330
7DE1B343D9D30BF
100
AcDbEntity
  8
0
100
AcDbPolyline
 90
       11
 70
     1
 43
0.0
 10
2.508429883850692
 20
1.685664662751393
 10
2.518429883850692
 20
1.695664662751393
 10
2.528429883850692
 20
1.685664662751392
 10
2.724725622361298
 20
1.685664662751392
 42
-0.2309606970063559
 10
2.772019241281112
 20
1.662587739674469
 42
4.018242933583587
 10
2.749979285514142
 20
1.787203124289854
 42
-0.3253046293250415
 10
2.692890130697898
 20
1.745664662751392
 10
2.323429883850693
 20
1.745664662751392
 42
0.4142135623730951
 10
2.308429883850692
 20
1.730664662751393
 10
2.308429883850692
 20
1.700664662751393
 42
0.4142135623730951
 10
2.323429883850693
 20
1.685664662751393
  0
CIRCLE
  5
7DE1B343D9D1B13
330
7DE1B343D9D30BF
100
AcDbEntity
  8
0
100
AcDbCircle
 10
2.878429883850692
 20
1.745664662751392
 30
0.0
 40
0.075
  0
TEXT
  5
7DE1B343D9D2F6A
330
7DE1B343D9D30BF
100
AcDbEntity
  8
TEXT
100
AcDbText
 10
1.904089377596387
 20
1.344431548990225
 30
0.0
 40
0.125
  1
PART #110164
  7
ITALICC
 72
     1
 11
2.657065568072578
 21
1.344431548990225
 31
0.0
100
AcDbText
  0
TEXT
  5
7DE1B343D9D2F6B
330
7DE1B343D9D30BF
100
AcDbEntity
  8
TEXT
100
AcDbText
 10
3.070370726322898
 20
0.8975089063178501
 30
0.0
 40
0.0522247191011236
  1
Phone  1-800-328-2495
 41
1.27232142857143
 72
     5
 11
4.399303310592562
 21
0.8975089063178501
 31
0.0
100
AcDbText
  0
TEXT
  5
7DE1B343D9D2F6C
330
7DE1B343D9D30BF
100
AcDbEntity
  8
TEXT
100
AcDbText
 10
3.070370726322898
 20
1.177284187216726
 30
0.0
 40
0.0522247191011236
  1
Stylmark  Incorporated
 41
1.221428571428573
 72
     5
 11
4.399303310592562
 21
1.177284187216726
 31
0.0
100
AcDbText
  0
TEXT
  5
7DE1B343D9D2F6D
330
7DE1B343D9D30BF
100
AcDbEntity
  8
TEXT
100
AcDbText
 10
3.070370726322898
 20
1.084025760250434
 30
0.0
 40
0.0522247191011236
  1
6536 Main St. N.E. * P.O. Box 32008
 41
0.8388932496075367
 72
     5
 11
4.399303310592562
 21
1.084025760250434
 31
0.0
100
AcDbText
  0
TEXT
  5
7DE1B343D9D2F6E
330
7DE1B343D9D30BF
100
AcDbEntity
  8
TEXT
100
AcDbText
 10
3.070370726322898
 20
0.9907673332841422
 30
0.0
 40
0.0522247191011236
  1
Minneapolis, MN 55432-0008
 41
1.11444212721585
 72
     5
 11
4.399303310592562
 21
0.9907673332841422
 31
0.0
100
AcDbText
  0
LWPOLYLINE
  5
7DE1B343D9D2F6F
330
7DE1B343D9D30BF
100
AcDbEntity
  8
TEXT
100
AcDbPolyline
 90
        3
 70
     0
 43
0.0006660908203125
 10
0.9144170342555909
 20
1.011153668955284
 10
0.9144170342555909
 20
0.8979182295021573
 10
1.027652473708713
 20
0.8979182295021573
  0
LWPOLYLINE
  5
7DE1B343D9D2F74
330
7DE1B343D9D30BF
100
AcDbEntity
  8
TEXT
100
AcDbPolyline
 90
        3
 70
     0
 43
0.0006660908203125
 10
0.9410606670680884
 20
1.011153668955284
 10
0.9410606670680884
 20
0.9245618623146583
 10
1.027652473708713
 20
0.9245618623146583
  0
LWPOLYLINE
  5
7DE1B343D9D2F79
330
7DE1B343D9D30BF
100
AcDbEntity
  8
TEXT
100
AcDbPolyline
 90
        2
 70
     0
 43
0.0001332181640625
 10
0.9876870244899652
 20
1.02114503125997
 10
0.9144170342555909
 20
1.011153668955284
  0
LWPOLYLINE
  5
7DE1B343D9D2F7D
330
7DE1B343D9D30BF
100
AcDbEntity
  8
TEXT
100
AcDbPolyline
 90
        2
 70
     0
 43
0.0001332181640625
 10
0.9410606670680884
 20
1.011153668955284
 10
1.001008840896215
 20
1.02114503125997
  0
LWPOLYLINE
  5
7DE1B343D9D2F81
330
7DE1B343D9D30BF
100
AcDbEntity
  8
TEXT
100
AcDbPolyline
 90
        2
 70
     0
 43
0.0001332181640625
 10
0.9410606670680884
 20
0.9245618623146583
 10
1.001008840896215
 20
0.9845100361427839
  0
LWPOLYLINE
  5
7DE1B343D9D2F85
330
7DE1B343D9D30BF
100
AcDbEntity
  8
TEXT
100
AcDbPolyline
 90
        3
 70
     0
 43
0.0006660908203125
 10
1.027652473708713
 20
1.16435455762716
 10
0.9144170342555909
 20
1.16435455762716
 10
0.9144170342555909
 20
1.051119118174032
  0
LWPOLYLINE
  5
7DE1B343D9D2F8A
330
7DE1B343D9D30BF
100
AcDbEntity
  8
TEXT
100
AcDbPolyline
 90
        3
 70
     0
 43
0.0006660908203125
 10
1.027652473708713
 20
1.137710924814659
 10
0.9410606670680884
 20
1.137710924814659
 10
0.9410606670680884
 20
1.051119118174032
  0
LWPOLYLINE
  5
7DE1B343D9D2F8F
330
7DE1B343D9D30BF
100
AcDbEntity
  8
TEXT
100
AcDbPolyline
 90
        2
 70
     0
 43
0.0001332181640625
 10
0.9410606670680884
 20
1.137710924814659
 10
1.001008840896214
 20
1.077762750986533
  0
LWPOLYLINE
  5
7DE1B343D9D2F93
330
7DE1B343D9D30BF
100
AcDbEntity
  8
TEXT
100
AcDbPolyline
 90
        2
 70
     0
 43
0.0001332181640625
 10
0.9410606670680884
 20
1.051119118174032
 10
1.001008840896214
 20
1.041127755869344
  0
LWPOLYLINE
  5
7DE1B343D9D2F97
330
7DE1B343D9D30BF
100
AcDbEntity
  8
TEXT
100
AcDbPolyline
 90
        2
 70
     0
 43
0.0001332181640625
 10
0.9144170342555909
 20
1.051119118174032
 10
0.9876870244899652
 20
1.041127755869344
  0
LWPOLYLINE
  5
7DE1B343D9D2F9B
330
7DE1B343D9D30BF
100
AcDbEntity
  8
TEXT
100
AcDbPolyline
 90
        2
 70
     0
 43
0.0006660908203125
 10
0.9410606670680884
 20
1.011153668955284
 10
0.9144170342555909
 20
1.011153668955284
  0
LWPOLYLINE
  5
7DE1B343D9D2F9F
330
7DE1B343D9D30BF
100
AcDbEntity
  8
TEXT
100
AcDbPolyline
 90
        2
 70
     0
 43
0.0006660908203125
 10
0.9410606670680884
 20
1.051119118174032
 10
0.9144170342555909
 20
1.051119118174032
  0
LINE
  5
7DE1B343D9D2FA3
330
7DE1B343D9D30BF
100
AcDbEntity
  8
TEXT
100
AcDbLine
 10
2.429607463382088
 20
1.100077862970391
 30
0.0
 11
2.322401189994799
 21
1.100077862970391
 31
0.0
  0
LINE
  5
7DE1B343D9D2FA4
330
7DE1B343D9D30BF
100
AcDbEntity
  8
TEXT
100
AcDbLine
 10
2.458638361726567
 20
1.164354557627157
 30
0.0
 11
2.323806452509507
 21
1.164354557627157
 31
0.0
  0
ARC
  5
7DE1B343D9D2FA5
330
7DE1B343D9D30BF
100
AcDbEntity
  8
TEXT
100
AcDbCircle
 10
2.383120548902824
 20
0.9951173083641407
 30
0.0
 40
0.0676855811441166
100
AcDbArc
 50
90.0
 51
153.7768192527749
  0
LWPOLYLINE
  5
7DE1B343D9D2FA6
330
7DE1B343D9D30BF
100
AcDbEntity
  8
TEXT
100
AcDbPolyline
 90
        2
 70
     0
 43
0.0
 10
2.321368694539989
 20
0.9413724695890842
 42
0.2901071551932823
 10
2.364444627407624
 20
0.897881524638646
 42
5.328517124445801
  0
ARC
  5
7DE1B343D9D2FAA
330
7DE1B343D9D30BF
100
AcDbEntity
  8
TEXT
100
AcDbCircle
 10
1.677989171231339
 20
0.9576739159766958
 30
0.0
 40
0.0601160179737537
100
AcDbArc
 50
180.0000000000003
 51
264.0521544866073
  0
LINE
  5
7DE1B343D9D2FAB
330
7DE1B343D9D30BF
100
AcDbEntity
  8
TEXT
100
AcDbLine
 10
1.681504526856886
 20
1.198742475221295
 30
0.0
 11
1.621461922012879
 21
1.198742475221295
 31
0.0
  0
ARC
  5
7DE1B343D9D2FAC
330
7DE1B343D9D30BF
100
AcDbEntity
  8
TEXT
100
AcDbCircle
 10
1.445730169114368
 20
1.082267098180655
 30
0.0
 40
0.0820874594465043
100
AcDbArc
 50
90.0
 51
270.0
  0
LWPOLYLINE
  5
7DE1B343D9D2FAD
330
7DE1B343D9D30BF
100
AcDbEntity
  8
TEXT
100
AcDbPolyline
 90
        2
 70
     0
 43
0.0001332181640625
 10
1.037643836013403
 20
1.09108456739278
 10
1.027652473708713
 20
1.16435455762716
  0
LWPOLYLINE
  5
7DE1B343D9D2FB1
330
7DE1B343D9D30BF
100
AcDbEntity
  8
TEXT
100
AcDbPolyline
 90
        2
 70
     0
 43
0.0001332181640625
 10
1.027652473708713
 20
1.137710924814659
 10
1.037643836013403
 20
1.077762750986533
  0
LWPOLYLINE
  5
7DE1B343D9D2FB5
330
7DE1B343D9D30BF
100
AcDbEntity
  8
TEXT
100
AcDbPolyline
 90
        3
 70
     0
 43
0.0006660908203125
 10
1.18085336238059
 20
1.051119118174032
 10
1.18085336238059
 20
1.16435455762716
 10
1.067617922927464
 20
1.16435455762716
  0
LWPOLYLINE
  5
7DE1B343D9D2FBA
330
7DE1B343D9D30BF
100
AcDbEntity
  8
TEXT
100
AcDbPolyline
 90
        3
 70
     0
 43
0.0006660908203125
 10
1.154209729568089
 20
1.051119118174032
 10
1.154209729568089
 20
1.137710924814659
 10
1.067617922927464
 20
1.137710924814659
  0
LWPOLYLINE
  5
7DE1B343D9D2FBF
330
7DE1B343D9D30BF
100
AcDbEntity
  8
TEXT
100
AcDbPolyline
 90
        2
 70
     0
 43
0.0001332181640625
 10
1.154209729568089
 20
1.137710924814659
 10
1.094261555739965
 20
1.077762750986533
  0
LWPOLYLINE
  5
7DE1B343D9D2FC3
330
7DE1B343D9D30BF
100
AcDbEntity
  8
TEXT
100
AcDbPolyline
 90
        2
 70
     0
 43
0.0001332181640625
 10
1.067617922927464
 20
1.137710924814659
 10
1.057626560622776
 20
1.077762750986533
  0
LWPOLYLINE
  5
7DE1B343D9D2FC7
330
7DE1B343D9D30BF
100
AcDbEntity
  8
TEXT
100
AcDbPolyline
 90
        2
 70
     0
 43
0.0001332181640625
 10
1.067617922927464
 20
1.16435455762716
 10
1.057626560622776
 20
1.09108456739278
  0
LWPOLYLINE
  5
7DE1B343D9D2FCB
330
7DE1B343D9D30BF
100
AcDbEntity
  8
TEXT
100
AcDbPolyline
 90
        2
 70
     0
 43
0.0001332181640625
 10
1.107583372146214
 20
1.041127755869344
 10
1.18085336238059
 20
1.051119118174032
  0
LWPOLYLINE
  5
7DE1B343D9D2FCF
330
7DE1B343D9D30BF
100
AcDbEntity
  8
TEXT
100
AcDbPolyline
 90
        2
 70
     0
 43
0.0001332181640625
 10
1.154209729568089
 20
1.051119118174032
 10
1.094261555739965
 20
1.041127755869344
  0
LWPOLYLINE
  5
7DE1B343D9D2FD3
330
7DE1B343D9D30BF
100
AcDbEntity
  8
TEXT
100
AcDbPolyline
 90
        2
 70
     0
 43
0.0001332181640625
 10
1.18085336238059
 20
1.011153668955284
 10
1.107583372146214
 20
1.02114503125997
  0
LWPOLYLINE
  5
7DE1B343D9D2FD7
330
7DE1B343D9D30BF
100
AcDbEntity
  8
TEXT
100
AcDbPolyline
 90
        2
 70
     0
 43
0.0001332181640625
 10
1.154209729568089
 20
1.011153668955284
 10
1.094261555739965
 20
1.02114503125997
  0
LWPOLYLINE
  5
7DE1B343D9D2FDB
330
7DE1B343D9D30BF
100
AcDbEntity
  8
TEXT
100
AcDbPolyline
 90
        2
 70
     0
 43
0.0001332181640625
 10
1.154209729568089
 20
0.9245618623146583
 10
1.094261555739965
 20
0.9845100361427839
  0
LWPOLYLINE
  5
7DE1B343D9D2FDF
330
7DE1B343D9D30BF
100
AcDbEntity
  8
TEXT
100
AcDbPolyline
 90
        3
 70
     0
 43
0.0006660908203125
 10
1.067617922927464
 20
0.9245618623146583
 10
1.154209729568089
 20
0.9245618623146583
 10
1.154209729568089
 20
1.011153668955284
  0
LWPOLYLINE
  5
7DE1B343D9D2FE4
330
7DE1B343D9D30BF
100
AcDbEntity
  8
TEXT
100
AcDbPolyline
 90
        3
 70
     0
 43
0.0006660908203125
 10
1.067617922927464
 20
0.8979182295021573
 10
1.18085336238059
 20
0.8979182295021573
 10
1.18085336238059
 20
1.011153668955284
  0
LWPOLYLINE
  5
7DE1B343D9D2FE9
330
7DE1B343D9D30BF
100
AcDbEntity
  8
TEXT
100
AcDbPolyline
 90
        5
 70
     0
 43
0.0001332181640625
 10
1.037643836013403
 20
0.9711882197365333
 10
1.037643836013403
 20
0.9845100361427839
 10
1.001008840896215
 20
0.9845100361427839
 10
1.001008840896215
 20
1.02114503125997
 10
0.9876870244899652
 20
1.02114503125997
  0
LWPOLYLINE
  5
7DE1B343D9D2FF0
330
7DE1B343D9D30BF
100
AcDbEntity
  8
TEXT
100
AcDbPolyline
 90
        2
 70
     0
 43
0.0006660908203125
 10
1.027652473708713
 20
0.9245618623146583
 10
1.027652473708713
 20
0.8979182295021573
  0
LWPOLYLINE
  5
7DE1B343D9D2FF4
330
7DE1B343D9D30BF
100
AcDbEntity
  8
TEXT
100
AcDbPolyline
 90
        2
 70
     0
 43
0.0001332181640625
 10
1.027652473708713
 20
0.9245618623146583
 10
1.037643836013403
 20
0.9845100361427839
  0
LWPOLYLINE
  5
7DE1B343D9D2FF8
330
7DE1B343D9D30BF
100
AcDbEntity
  8
TEXT
100
AcDbPolyline
 90
        2
 70
     0
 43
0.0001332181640625
 10
1.027652473708713
 20
0.8979182295021573
 10
1.037643836013403
 20
0.9711882197365333
  0
LWPOLYLINE
  5
7DE1B343D9D2FFC
330
7DE1B343D9D30BF
100
AcDbEntity
  8
TEXT
100
AcDbPolyline
 90
        5
 70
     0
 43
0.0001332181640625
 10
0.9876870244899652
 20
1.041127755869344
 10
1.001008840896214
 20
1.041127755869344
 10
1.001008840896214
 20
1.077762750986533
 10
1.037643836013403
 20
1.077762750986533
 10
1.037643836013403
 20
1.09108456739278
  0
LWPOLYLINE
  5
7DE1B343D9D3003
330
7DE1B343D9D30BF
100
AcDbEntity
  8
TEXT
100
AcDbPolyline
 90
        5
 70
     0
 43
0.0001332181640625
 10
1.057626560622776
 20
1.09108456739278
 10
1.057626560622776
 20
1.077762750986533
 10
1.094261555739965
 20
1.077762750986533
 10
1.094261555739965
 20
1.041127755869344
 10
1.107583372146214
 20
1.041127755869344
  0
LWPOLYLINE
  5
7DE1B343D9D300A
330
7DE1B343D9D30BF
100
AcDbEntity
  8
TEXT
100
AcDbPolyline
 90
        2
 70
     0
 43
0.0001332181640625
 10
1.067617922927464
 20
0.9245618623146583
 10
1.057626560622776
 20
0.9845100361427839
  0
LWPOLYLINE
  5
7DE1B343D9D300E
330
7DE1B343D9D30BF
100
AcDbEntity
  8
TEXT
100
AcDbPolyline
 90
        2
 70
     0
 43
0.0001332181640625
 10
1.057626560622776
 20
0.9711882197365333
 10
1.067617922927464
 20
0.8979182295021573
  0
LWPOLYLINE
  5
7DE1B343D9D3012
330
7DE1B343D9D30BF
100
AcDbEntity
  8
TEXT
100
AcDbPolyline
 90
        2
 70
     0
 43
0.0006660908203125
 10
1.067617922927464
 20
0.9245618623146583
 10
1.067617922927464
 20
0.8979182295021573
  0
LWPOLYLINE
  5
7DE1B343D9D3016
330
7DE1B343D9D30BF
100
AcDbEntity
  8
TEXT
100
AcDbPolyline
 90
        5
 70
     0
 43
0.0001332181640625
 10
1.107583372146214
 20
1.02114503125997
 10
1.094261555739965
 20
1.02114503125997
 10
1.094261555739965
 20
0.9845100361427839
 10
1.057626560622776
 20
0.9845100361427839
 10
1.057626560622776
 20
0.9711882197365333
  0
LWPOLYLINE
  5
7DE1B343D9D301D
330
7DE1B343D9D30BF
100
AcDbEntity
  8
TEXT
100
AcDbPolyline
 90
        2
 70
     0
 43
0.0006660908203125
 10
1.154209729568089
 20
1.051119118174032
 10
1.18085336238059
 20
1.051119118174032
  0
LWPOLYLINE
  5
7DE1B343D9D3021
330
7DE1B343D9D30BF
100
AcDbEntity
  8
TEXT
100
AcDbPolyline
 90
        2
 70
     0
 43
0.0006660908203125
 10
1.154209729568089
 20
1.011153668955284
 10
1.18085336238059
 20
1.011153668955284
  0
LINE
  5
7DE1B343D9D3025
330
7DE1B343D9D30BF
100
AcDbEntity
  8
TEXT
100
AcDbLine
 10
1.450967499228615
 20
1.100077862970391
 30
0.0
 11
1.617873153257586
 21
1.100077862970391
 31
0.0
  0
LINE
  5
7DE1B343D9D3026
330
7DE1B343D9D30BF
100
AcDbEntity
  8
TEXT
100
AcDbLine
 10
1.516567635472916
 20
1.064273141359763
 30
0.0
 11
1.450967499228615
 21
1.064273141359763
 31
0.0
  0
LINE
  5
7DE1B343D9D3027
330
7DE1B343D9D30BF
100
AcDbEntity
  8
TEXT
100
AcDbLine
 10
1.363642709667864
 20
0.897881524638646
 30
0.0
 11
1.516567635472916
 21
0.897881524638646
 31
0.0
  0
LINE
  5
7DE1B343D9D3028
330
7DE1B343D9D30BF
100
AcDbEntity
  8
TEXT
100
AcDbLine
 10
1.521508009379196
 20
0.9662385309720853
 30
0.0
 11
1.363642709667862
 21
0.9662385309720853
 31
0.0
  0
LINE
  5
7DE1B343D9D3029
330
7DE1B343D9D30BF
100
AcDbEntity
  8
TEXT
100
AcDbLine
 10
1.445730169114367
 20
1.000179638734149
 30
0.0
 11
1.521508009379196
 21
1.000179638734149
 31
0.0
  0
ARC
  5
7DE1B343D9D302A
330
7DE1B343D9D30BF
100
AcDbEntity
  8
TEXT
100
AcDbCircle
 10
1.450967499228616
 20
1.082175502165079
 30
0.0
 40
0.017902360805315
100
AcDbArc
 50
90.0
 51
270.0
  0
LINE
  5
7DE1B343D9D302B
330
7DE1B343D9D30BF
100
AcDbEntity
  8
TEXT
100
AcDbLine
 10
1.363642709667862
 20
0.9662385309720853
 30
0.0
 11
1.363642709667864
 21
0.897881524638646
 31
0.0
  0
LINE
  5
7DE1B343D9D302C
330
7DE1B343D9D30BF
100
AcDbEntity
  8
TEXT
100
AcDbLine
 10
1.617873153257586
 20
1.100077862970391
 30
0.0
 11
1.617873153257586
 21
0.9576739159766958
 31
0.0
  0
ARC
  5
7DE1B343D9D302D
330
7DE1B343D9D30BF
100
AcDbEntity
  8
TEXT
100
AcDbCircle
 10
1.516567635472917
 20
0.9810773329992031
 30
0.0
 40
0.0831958083605586
100
AcDbArc
 50
270.0
 51
90.0
  0
ARC
  5
7DE1B343D9D302E
330
7DE1B343D9D30BF
100
AcDbEntity
  8
TEXT
100
AcDbCircle
 10
1.521508009379197
 20
0.9832090848531194
 30
0.0
 40
0.0169705538810321
100
AcDbArc
 50
270.0
 51
90.0
  0
LWPOLYLINE
  5
7DE1B343D9D302F
330
7DE1B343D9D30BF
100
AcDbEntity
  8
TEXT
100
AcDbPolyline
 90
        2
 70
     0
 43
0.0006660908203125
 10
1.027652473708713
 20
1.137710924814659
 10
1.027652473708713
 20
1.16435455762716
  0
LWPOLYLINE
  5
7DE1B343D9D3033
330
7DE1B343D9D30BF
100
AcDbEntity
  8
TEXT
100
AcDbPolyline
 90
        2
 70
     0
 43
0.0006660908203125
 10
1.067617922927464
 20
1.137710924814659
 10
1.067617922927464
 20
1.16435455762716
  0
LINE
  5
7DE1B343D9D3037
330
7DE1B343D9D30BF
100
AcDbEntity
  8
TEXT
100
AcDbLine
 10
1.621461922012879
 20
1.164354557627157
 30
0.0
 11
1.445730169114367
 21
1.164354557627157
 31
0.0
  0
LINE
  5
7DE1B343D9D3038
330
7DE1B343D9D30BF
100
AcDbEntity
  8
TEXT
100
AcDbLine
 10
1.621461922012879
 20
1.198742475221295
 30
0.0
 11
1.621461922012879
 21
1.164354557627157
 31
0.0
  0
LINE
  5
7DE1B343D9D3039
330
7DE1B343D9D30BF
100
AcDbEntity
  8
TEXT
100
AcDbLine
 10
1.811933814032732
 20
1.063482561514036
 30
0.0
 11
1.753303493000794
 21
1.164354557627157
 31
0.0
  0
LINE
  5
7DE1B343D9D303A
330
7DE1B343D9D30BF
100
AcDbEntity
  8
TEXT
100
AcDbLine
 10
1.870682376838597
 20
1.164354557627157
 30
0.0
 11
1.811933814032732
 21
1.063482561514036
 31
0.0
  0
LINE
  5
7DE1B343D9D303B
330
7DE1B343D9D30BF
100
AcDbEntity
  8
TEXT
100
AcDbLine
 10
1.967613002198338
 20
0.9802693627416452
 30
0.0
 11
1.967613002198338
 21
1.232366035365967
 31
0.0
  0
LINE
  5
7DE1B343D9D303C
330
7DE1B343D9D30BF
100
AcDbEntity
  8
TEXT
100
AcDbLine
 10
1.999924856335999
 20
1.164354557627157
 30
0.0
 11
1.999924856335999
 21
0.9634903508947488
 31
0.0
  0
LINE
  5
7DE1B343D9D303D
330
7DE1B343D9D30BF
100
AcDbEntity
  8
TEXT
100
AcDbLine
 10
1.999924856335999
 20
0.9634903508947488
 30
0.0
 11
1.982931219451397
 21
0.9634903508947488
 31
0.0
  0
LINE
  5
7DE1B343D9D303E
330
7DE1B343D9D30BF
100
AcDbEntity
  8
TEXT
100
AcDbLine
 10
1.968752575694533
 20
0.897881524638646
 30
0.0
 11
2.066755909393968
 21
0.897881524638646
 31
0.0
  0
LINE
  5
7DE1B343D9D303F
330
7DE1B343D9D30BF
100
AcDbEntity
  8
TEXT
100
AcDbLine
 10
1.802333577035777
 20
0.9178400307436589
 30
0.0
 11
1.899633283129222
 21
1.082190241678927
 31
0.0
  0
ARC
  5
7DE1B343D9D3040
330
7DE1B343D9D30BF
100
AcDbEntity
  8
TEXT
100
AcDbCircle
 10
1.768290017123563
 20
0.9374292469123417
 30
0.0
 40
0.0392772371940762
100
AcDbArc
 50
270.1604552698595
 51
330.0831797321295
  0
LINE
  5
7DE1B343D9D3041
330
7DE1B343D9D30BF
100
AcDbEntity
  8
TEXT
100
AcDbLine
 10
1.671759760737692
 20
0.897881524638646
 30
0.0
 11
1.768400011812687
 21
0.8981521637369283
 31
0.0
  0
LWPOLYLINE
  5
7DE1B343D9D3042
330
7DE1B343D9D30BF
100
AcDbEntity
  8
TEXT
100
AcDbPolyline
 90
        6
 70
     1
 43
0.0
 10
1.714283564312842
 20
1.100077862970391
 10
1.683966970092634
 20
1.100077862970391
 10
1.683966970092634
 20
0.9769668649154972
 42
0.407328721240804
 10
1.69551062125411
 20
0.9651479502391111
 10
1.756132320298841
 20
0.9651479502391111
 10
1.773597660706159
 20
0.9979601792825903
  0
LINE
  5
7DE1B343D9D304A
330
7DE1B343D9D30BF
100
AcDbEntity
  8
TEXT
100
AcDbLine
 10
1.899633283129222
 20
1.082190241678927
 30
0.0
 11
1.899633283129222
 21
0.9494328668535708
 31
0.0
  0
ARC
  5
7DE1B343D9D304B
330
7DE1B343D9D30BF
100
AcDbEntity
  8
TEXT
100
AcDbCircle
 10
1.982931219451396
 20
0.9788721571381742
 30
0.0
 40
0.0153818062434269
100
AcDbArc
 50
174.7883570302258
 51
270.0
  0
LWPOLYLINE
  5
7DE1B343D9D304C
330
7DE1B343D9D30BF
100
AcDbEntity
  8
TEXT
100
AcDbPolyline
 90
        2
 70
     0
 43
0.0
 10
1.89963328312922
 20
0.9494328668535743
 42
0.3318488747599744
 10
1.968752575694533
 20
0.897881524638646
 42
-6.868794160588311
  0
LINE
  5
7DE1B343D9D3050
330
7DE1B343D9D30BF
100
AcDbEntity
  8
TEXT
100
AcDbLine
 10
2.124144978383229
 20
0.897881524638646
 30
0.0
 11
2.191203025165069
 21
0.897881524638646
 31
0.0
  0
LINE
  5
7DE1B343D9D3051
330
7DE1B343D9D30BF
100
AcDbEntity
  8
TEXT
100
AcDbLine
 10
2.124144978383229
 20
1.092524073804281
 30
0.0
 11
2.124144978383229
 21
0.897881524638646
 31
0.0
  0
LINE
  5
7DE1B343D9D3052
330
7DE1B343D9D30BF
100
AcDbEntity
  8
TEXT
100
AcDbLine
 10
2.066755909393968
 20
1.100077862970391
 30
0.0
 11
2.116591189217115
 21
1.100077862970391
 31
0.0
  0
LINE
  5
7DE1B343D9D3053
330
7DE1B343D9D30BF
100
AcDbEntity
  8
TEXT
100
AcDbLine
 10
2.066755909393968
 20
0.897881524638646
 30
0.0
 11
2.066755909393968
 21
1.100077862970391
 31
0.0
  0
LWPOLYLINE
  5
7DE1B343D9D3054
330
7DE1B343D9D30BF
100
AcDbEntity
  8
TEXT
100
AcDbPolyline
 90
        2
 70
     0
 43
0.0
 10
2.116591189217114
 20
1.100077862970391
 42
-0.4142135623731017
 10
2.124144978383227
 20
1.092524073804281
 42
-0.9999999999999998
  0
LINE
  5
7DE1B343D9D3058
330
7DE1B343D9D30BF
100
AcDbEntity
  8
TEXT
100
AcDbLine
 10
2.322401189994799
 20
1.100077862970391
 30
0.0
 11
2.322401189994799
 21
1.025025456896184
 31
0.0
  0
LINE
  5
7DE1B343D9D3059
330
7DE1B343D9D30BF
100
AcDbEntity
  8
TEXT
100
AcDbLine
 10
2.191203025165069
 20
1.100077862970391
 30
0.0
 11
2.245336622086019
 21
1.100077862970391
 31
0.0
  0
LINE
  5
7DE1B343D9D305A
330
7DE1B343D9D30BF
100
AcDbEntity
  8
TEXT
100
AcDbLine
 10
2.191203025165069
 20
0.897881524638646
 30
0.0
 11
2.191203025165069
 21
1.100077862970391
 31
0.0
  0
LWPOLYLINE
  5
7DE1B343D9D305B
330
7DE1B343D9D30BF
100
AcDbEntity
  8
TEXT
100
AcDbPolyline
 90
        2
 70
     0
 43
0.0
 10
2.245336622086017
 20
1.100077862970391
 42
-0.4142135623731017
 10
2.252890411252131
 20
1.092524073804281
 42
-0.9999999999999998
  0
LWPOLYLINE
  5
7DE1B343D9D305F
330
7DE1B343D9D30BF
100
AcDbEntity
  8
TEXT
100
AcDbPolyline
 90
        4
 70
     0
 43
0.0
 10
2.252890411252131
 20
1.092524073804281
 10
2.252890411252131
 20
0.897881524638646
 10
2.321368694539989
 20
0.897881524638646
 10
2.321368694539989
 20
0.9413724695890842
 42
-1.714843617202739
  0
LINE
  5
7DE1B343D9D3065
330
7DE1B343D9D30BF
100
AcDbEntity
  8
TEXT
100
AcDbLine
 10
1.681504526856886
 20
1.164354557627157
 30
0.0
 11
1.681504526856886
 21
1.198742475221295
 31
0.0
  0
LINE
  5
7DE1B343D9D3066
330
7DE1B343D9D30BF
100
AcDbEntity
  8
TEXT
100
AcDbLine
 10
1.753303493000794
 20
1.164354557627157
 30
0.0
 11
1.681504526856886
 21
1.164354557627157
 31
0.0
  0
LINE
  5
7DE1B343D9D3067
330
7DE1B343D9D30BF
100
AcDbEntity
  8
TEXT
100
AcDbLine
 10
1.900804289631973
 20
1.164354557627157
 30
0.0
 11
1.870682376838597
 21
1.164354557627157
 31
0.0
  0
LINE
  5
7DE1B343D9D3068
330
7DE1B343D9D30BF
100
AcDbEntity
  8
TEXT
100
AcDbLine
 10
1.900804289631973
 20
1.232366035365967
 30
0.0
 11
1.900804289631973
 21
1.164354557627157
 31
0.0
  0
LINE
  5
7DE1B343D9D3069
330
7DE1B343D9D30BF
100
AcDbEntity
  8
TEXT
100
AcDbLine
 10
1.967613002198338
 20
1.232366035365967
 30
0.0
 11
1.900804289631973
 21
1.232366035365967
 31
0.0
  0
LWPOLYLINE
  5
7DE1B343D9D306A
330
7DE1B343D9D30BF
100
AcDbEntity
  8
TEXT
100
AcDbPolyline
 90
        3
 70
     0
 43
0.0
 10
2.288024761796341
 20
1.16435455762716
 10
2.169724602980296
 20
1.16435455762716
 10
2.169724602980296
 20
1.137187060866264
 42
-1.960274751411753
  0
LINE
  5
7DE1B343D9D306F
330
7DE1B343D9D30BF
100
AcDbEntity
  8
TEXT
100
AcDbLine
 10
2.133942912267135
 20
1.164354557627157
 30
0.0
 11
1.999924856335999
 21
1.164354557627157
 31
0.0
  0
LWPOLYLINE
  5
7DE1B343D9D3070
330
7DE1B343D9D30BF
100
AcDbEntity
  8
TEXT
100
AcDbPolyline
 90
        2
 70
     0
 43
0.0
 10
2.133942912267135
 20
1.16435455762716
 42
-0.3328679258950098
 10
2.169724602980296
 20
1.137187060866264
 42
6.772930709997214
  0
LINE
  5
7DE1B343D9D3074
330
7DE1B343D9D30BF
100
AcDbEntity
  8
TEXT
100
AcDbLine
 10
2.323806452509507
 20
1.164354557627157
 30
0.0
 11
2.323806452509507
 21
1.136032011857513
 31
0.0
  0
LWPOLYLINE
  5
7DE1B343D9D3075
330
7DE1B343D9D30BF
100
AcDbEntity
  8
TEXT
100
AcDbPolyline
 90
        2
 70
     0
 43
0.0
 10
2.288024761796341
 20
1.16435455762716
 42
-0.3277054968067132
 10
2.323806452509506
 20
1.136032011857516
 42
6.667889725900311
  0
LINE
  5
7DE1B343D9D3079
330
7DE1B343D9D30BF
100
AcDbEntity
  8
TEXT
100
AcDbLine
 10
2.537598300601608
 20
1.059142579073729
 30
0.0
 11
2.493847529419706
 21
1.141392855069874
 31
0.0
  0
LINE
  5
7DE1B343D9D307A
330
7DE1B343D9D30BF
100
AcDbEntity
  8
TEXT
100
AcDbLine
 10
2.537598300601608
 20
1.164354557627157
 30
0.0
 11
2.537598300601608
 21
1.059142579073729
 31
0.0
  0
LINE
  5
7DE1B343D9D307B
330
7DE1B343D9D30BF
100
AcDbEntity
  8
TEXT
100
AcDbLine
 10
2.765282039539977
 20
1.088489231215618
 30
0.0
 11
2.765282039539977
 21
1.229818763394757
 31
0.0
  0
LINE
  5
7DE1B343D9D307C
330
7DE1B343D9D30BF
100
AcDbEntity
  8
TEXT
100
AcDbLine
 10
2.812380198095961
 20
1.164354557627157
 30
0.0
 11
2.765282039539977
 21
1.088489231215618
 31
0.0
  0
LINE
  5
7DE1B343D9D307D
330
7DE1B343D9D30BF
100
AcDbEntity
  8
TEXT
100
AcDbLine
 10
2.822814914859884
 20
1.054461314686183
 30
0.0
 11
2.887372030825589
 21
1.164354557627157
 31
0.0
  0
LINE
  5
7DE1B343D9D307E
330
7DE1B343D9D30BF
100
AcDbEntity
  8
TEXT
100
AcDbLine
 10
2.701447048317203
 20
0.897881524638646
 30
0.0
 11
2.765825232635824
 21
0.897881524638646
 31
0.0
  0
LWPOLYLINE
  5
7DE1B343D9D307F
330
7DE1B343D9D30BF
100
AcDbEntity
  8
TEXT
100
AcDbPolyline
 90
        2
 70
     0
 43
0.0
 10
2.541537977906645
 20
0.9413724695890842
 42
-0.2901071551932486
 10
2.498462045039001
 20
0.897881524638646
 42
-5.328517124445184
  0
ARC
  5
7DE1B343D9D3083
330
7DE1B343D9D30BF
100
AcDbEntity
  8
TEXT
100
AcDbCircle
 10
2.429607463382086
 20
1.071718487970394
 30
0.0
 40
0.028359375
100
AcDbArc
 50
25.78218179591245
 51
90.0
  0
LINE
  5
7DE1B343D9D3084
330
7DE1B343D9D30BF
100
AcDbEntity
  8
TEXT
100
AcDbLine
 10
2.465408538686209
 20
1.062802889508259
 30
0.0
 11
2.455143778272645
 21
1.084053429080953
 31
0.0
  0
LINE
  5
7DE1B343D9D3085
330
7DE1B343D9D30BF
100
AcDbEntity
  8
TEXT
100
AcDbLine
 10
2.383120548902826
 20
1.062802889508259
 30
0.0
 11
2.465408538686209
 21
1.062802889508259
 31
0.0
  0
LWPOLYLINE
  5
7DE1B343D9D3086
330
7DE1B343D9D30BF
100
AcDbEntity
  8
TEXT
100
AcDbPolyline
 90
        4
 70
     1
 43
0.0
 10
2.478339579969108
 20
1.000845502622671
 10
2.38967926130925
 20
1.000845502622671
 42
0.9999999999999998
 10
2.38967926130925
 20
0.9584469621188105
 10
2.478339579969108
 20
0.9584469621188105
 42
1.0
  0
LWPOLYLINE
  5
7DE1B343D9D308C
330
7DE1B343D9D30BF
100
AcDbEntity
  8
TEXT
100
AcDbPolyline
 90
        2
 70
     0
 43
0.0
 10
2.364444627407624
 20
0.897881524638646
 10
2.498462045039001
 20
0.897881524638646
 42
0.9999999999999998
  0
LINE
  5
7DE1B343D9D3090
330
7DE1B343D9D30BF
100
AcDbEntity
  8
TEXT
100
AcDbLine
 10
2.62479906702464
 20
1.100077862970391
 30
0.0
 11
2.701447048317198
 21
1.100077862970391
 31
0.0
  0
LINE
  5
7DE1B343D9D3091
330
7DE1B343D9D30BF
100
AcDbEntity
  8
TEXT
100
AcDbLine
 10
2.701447048317198
 20
1.100077862970391
 30
0.0
 11
2.701447048317203
 21
0.897881524638646
 31
0.0
  0
ARC
  5
7DE1B343D9D3092
330
7DE1B343D9D30BF
100
AcDbEntity
  8
TEXT
100
AcDbCircle
 10
2.624799067024639
 20
1.075171987687728
 30
0.0
 40
0.0249058752826653
100
AcDbArc
 50
89.99971217465335
 51
179.9999999999985
  0
LINE
  5
7DE1B343D9D3093
330
7DE1B343D9D30BF
100
AcDbEntity
  8
TEXT
100
AcDbLine
 10
2.599893191741981
 20
0.897881524638646
 30
0.0
 11
2.599893191741976
 21
1.075172030070114
 31
0.0
  0
LWPOLYLINE
  5
7DE1B343D9D3094
330
7DE1B343D9D30BF
100
AcDbEntity
  8
TEXT
100
AcDbPolyline
 90
        2
 70
     0
 43
0.0
 10
2.541537977906645
 20
0.897881524638646
 10
2.599893191741979
 20
0.897881524638646
  0
LWPOLYLINE
  5
7DE1B343D9D3098
330
7DE1B343D9D30BF
100
AcDbEntity
  8
TEXT
100
AcDbPolyline
 90
        2
 70
     0
 43
0.0
 10
2.541537977906645
 20
0.9413724695890842
 10
2.541537977906645
 20
0.897881524638646
  0
LINE
  5
7DE1B343D9D309C
330
7DE1B343D9D30BF
100
AcDbEntity
  8
TEXT
100
AcDbLine
 10
2.918307138223494
 20
0.897881524638646
 30
0.0
 11
2.822814914859884
 21
1.054461314686183
 31
0.0
  0
LINE
  5
7DE1B343D9D309D
330
7DE1B343D9D30BF
100
AcDbEntity
  8
TEXT
100
AcDbLine
 10
2.841728765847289
 20
0.897881524638646
 30
0.0
 11
2.918307138223494
 21
0.897881524638646
 31
0.0
  0
LINE
  5
7DE1B343D9D309E
330
7DE1B343D9D30BF
100
AcDbEntity
  8
TEXT
100
AcDbLine
 10
2.765825232635824
 20
1.029461093114826
 30
0.0
 11
2.841728765847289
 21
0.897881524638646
 31
0.0
  0
LINE
  5
7DE1B343D9D309F
330
7DE1B343D9D30BF
100
AcDbEntity
  8
TEXT
100
AcDbLine
 10
2.765825232635824
 20
0.897881524638646
 30
0.0
 11
2.765825232635824
 21
1.029461093114826
 31
0.0
  0
LINE
  5
7DE1B343D9D30A0
330
7DE1B343D9D30BF
100
AcDbEntity
  8
TEXT
100
AcDbLine
 10
2.765282039539977
 20
1.229818763394757
 30
0.0
 11
2.696967160990703
 21
1.229818763394757
 31
0.0
  0
ARC
  5
7DE1B343D9D30A1
330
7DE1B343D9D30BF
100
AcDbEntity
  8
TEXT
100
AcDbCircle
 10
2.456611421949497
 20
1.122770990506254
 30
0.0
 40
0.0416329381542859
100
AcDbArc
 50
26.56974201007528
 51
87.20939649401342
  0
LINE
  5
7DE1B343D9D30A2
330
7DE1B343D9D30BF
100
AcDbEntity
  8
TEXT
100
AcDbLine
 10
2.601495206901109
 20
1.164354557627157
 30
0.0
 11
2.537598300601608
 21
1.164354557627157
 31
0.0
  0
LINE
  5
7DE1B343D9D30A3
330
7DE1B343D9D30BF
100
AcDbEntity
  8
TEXT
100
AcDbLine
 10
2.601495206901109
 20
1.136806907766282
 30
0.0
 11
2.601495206901109
 21
1.164354557627157
 31
0.0
  0
ARC
  5
7DE1B343D9D30A4
330
7DE1B343D9D30BF
100
AcDbEntity
  8
TEXT
100
AcDbCircle
 10
2.632688023964216
 20
1.133108830344892
 30
0.0
 40
0.0314112657011332
100
AcDbArc
 50
95.88484768694724
 51
173.2388340632136
  0
LINE
  5
7DE1B343D9D30A5
330
7DE1B343D9D30BF
100
AcDbEntity
  8
TEXT
100
AcDbLine
 10
2.696967160990698
 20
1.164354557627157
 30
0.0
 11
2.629467443341181
 21
1.164354557627157
 31
0.0
  0
LINE
  5
7DE1B343D9D30A6
330
7DE1B343D9D30BF
100
AcDbEntity
  8
TEXT
100
AcDbLine
 10
2.696967160990703
 20
1.229818763394757
 30
0.0
 11
2.696967160990698
 21
1.164354557627157
 31
0.0
  0
LINE
  5
7DE1B343D9D30A7
330
7DE1B343D9D30BF
100
AcDbEntity
  8
TEXT
100
AcDbLine
 10
2.887372030825589
 20
1.164354557627157
 30
0.0
 11
2.812380198095963
 21
1.164354557627157
 31
0.0
  0
ENDSEC
  0
SECTION
  2
OBJECTS
  0
DICTIONARY
  5
7DE1B343D9D30B3
330
0
100
AcDbDictionary
  3
ACAD_GROUP
350
7DE1B343D9D30B4
  3
ACAD_LAYOUT
350
7DE1B343D9D30D9
  3
ACAD_MLINESTYLE
350
7DE1B343D9D30B5
  3
ACAD_PLOTSETTINGS
350
7DE1B343D9D30DA
  3
ACAD_PLOTSTYLENAME
350
7DE1B343D9D30D7
  3
ACDBHEADERROUNDTRIPXREC
350
7DE1B343D9D30E4
  3
ACDBVARIABLEDICTIONARY
350
7DE1B343D9D30E1
  0
DICTIONARY
  5
7DE1B343D9D3106
330
7DE1B343D9D30BF
100
AcDbDictionary
280
     1
  3
ACAD_LAYOUTSELFREF
360
7DE1B343D9D3107
  0
DICTIONARY
  5
7DE1B343D9D3104
330
7DE1B343D9D30BC
100
AcDbDictionary
280
     1
  3
ACAD_LAYOUTSELFREF
360
7DE1B343D9D3105
  0
DICTIONARY
  5
7DE1B343D9D30B4
102
{ACAD_REACTORS
330
7DE1B343D9D30B3
102
}
330
7DE1B343D9D30B3
100
AcDbDictionary
  0
DICTIONARY
  5
7DE1B343D9D30D9
102
{ACAD_REACTORS
330
7DE1B343D9D30B3
102
}
330
7DE1B343D9D30B3
100
AcDbDictionary
  0
DICTIONARY
  5
7DE1B343D9D30B5
102
{ACAD_REACTORS
330
7DE1B343D9D30B3
102
}
330
7DE1B343D9D30B3
100
AcDbDictionary
  3
STANDARD
350
7DE1B343D9D30C2
  0
DICTIONARY
  5
7DE1B343D9D30DA
102
{ACAD_REACTORS
330
7DE1B343D9D30B3
102
}
330
7DE1B343D9D30B3
100
AcDbDictionary
  0
ACDBDICTIONARYWDFLT
  5
7DE1B343D9D30D7
102
{ACAD_REACTORS
330
7DE1B343D9D30B3
102
}
330
7DE1B343D9D30B3
100
AcDbDictionary
281
     1
  3
Normal
350
7DE1B343D9D30D8
100
AcDbDictionaryWithDefault
340
7DE1B343D9D30D8
  0
DICTIONARY
  5
7DE1B343D9D30E4
102
{ACAD_REACTORS
330
7DE1B343D9D30B3
102
}
330
7DE1B343D9D30B3
100
AcDbDictionary
  3
CEPSNTYPE
350
7DE1B343D9D30EE
  3
FINGERPRINTGUID
350
7DE1B343D9D30EF
  3
HYPERLINKBASE
350
7DE1B343D9D30E7
  3
INSUNITS
350
7DE1B343D9D30ED
  3
LAYOUTDICT
350
7DE1B343D9D30E9
  3
LWETCUNION
350
7DE1B343D9D30EC
  3
PLOTSETDICT
350
7DE1B343D9D30EA
  3
PLOTSTYLNAMDICT
350
7DE1B343D9D30EB
  3
PSVPSCALE
350
7DE1B343D9D30F1
  3
PUCSBASE
350
7DE1B343D9D30F4
  3
PUCSORGBACK
350
7DE1B343D9D30FA
  3
PUCSORGBOTTOM
350
7DE1B343D9D30F6
  3
PUCSORGFRONT
350
7DE1B343D9D30F9
  3
PUCSORGLEFT
350
7DE1B343D9D30F7
  3
PUCSORGRIGHT
350
7DE1B343D9D30F8
  3
PUCSORGTOP
350
7DE1B343D9D30F5
  3
PUCSORTHOREF
350
7DE1B343D9D30F2
  3
PUCSORTHOVIEW
350
7DE1B343D9D30F3
  3
STYLESHEET
350
7DE1B343D9D30E8
  3
TSTACKALIGN
350
7DE1B343D9D30E5
  3
TSTACKSIZE
350
7DE1B343D9D30E6
  3
UCSBASE
350
7DE1B343D9D30FD
  3
UCSORGBACK
350
7DE1B343D9D3103
  3
UCSORGBOTTOM
350
7DE1B343D9D30FF
  3
UCSORGFRONT
350
7DE1B343D9D3102
  3
UCSORGLEFT
350
7DE1B343D9D3100
  3
UCSORGRIGHT
350
7DE1B343D9D3101
  3
UCSORGTOP
350
7DE1B343D9D30FE
  3
UCSORTHOREF
350
7DE1B343D9D30FB
  3
UCSORTHOVIEW
350
7DE1B343D9D30FC
  3
VERSIONGUID
350
7DE1B343D9D30F0
  0
DICTIONARY
  5
7DE1B343D9D30E1
102
{ACAD_REACTORS
330
7DE1B343D9D30B3
102
}
330
7DE1B343D9D30B3
100
AcDbDictionary
  3
DIMASSOC
350
7DE1B343D9D30E2
  0
XRECORD
  5
7DE1B343D9D3107
102
{ACAD_REACTORS
330
7DE1B343D9D3106
102
}
330
7DE1B343D9D3106
100
AcDbXrecord
340
7DE1B343D9D30BF
  0
XRECORD
  5
7DE1B343D9D3105
102
{ACAD_REACTORS
330
7DE1B343D9D3104
102
}
330
7DE1B343D9D3104
100
AcDbXrecord
340
7DE1B343D9D30BC
  0
MLINESTYLE
  5
7DE1B343D9D30C2
102
{ACAD_REACTORS
330
7DE1B343D9D30B5
102
}
330
7DE1B343D9D30B5
100
AcDbMlineStyle
  2
STANDARD
 70
     0
  3

 62
     0
 51
90.0
 52
90.0
 71
     2
 49
0.5
 62
   256
  6
BYLAYER
 49
-0.5
 62
   256
  6
BYLAYER
  0
ACDBPLACEHOLDER
  5
7DE1B343D9D30D8
102
{ACAD_REACTORS
330
7DE1B343D9D30D7
102
}
330
7DE1B343D9D30D7
100
AcDbPlaceHolder
280
     0
  0
XRECORD
  5
7DE1B343D9D30EE
102
{ACAD_REACTORS
330
7DE1B343D9D30E4
102
}
330
7DE1B343D9D30E4
100
AcDbXrecord
 90
        0
  0
XRECORD
  5
7DE1B343D9D30EF
102
{ACAD_REACTORS
330
7DE1B343D9D30E4
102
}
330
7DE1B343D9D30E4
100
AcDbXrecord
  1
{9EBE50F0-8DB4-11D6-88E6-0090279574E7}
  0
XRECORD
  5
7DE1B343D9D30E7
102
{ACAD_REACTORS
330
7DE1B343D9D30E4
102
}
330
7DE1B343D9D30E4
100
AcDbXrecord
  1

  0
XRECORD
  5
7DE1B343D9D30ED
102
{ACAD_REACTORS
330
7DE1B343D9D30E4
102
}
330
7DE1B343D9D30E4
100
AcDbXrecord
 90
        0
  0
XRECORD
  5
7DE1B343D9D30E9
102
{ACAD_REACTORS
330
7DE1B343D9D30E4
102
}
330
7DE1B343D9D30E4
100
AcDbXrecord
340
7DE1B343D9D30D9
  0
XRECORD
  5
7DE1B343D9D30EC
102
{ACAD_REACTORS
330
7DE1B343D9D30E4
102
}
330
7DE1B343D9D30E4
100
AcDbXrecord
 90
    14877
  0
XRECORD
  5
7DE1B343D9D30EA
102
{ACAD_REACTORS
330
7DE1B343D9D30E4
102
}
330
7DE1B343D9D30E4
100
AcDbXrecord
340
7DE1B343D9D30DA
  0
XRECORD
  5
7DE1B343D9D30EB
102
{ACAD_REACTORS
330
7DE1B343D9D30E4
102
}
330
7DE1B343D9D30E4
100
AcDbXrecord
340
7DE1B343D9D30D7
  0
XRECORD
  5
7DE1B343D9D30F1
102
{ACAD_REACTORS
330
7DE1B343D9D30E4
102
}
330
7DE1B343D9D30E4
100
AcDbXrecord
 40
0.0
  0
XRECORD
  5
7DE1B343D9D30F4
102
{ACAD_REACTORS
330
7DE1B343D9D30E4
102
}
330
7DE1B343D9D30E4
100
AcDbXrecord
340
0
  0
XRECORD
  5
7DE1B343D9D30FA
102
{ACAD_REACTORS
330
7DE1B343D9D30E4
102
}
330
7DE1B343D9D30E4
100
AcDbXrecord
 10
0.0
 20
0.0
 30
0.0
  0
XRECORD
  5
7DE1B343D9D30F6
102
{ACAD_REACTORS
330
7DE1B343D9D30E4
102
}
330
7DE1B343D9D30E4
100
AcDbXrecord
 10
0.0
 20
0.0
 30
0.0
  0
XRECORD
  5
7DE1B343D9D30F9
102
{ACAD_REACTORS
330
7DE1B343D9D30E4
102
}
330
7DE1B343D9D30E4
100
AcDbXrecord
 10
0.0
 20
0.0
 30
0.0
  0
XRECORD
  5
7DE1B343D9D30F7
102
{ACAD_REACTORS
330
7DE1B343D9D30E4
102
}
330
7DE1B343D9D30E4
100
AcDbXrecord
 10
0.0
 20
0.0
 30
0.0
  0
XRECORD
  5
7DE1B343D9D30F8
102
{ACAD_REACTORS
330
7DE1B343D9D30E4
102
}
330
7DE1B343D9D30E4
100
AcDbXrecord
 10
0.0
 20
0.0
 30
0.0
  0
XRECORD
  5
7DE1B343D9D30F5
102
{ACAD_REACTORS
330
7DE1B343D9D30E4
102
}
330
7DE1B343D9D30E4
100
AcDbXrecord
 10
0.0
 20
0.0
 30
0.0
  0
XRECORD
  5
7DE1B343D9D30F2
102
{ACAD_REACTORS
330
7DE1B343D9D30E4
102
}
330
7DE1B343D9D30E4
100
AcDbXrecord
340
0
  0
XRECORD
  5
7DE1B343D9D30F3
102
{ACAD_REACTORS
330
7DE1B343D9D30E4
102
}
330
7DE1B343D9D30E4
100
AcDbXrecord
 70
     0
  0
XRECORD
  5
7DE1B343D9D30E8
102
{ACAD_REACTORS
330
7DE1B343D9D30E4
102
}
330
7DE1B343D9D30E4
100
AcDbXrecord
  1

  0
XRECORD
  5
7DE1B343D9D30E5
102
{ACAD_REACTORS
330
7DE1B343D9D30E4
102
}
330
7DE1B343D9D30E4
100
AcDbXrecord
 90
        1
  0
XRECORD
  5
7DE1B343D9D30E6
102
{ACAD_REACTORS
330
7DE1B343D9D30E4
102
}
330
7DE1B343D9D30E4
100
AcDbXrecord
 90
       70
  0
XRECORD
  5
7DE1B343D9D30FD
102
{ACAD_REACTORS
330
7DE1B343D9D30E4
102
}
330
7DE1B343D9D30E4
100
AcDbXrecord
340
0
  0
XRECORD
  5
7DE1B343D9D3103
102
{ACAD_REACTORS
330
7DE1B343D9D30E4
102
}
330
7DE1B343D9D30E4
100
AcDbXrecord
 10
0.0
 20
0.0
 30
0.0
  0
XRECORD
  5
7DE1B343D9D30FF
102
{ACAD_REACTORS
330
7DE1B343D9D30E4
102
}
330
7DE1B343D9D30E4
100
AcDbXrecord
 10
0.0
 20
0.0
 30
0.0
  0
XRECORD
  5
7DE1B343D9D3102
102
{ACAD_REACTORS
330
7DE1B343D9D30E4
102
}
330
7DE1B343D9D30E4
100
AcDbXrecord
 10
0.0
 20
0.0
 30
0.0
  0
XRECORD
  5
7DE1B343D9D3100
102
{ACAD_REACTORS
330
7DE1B343D9D30E4
102
}
330
7DE1B343D9D30E4
100
AcDbXrecord
 10
0.0
 20
0.0
 30
0.0
  0
XRECORD
  5
7DE1B343D9D3101
102
{ACAD_REACTORS
330
7DE1B343D9D30E4
102
}
330
7DE1B343D9D30E4
100
AcDbXrecord
 10
0.0
 20
0.0
 30
0.0
  0
XRECORD
  5
7DE1B343D9D30FE
102
{ACAD_REACTORS
330
7DE1B343D9D30E4
102
}
330
7DE1B343D9D30E4
100
AcDbXrecord
 10
0.0
 20
0.0
 30
0.0
  0
XRECORD
  5
7DE1B343D9D30FB
102
{ACAD_REACTORS
330
7DE1B343D9D30E4
102
}
330
7DE1B343D9D30E4
100
AcDbXrecord
340
0
  0
XRECORD
  5
7DE1B343D9D30FC
102
{ACAD_REACTORS
330
7DE1B343D9D30E4
102
}
330
7DE1B343D9D30E4
100
AcDbXrecord
 70
     0
  0
XRECORD
  5
7DE1B343D9D30F0
102
{ACAD_REACTORS
330
7DE1B343D9D30E4
102
}
330
7DE1B343D9D30E4
100
AcDbXrecord
  1
{9EBE50F2-8DB4-11D6-88E6-0090279574E7}
  0
DICTIONARYVAR
  5
7DE1B343D9D30E2
102
{ACAD_REACTORS
330
7DE1B343D9D30E1
102
}
330
7DE1B343D9D30E1
100
DictionaryVariables
280
     0
  1
1
  0
ENDSEC
  0
EOF
