  0
SECTION
  2
HEADER
  9
$ACADVER
  1
AC1014
  9
$ACADMAINTVER
 70
     9
  9
$DWGCODEPAGE
  3
ANSI_1252
  9
$INSBASE
 10
2.766462681932016
 20
2.244099146870463
 30
0.0
  9
$EXTMIN
 10
1.023481102704873
 20
0.7623812074566887
 30
0.0
  9
$EXTMAX
 10
4.508700424452003
 20
2.244099146870463
 30
0.0
  9
$LIMMIN
 10
0.0
 20
0.0
  9
$LIMMAX
 10
18.0
 20
12.0
  9
$ORTHOMODE
 70
     1
  9
$REGENMODE
 70
     1
  9
$FILLMODE
 70
     1
  9
$QTEXTMODE
 70
     0
  9
$MIRRTEXT
 70
     0
  9
$DRAGMODE
 70
     2
  9
$LTSCALE
 40
1.0
  9
$OSMODE
 70
    39
  9
$ATTMODE
 70
     1
  9
$TEXTSIZE
 40
0.125
  9
$TRACEWID
 40
0.05
  9
$TEXTSTYLE
  7
ROMANS
  9
$CLAYER
  8
0
  9
$CELTYPE
  6
BYLAYER
  9
$CECOLOR
 62
   256
  9
$CELTSCALE
 40
1.0
  9
$DELOBJ
 70
     1
  9
$DISPSILH
 70
     1
  9
$DIMSCALE
 40
1.0
  9
$DIMASZ
 40
0.125
  9
$DIMEXO
 40
0.125
  9
$DIMDLI
 40
0.375
  9
$DIMRND
 40
0.0
  9
$DIMDLE
 40
0.0
  9
$DIMEXE
 40
0.125
  9
$DIMTP
 40
0.0
  9
$DIMTM
 40
0.0
  9
$DIMTXT
 40
0.125
  9
$DIMCEN
 40
-0.125
  9
$DIMTSZ
 40
0.0
  9
$DIMTOL
 70
     0
  9
$DIMLIM
 70
     0
  9
$DIMTIH
 70
     1
  9
$DIMTOH
 70
     1
  9
$DIMSE1
 70
     0
  9
$DIMSE2
 70
     0
  9
$DIMTAD
 70
     0
  9
$DIMZIN
 70
     4
  9
$DIMBLK
  1

  9
$DIMASO
 70
     1
  9
$DIMSHO
 70
     1
  9
$DIMPOST
  1

  9
$DIMAPOST
  1

  9
$DIMALT
 70
     0
  9
$DIMALTD
 70
     2
  9
$DIMALTF
 40
25.4
  9
$DIMLFAC
 40
1.0
  9
$DIMTOFL
 70
     0
  9
$DIMTVP
 40
0.0
  9
$DIMTIX
 70
     1
  9
$DIMSOXD
 70
     0
  9
$DIMSAH
 70
     0
  9
$DIMBLK1
  1

  9
$DIMBLK2
  1

  9
$DIMSTYLE
  2
STANDARD
  9
$DIMCLRD
 70
     0
  9
$DIMCLRE
 70
     0
  9
$DIMCLRT
 70
     0
  9
$DIMTFAC
 40
1.0
  9
$DIMGAP
 40
0.09
  9
$DIMJUST
 70
     0
  9
$DIMSD1
 70
     0
  9
$DIMSD2
 70
     0
  9
$DIMTOLJ
 70
     1
  9
$DIMTZIN
 70
     4
  9
$DIMALTZ
 70
     0
  9
$DIMALTTZ
 70
     0
  9
$DIMFIT
 70
     3
  9
$DIMUPT
 70
     0
  9
$DIMUNIT
 70
     2
  9
$DIMDEC
 70
     3
  9
$DIMTDEC
 70
     3
  9
$DIMALTU
 70
     2
  9
$DIMALTTD
 70
     2
  9
$DIMTXSTY
  7
ROMANS
  9
$DIMAUNIT
 70
     0
  9
$LUNITS
 70
     2
  9
$LUPREC
 70
     3
  9
$SKETCHINC
 40
0.1
  9
$FILLETRAD
 40
0.03125
  9
$AUNITS
 70
     0
  9
$AUPREC
 70
     0
  9
$MENU
  1
ACAD
  9
$ELEVATION
 40
0.0
  9
$PELEVATION
 40
0.0
  9
$THICKNESS
 40
0.0
  9
$LIMCHECK
 70
     0
  9
$BLIPMODE
 70
     0
  9
$CHAMFERA
 40
0.0
  9
$CHAMFERB
 40
0.0
  9
$CHAMFERC
 40
0.0
  9
$CHAMFERD
 40
0.0
  9
$SKPOLY
 70
     0
  9
$TDCREATE
 40
2448994.357714930
  9
$TDUPDATE
 40
2452458.298499444
  9
$TDINDWG
 40
0.0005889468
  9
$TDUSRTIMER
 40
0.0005889468
  9
$USRTIMER
 70
     1
  9
$ANGBASE
 50
0.0
  9
$ANGDIR
 70
     0
  9
$PDMODE
 70
     0
  9
$PDSIZE
 40
0.0
  9
$PLINEWID
 40
0.0
  9
$COORDS
 70
     2
  9
$SPLFRAME
 70
     0
  9
$SPLINETYPE
 70
     6
  9
$SPLINESEGS
 70
     8
  9
$ATTDIA
 70
     0
  9
$ATTREQ
 70
     1
  9
$HANDLING
 70
 22529
  9
$HANDSEED
  5
7DE1B343D9D2D0A
  9
$SURFTAB1
 70
     6
  9
$SURFTAB2
 70
     6
  9
$SURFTYPE
 70
     6
  9
$SURFU
 70
     6
  9
$SURFV
 70
     6
  9
$UCSNAME
  2

  9
$UCSORG
 10
0.0
 20
0.0
 30
0.0
  9
$UCSXDIR
 10
1.0
 20
0.0
 30
0.0
  9
$UCSYDIR
 10
0.0
 20
1.0
 30
0.0
  9
$PUCSNAME
  2

  9
$PUCSORG
 10
0.0
 20
0.0
 30
0.0
  9
$PUCSXDIR
 10
1.0
 20
0.0
 30
0.0
  9
$PUCSYDIR
 10
0.0
 20
1.0
 30
0.0
  9
$USERI1
 70
     0
  9
$USERI2
 70
     0
  9
$USERI3
 70
     0
  9
$USERI4
 70
     0
  9
$USERI5
 70
     0
  9
$USERR1
 40
0.0
  9
$USERR2
 40
0.0
  9
$USERR3
 40
0.0
  9
$USERR4
 40
0.0
  9
$USERR5
 40
0.0
  9
$WORLDVIEW
 70
     1
  9
$SHADEDGE
 70
     3
  9
$SHADEDIF
 70
    70
  9
$TILEMODE
 70
     1
  9
$MAXACTVP
 70
    16
  9
$PINSBASE
 10
0.856129491863761
 20
50.00000000000001
 30
1.722560972101489
  9
$PLIMCHECK
 70
     0
  9
$PEXTMIN
 10
1.000000000000000E+20
 20
1.000000000000000E+20
 30
1.000000000000000E+20
  9
$PEXTMAX
 10
-1.000000000000000E+20
 20
-1.000000000000000E+20
 30
-1.000000000000000E+20
  9
$PLIMMIN
 10
0.0
 20
0.0
  9
$PLIMMAX
 10
12.0
 20
9.0
  9
$UNITMODE
 70
     0
  9
$VISRETAIN
 70
     0
  9
$PLINEGEN
 70
     1
  9
$PSLTSCALE
 70
     0
  9
$TREEDEPTH
 70
  3020
  9
$PICKSTYLE
 70
     1
  9
$CMLSTYLE
  2
STANDARD
  9
$CMLJUST
 70
     0
  9
$CMLSCALE
 40
1.0
  9
$PROXYGRAPHICS
 70
     1
  9
$MEASUREMENT
 70
     0
  0
ENDSEC
  0
SECTION
  2
CLASSES
  0
CLASS
  1
LWPOLYLINE
  2
AcDbPolyline
  3
AutoCAD 2000
 90
        0
280
     0
281
     1
  0
CLASS
  1
ACDBDICTIONARYWDFLT
  2
AcDbDictionaryWithDefault
  3
AutoCAD 2000
 90
        0
280
     0
281
     0
  0
CLASS
  1
ACDBPLACEHOLDER
  2
AcDbPlaceHolder
  3
AutoCAD 2000
 90
        0
280
     0
281
     0
  0
CLASS
  1
LAYOUT
  2
AcDbLayout
  3
AutoCAD 2000
 90
        0
280
     0
281
     0
  0
CLASS
  1
DICTIONARYVAR
  2
AcDbDictionaryVar
  3
AutoCAD 2000
 90
        0
280
     0
281
     0
  0
CLASS
  1
LONG_TRANSACTION
  2
AcDbLongTransaction
  3
AutoCAD 2000
 90
        0
280
     0
281
     0
  0
CLASS
  1
LWPOLYLINE
  2
AcDbPolyline
  3
AutoCAD 2000
 90
        0
280
     0
281
     1
  0
CLASS
  1
HATCH
  2
AcDbHatch
  3
AutoCAD 2000
 90
        0
280
     0
281
     1
  0
CLASS
  1
XRECORD
  2
AcDbXrecord
  3
AutoCAD 2000
 90
        0
280
     0
281
     0
  0
ENDSEC
  0
SECTION
  2
TABLES
  0
TABLE
  2
VPORT
  5
7DE1B343D9D2CB1
330
0
100
AcDbSymbolTable
 70
     2
  0
VPORT
  5
7DE1B343D9D2CE5
330
7DE1B343D9D2CB1
100
AcDbSymbolTableRecord
100
AcDbViewportTableRecord
  2
*ACTIVE
 70
     0
 10
0.0
 20
0.0
 11
1.0
 21
1.0
 12
5.74228175826104
 22
1.503387473876806
 13
0.0
 23
0.0
 14
0.015625
 24
0.015625
 15
0.0
 25
0.0
 16
0.0
 26
0.0
 36
1.0
 17
0.0
 27
0.0
 37
0.0
 40
2.282647215150728
 41
4.320930232558139
 42
50.0
 43
0.0
 44
0.0
 50
0.0
 51
0.0
 71
     0
 72
  2000
 73
     1
 74
     0
 75
     0
 76
     0
 77
     0
 78
     0
  0
ENDTAB
  0
TABLE
  2
LTYPE
  5
7DE1B343D9D2CAE
330
0
100
AcDbSymbolTable
 70
     1
  0
LTYPE
  5
7DE1B343D9D2CBB
330
7DE1B343D9D2CAE
100
AcDbSymbolTableRecord
100
AcDbLinetypeTableRecord
  2
BYBLOCK
 70
     0
  3

 72
    65
 73
     0
 40
0.0
  0
LTYPE
  5
7DE1B343D9D2CBC
330
7DE1B343D9D2CAE
100
AcDbSymbolTableRecord
100
AcDbLinetypeTableRecord
  2
BYLAYER
 70
     0
  3

 72
    65
 73
     0
 40
0.0
  0
LTYPE
  5
7DE1B343D9D2CBD
330
7DE1B343D9D2CAE
100
AcDbSymbolTableRecord
100
AcDbLinetypeTableRecord
  2
CONTINUOUS
 70
     0
  3
Solid line
 72
    65
 73
     0
 40
0.0
  0
ENDTAB
  0
TABLE
  2
LAYER
  5
7DE1B343D9D2CAB
330
0
100
AcDbSymbolTable
 70
     2
  0
LAYER
  5
7DE1B343D9D2CB8
330
7DE1B343D9D2CAB
100
AcDbSymbolTableRecord
100
AcDbLayerTableRecord
  2
0
 70
     0
 62
     7
  6
CONTINUOUS
  0
LAYER
  5
7DE1B343D9D2CC8
330
7DE1B343D9D2CAB
100
AcDbSymbolTableRecord
100
AcDbLayerTableRecord
  2
TEXT
 70
     0
 62
     3
  6
CONTINUOUS
  0
ENDTAB
  0
TABLE
  2
STYLE
  5
7DE1B343D9D2CAC
330
0
100
AcDbSymbolTable
 70
     3
  0
STYLE
  5
7DE1B343D9D2CB9
330
7DE1B343D9D2CAC
100
AcDbSymbolTableRecord
100
AcDbTextStyleTableRecord
  2
STANDARD
 70
     0
 40
0.0
 41
1.0
 50
0.0
 71
     0
 42
0.3125
  3
txt
  4

  0
STYLE
  5
7DE1B343D9D2CC5
330
7DE1B343D9D2CAC
100
AcDbSymbolTableRecord
100
AcDbTextStyleTableRecord
  2
ITALICC
 70
     0
 40
0.0
 41
1.0
 50
0.0
 71
     0
 42
0.125
  3
italicc
  4

  0
STYLE
  5
7DE1B343D9D2CD5
330
7DE1B343D9D2CAC
100
AcDbSymbolTableRecord
100
AcDbTextStyleTableRecord
  2
ROMANS
 70
     0
 40
0.0
 41
1.0
 50
0.0
 71
     0
 42
0.125
  3
romans.shx
  4

  0
ENDTAB
  0
TABLE
  2
VIEW
  5
7DE1B343D9D2CAF
330
0
100
AcDbSymbolTable
 70
     0
  0
ENDTAB
  0
TABLE
  2
UCS
  5
7DE1B343D9D2CB0
330
0
100
AcDbSymbolTable
 70
     0
  0
ENDTAB
  0
TABLE
  2
APPID
  5
7DE1B343D9D2CB2
330
0
100
AcDbSymbolTable
 70
     1
  0
APPID
  5
7DE1B343D9D2CBA
330
7DE1B343D9D2CB2
100
AcDbSymbolTableRecord
100
AcDbRegAppTableRecord
  2
ACAD
 70
     0
  0
ENDTAB
  0
TABLE
  2
DIMSTYLE
  5
7DE1B343D9D2CB3
330
0
100
AcDbSymbolTable
 70
     1
  0
DIMSTYLE
105
7DE1B343D9D2CCD
330
7DE1B343D9D2CB3
100
AcDbSymbolTableRecord
100
AcDbDimStyleTableRecord
  2
STANDARD
 70
     0
  3

  4

  5

  6

  7

 40
1.0
 41
0.125
 42
0.125
 43
0.375
 44
0.125
 45
0.0
 46
0.0
 47
0.0
 48
0.0
140
0.125
141
-0.125
142
0.0
143
25.4
144
1.0
145
0.0
146
1.0
147
0.09
 71
     0
 72
     0
 73
     1
 74
     1
 75
     0
 76
     0
 77
     0
 78
     4
170
     0
171
     2
172
     0
173
     0
174
     1
175
     0
176
     0
177
     0
178
     0
270
     2
271
     3
272
     3
273
     2
274
     2
340
7DE1B343D9D2CD5
275
     0
280
     0
281
     0
282
     0
283
     1
284
     4
285
     0
286
     0
287
     3
288
     0
  0
ENDTAB
  0
TABLE
  2
BLOCK_RECORD
  5
7DE1B343D9D2CAA
330
0
100
AcDbSymbolTable
 70
     0
  0
BLOCK_RECORD
  5
7DE1B343D9D2CC1
102
{ACAD_XDICTIONARY
360
7DE1B343D9D2D08
102
}
330
7DE1B343D9D2CAA
100
AcDbSymbolTableRecord
100
AcDbBlockTableRecord
  2
*MODEL_SPACE
  0
BLOCK_RECORD
  5
7DE1B343D9D2CBE
102
{ACAD_XDICTIONARY
360
7DE1B343D9D2D06
102
}
330
7DE1B343D9D2CAA
100
AcDbSymbolTableRecord
100
AcDbBlockTableRecord
  2
*PAPER_SPACE
  0
ENDTAB
  0
ENDSEC
  0
SECTION
  2
BLOCKS
  0
BLOCK
  5
7DE1B343D9D2CCB
330
7DE1B343D9D2CC1
100
AcDbEntity
  8
0
100
AcDbBlockBegin
  2
*MODEL_SPACE
 70
     0
 10
0.0
 20
0.0
 30
0.0
  3
*MODEL_SPACE
  1

  0
ENDBLK
  5
7DE1B343D9D2CCC
330
7DE1B343D9D2CC1
100
AcDbEntity
  8
0
100
AcDbBlockEnd
  0
BLOCK
  5
7DE1B343D9D2CC9
330
7DE1B343D9D2CBE
100
AcDbEntity
 67
     1
  8
0
100
AcDbBlockBegin
  2
*PAPER_SPACE
 70
     0
 10
0.0
 20
0.0
 30
0.0
  3
*PAPER_SPACE
  1

  0
ENDBLK
  5
7DE1B343D9D2CCA
330
7DE1B343D9D2CBE
100
AcDbEntity
 67
     1
  8
0
100
AcDbBlockEnd
  0
ENDSEC
  0
SECTION
  2
ENTITIES
  0
LWPOLYLINE
  5
7DE1B343D9D1744
330
7DE1B343D9D2CC1
100
AcDbEntity
  8
0
100
AcDbPolyline
 90
       14
 70
     1
 43
0.0
 10
2.234756096582689
 20
1.984099146870463
 10
2.224756096582689
 20
1.994099146870463
 10
2.234756096582689
 20
2.004099146870463
 10
2.234756096582689
 20
2.181599146870463
 10
2.756462681932016
 20
2.181599146870463
 10
2.766462681932016
 20
2.191599146870463
 10
2.776462681932017
 20
2.181599146870463
 10
3.298809375783473
 20
2.181599146870463
 10
3.298809375783473
 20
1.493750493236893
 10
3.360669267281344
 20
1.493750493236893
 10
3.360669267281344
 20
2.244099146870463
 10
2.172256096582689
 20
2.244099146870463
 10
2.172256096582689
 20
1.494099146870463
 10
2.234756096582689
 20
1.494099146870463
  0
TEXT
  5
7DE1B343D9D2B6C
330
7DE1B343D9D2CC1
100
AcDbEntity
  8
TEXT
100
AcDbText
 10
2.013486491455826
 20
1.22039981153927
 30
0.0
 40
0.125
  1
PART #110162
  7
ITALICC
 72
     1
 11
2.766462681932016
 21
1.22039981153927
 31
0.0
100
AcDbText
  0
TEXT
  5
7DE1B343D9D2B6D
330
7DE1B343D9D2CC1
100
AcDbEntity
  8
TEXT
100
AcDbText
 10
3.179767840182337
 20
0.7734771688668949
 30
0.0
 40
0.0522247191011236
  1
Phone  1-800-328-2495
 41
1.27232142857143
 72
     5
 11
4.508700424452001
 21
0.7734771688668949
 31
0.0
100
AcDbText
  0
TEXT
  5
7DE1B343D9D2B6E
330
7DE1B343D9D2CC1
100
AcDbEntity
  8
TEXT
100
AcDbText
 10
3.179767840182337
 20
1.053252449765771
 30
0.0
 40
0.0522247191011236
  1
Stylmark  Incorporated
 41
1.221428571428573
 72
     5
 11
4.508700424452001
 21
1.053252449765771
 31
0.0
100
AcDbText
  0
TEXT
  5
7DE1B343D9D2B6F
330
7DE1B343D9D2CC1
100
AcDbEntity
  8
TEXT
100
AcDbText
 10
3.179767840182337
 20
0.9599940227994792
 30
0.0
 40
0.0522247191011236
  1
6536 Main St. N.E. * P.O. Box 32008
 41
0.8388932496075367
 72
     5
 11
4.508700424452001
 21
0.9599940227994792
 31
0.0
100
AcDbText
  0
TEXT
  5
7DE1B343D9D2B70
330
7DE1B343D9D2CC1
100
AcDbEntity
  8
TEXT
100
AcDbText
 10
3.179767840182337
 20
0.8667355958331871
 30
0.0
 40
0.0522247191011236
  1
Minneapolis, MN 55432-0008
 41
1.11444212721585
 72
     5
 11
4.508700424452001
 21
0.8667355958331871
 31
0.0
100
AcDbText
  0
LWPOLYLINE
  5
7DE1B343D9D2B71
330
7DE1B343D9D2CC1
100
AcDbEntity
  8
TEXT
100
AcDbPolyline
 90
        3
 70
     0
 43
0.0006660908203125
 10
1.023814148115029
 20
0.8871219315043298
 10
1.023814148115029
 20
0.7738864920512021
 10
1.137049587568152
 20
0.7738864920512021
  0
LWPOLYLINE
  5
7DE1B343D9D2B76
330
7DE1B343D9D2CC1
100
AcDbEntity
  8
TEXT
100
AcDbPolyline
 90
        3
 70
     0
 43
0.0006660908203125
 10
1.050457780927527
 20
0.8871219315043298
 10
1.050457780927527
 20
0.8005301248637032
 10
1.137049587568152
 20
0.8005301248637032
  0
LWPOLYLINE
  5
7DE1B343D9D2B7B
330
7DE1B343D9D2CC1
100
AcDbEntity
  8
TEXT
100
AcDbPolyline
 90
        2
 70
     0
 43
0.0001332181640625
 10
1.097084138349404
 20
0.897113293809015
 10
1.023814148115029
 20
0.8871219315043298
  0
LWPOLYLINE
  5
7DE1B343D9D2B7F
330
7DE1B343D9D2CC1
100
AcDbEntity
  8
TEXT
100
AcDbPolyline
 90
        2
 70
     0
 43
0.0001332181640625
 10
1.050457780927527
 20
0.8871219315043298
 10
1.110405954755654
 20
0.897113293809015
  0
LWPOLYLINE
  5
7DE1B343D9D2B83
330
7DE1B343D9D2CC1
100
AcDbEntity
  8
TEXT
100
AcDbPolyline
 90
        2
 70
     0
 43
0.0001332181640625
 10
1.050457780927527
 20
0.8005301248637032
 10
1.110405954755654
 20
0.8604782986918287
  0
LWPOLYLINE
  5
7DE1B343D9D2B87
330
7DE1B343D9D2CC1
100
AcDbEntity
  8
TEXT
100
AcDbPolyline
 90
        3
 70
     0
 43
0.0006660908203125
 10
1.137049587568152
 20
1.040322820176205
 10
1.023814148115029
 20
1.040322820176205
 10
1.023814148115029
 20
0.9270873807230778
  0
LWPOLYLINE
  5
7DE1B343D9D2B8C
330
7DE1B343D9D2CC1
100
AcDbEntity
  8
TEXT
100
AcDbPolyline
 90
        3
 70
     0
 43
0.0006660908203125
 10
1.137049587568152
 20
1.013679187363704
 10
1.050457780927527
 20
1.013679187363704
 10
1.050457780927527
 20
0.9270873807230778
  0
LWPOLYLINE
  5
7DE1B343D9D2B91
330
7DE1B343D9D2CC1
100
AcDbEntity
  8
TEXT
100
AcDbPolyline
 90
        2
 70
     0
 43
0.0001332181640625
 10
1.050457780927527
 20
1.013679187363704
 10
1.110405954755652
 20
0.9537310135355788
  0
LWPOLYLINE
  5
7DE1B343D9D2B95
330
7DE1B343D9D2CC1
100
AcDbEntity
  8
TEXT
100
AcDbPolyline
 90
        2
 70
     0
 43
0.0001332181640625
 10
1.050457780927527
 20
0.9270873807230778
 10
1.110405954755652
 20
0.917096018418389
  0
LWPOLYLINE
  5
7DE1B343D9D2B99
330
7DE1B343D9D2CC1
100
AcDbEntity
  8
TEXT
100
AcDbPolyline
 90
        2
 70
     0
 43
0.0001332181640625
 10
1.023814148115029
 20
0.9270873807230778
 10
1.097084138349404
 20
0.917096018418389
  0
LWPOLYLINE
  5
7DE1B343D9D2B9D
330
7DE1B343D9D2CC1
100
AcDbEntity
  8
TEXT
100
AcDbPolyline
 90
        2
 70
     0
 43
0.0006660908203125
 10
1.050457780927527
 20
0.8871219315043298
 10
1.023814148115029
 20
0.8871219315043298
  0
LWPOLYLINE
  5
7DE1B343D9D2BA1
330
7DE1B343D9D2CC1
100
AcDbEntity
  8
TEXT
100
AcDbPolyline
 90
        2
 70
     0
 43
0.0006660908203125
 10
1.050457780927527
 20
0.9270873807230778
 10
1.023814148115029
 20
0.9270873807230778
  0
LINE
  5
7DE1B343D9D2BA5
330
7DE1B343D9D2CC1
100
AcDbEntity
  8
TEXT
100
AcDbLine
 10
2.539004577241527
 20
0.9760461255194364
 30
0.0
 11
2.431798303854237
 21
0.9760461255194364
 31
0.0
  0
LINE
  5
7DE1B343D9D2BA6
330
7DE1B343D9D2CC1
100
AcDbEntity
  8
TEXT
100
AcDbLine
 10
2.568035475586005
 20
1.040322820176201
 30
0.0
 11
2.433203566368946
 21
1.040322820176201
 31
0.0
  0
ARC
  5
7DE1B343D9D2BA7
330
7DE1B343D9D2CC1
100
AcDbEntity
  8
TEXT
100
AcDbCircle
 10
2.492517662762263
 20
0.8710855709131855
 30
0.0
 40
0.0676855811441166
100
AcDbArc
 50
90.0
 51
153.7768192527749
  0
LWPOLYLINE
  5
7DE1B343D9D2BA8
330
7DE1B343D9D2CC1
100
AcDbEntity
  8
TEXT
100
AcDbPolyline
 90
        2
 70
     0
 43
0.0
 10
2.430765808399427
 20
0.817340732138129
 42
0.2901071551932823
 10
2.473841741267063
 20
0.7738497871876909
 42
5.328517124445801
  0
ARC
  5
7DE1B343D9D2BAC
330
7DE1B343D9D2CC1
100
AcDbEntity
  8
TEXT
100
AcDbCircle
 10
1.787386285090777
 20
0.8336421785257407
 30
0.0
 40
0.0601160179737537
100
AcDbArc
 50
180.0000000000003
 51
264.0521544866073
  0
LINE
  5
7DE1B343D9D2BAD
330
7DE1B343D9D2CC1
100
AcDbEntity
  8
TEXT
100
AcDbLine
 10
1.790901640716325
 20
1.074710737770339
 30
0.0
 11
1.730859035872318
 21
1.074710737770339
 31
0.0
  0
ARC
  5
7DE1B343D9D2BAE
330
7DE1B343D9D2CC1
100
AcDbEntity
  8
TEXT
100
AcDbCircle
 10
1.555127282973807
 20
0.9582353607297001
 30
0.0
 40
0.0820874594465043
100
AcDbArc
 50
90.0
 51
270.0
  0
LWPOLYLINE
  5
7DE1B343D9D2BAF
330
7DE1B343D9D2CC1
100
AcDbEntity
  8
TEXT
100
AcDbPolyline
 90
        2
 70
     0
 43
0.0001332181640625
 10
1.147040949872842
 20
0.9670528299418258
 10
1.137049587568152
 20
1.040322820176205
  0
LWPOLYLINE
  5
7DE1B343D9D2BB3
330
7DE1B343D9D2CC1
100
AcDbEntity
  8
TEXT
100
AcDbPolyline
 90
        2
 70
     0
 43
0.0001332181640625
 10
1.137049587568152
 20
1.013679187363704
 10
1.147040949872842
 20
0.9537310135355788
  0
LWPOLYLINE
  5
7DE1B343D9D2BB7
330
7DE1B343D9D2CC1
100
AcDbEntity
  8
TEXT
100
AcDbPolyline
 90
        3
 70
     0
 43
0.0006660908203125
 10
1.290250476240029
 20
0.9270873807230778
 10
1.290250476240029
 20
1.040322820176205
 10
1.177015036786903
 20
1.040322820176205
  0
LWPOLYLINE
  5
7DE1B343D9D2BBC
330
7DE1B343D9D2CC1
100
AcDbEntity
  8
TEXT
100
AcDbPolyline
 90
        3
 70
     0
 43
0.0006660908203125
 10
1.263606843427528
 20
0.9270873807230778
 10
1.263606843427528
 20
1.013679187363704
 10
1.177015036786903
 20
1.013679187363704
  0
LWPOLYLINE
  5
7DE1B343D9D2BC1
330
7DE1B343D9D2CC1
100
AcDbEntity
  8
TEXT
100
AcDbPolyline
 90
        2
 70
     0
 43
0.0001332181640625
 10
1.263606843427528
 20
1.013679187363704
 10
1.203658669599404
 20
0.9537310135355788
  0
LWPOLYLINE
  5
7DE1B343D9D2BC5
330
7DE1B343D9D2CC1
100
AcDbEntity
  8
TEXT
100
AcDbPolyline
 90
        2
 70
     0
 43
0.0001332181640625
 10
1.177015036786903
 20
1.013679187363704
 10
1.167023674482214
 20
0.9537310135355788
  0
LWPOLYLINE
  5
7DE1B343D9D2BC9
330
7DE1B343D9D2CC1
100
AcDbEntity
  8
TEXT
100
AcDbPolyline
 90
        2
 70
     0
 43
0.0001332181640625
 10
1.177015036786903
 20
1.040322820176205
 10
1.167023674482214
 20
0.9670528299418258
  0
LWPOLYLINE
  5
7DE1B343D9D2BCD
330
7DE1B343D9D2CC1
100
AcDbEntity
  8
TEXT
100
AcDbPolyline
 90
        2
 70
     0
 43
0.0001332181640625
 10
1.216980486005653
 20
0.917096018418389
 10
1.290250476240029
 20
0.9270873807230778
  0
LWPOLYLINE
  5
7DE1B343D9D2BD1
330
7DE1B343D9D2CC1
100
AcDbEntity
  8
TEXT
100
AcDbPolyline
 90
        2
 70
     0
 43
0.0001332181640625
 10
1.263606843427528
 20
0.9270873807230778
 10
1.203658669599404
 20
0.917096018418389
  0
LWPOLYLINE
  5
7DE1B343D9D2BD5
330
7DE1B343D9D2CC1
100
AcDbEntity
  8
TEXT
100
AcDbPolyline
 90
        2
 70
     0
 43
0.0001332181640625
 10
1.290250476240029
 20
0.8871219315043298
 10
1.216980486005653
 20
0.897113293809015
  0
LWPOLYLINE
  5
7DE1B343D9D2BD9
330
7DE1B343D9D2CC1
100
AcDbEntity
  8
TEXT
100
AcDbPolyline
 90
        2
 70
     0
 43
0.0001332181640625
 10
1.263606843427528
 20
0.8871219315043298
 10
1.203658669599404
 20
0.897113293809015
  0
LWPOLYLINE
  5
7DE1B343D9D2BDD
330
7DE1B343D9D2CC1
100
AcDbEntity
  8
TEXT
100
AcDbPolyline
 90
        2
 70
     0
 43
0.0001332181640625
 10
1.263606843427528
 20
0.8005301248637032
 10
1.203658669599404
 20
0.8604782986918287
  0
LWPOLYLINE
  5
7DE1B343D9D2BE1
330
7DE1B343D9D2CC1
100
AcDbEntity
  8
TEXT
100
AcDbPolyline
 90
        3
 70
     0
 43
0.0006660908203125
 10
1.177015036786903
 20
0.8005301248637032
 10
1.263606843427528
 20
0.8005301248637032
 10
1.263606843427528
 20
0.8871219315043298
  0
LWPOLYLINE
  5
7DE1B343D9D2BE6
330
7DE1B343D9D2CC1
100
AcDbEntity
  8
TEXT
100
AcDbPolyline
 90
        3
 70
     0
 43
0.0006660908203125
 10
1.177015036786903
 20
0.7738864920512021
 10
1.290250476240029
 20
0.7738864920512021
 10
1.290250476240029
 20
0.8871219315043298
  0
LWPOLYLINE
  5
7DE1B343D9D2BEB
330
7DE1B343D9D2CC1
100
AcDbEntity
  8
TEXT
100
AcDbPolyline
 90
        5
 70
     0
 43
0.0001332181640625
 10
1.147040949872842
 20
0.8471564822855782
 10
1.147040949872842
 20
0.8604782986918287
 10
1.110405954755654
 20
0.8604782986918287
 10
1.110405954755654
 20
0.897113293809015
 10
1.097084138349404
 20
0.897113293809015
  0
LWPOLYLINE
  5
7DE1B343D9D2BF2
330
7DE1B343D9D2CC1
100
AcDbEntity
  8
TEXT
100
AcDbPolyline
 90
        2
 70
     0
 43
0.0006660908203125
 10
1.137049587568152
 20
0.8005301248637032
 10
1.137049587568152
 20
0.7738864920512021
  0
LWPOLYLINE
  5
7DE1B343D9D2BF6
330
7DE1B343D9D2CC1
100
AcDbEntity
  8
TEXT
100
AcDbPolyline
 90
        2
 70
     0
 43
0.0001332181640625
 10
1.137049587568152
 20
0.8005301248637032
 10
1.147040949872842
 20
0.8604782986918287
  0
LWPOLYLINE
  5
7DE1B343D9D2BFA
330
7DE1B343D9D2CC1
100
AcDbEntity
  8
TEXT
100
AcDbPolyline
 90
        2
 70
     0
 43
0.0001332181640625
 10
1.137049587568152
 20
0.7738864920512021
 10
1.147040949872842
 20
0.8471564822855782
  0
LWPOLYLINE
  5
7DE1B343D9D2BFE
330
7DE1B343D9D2CC1
100
AcDbEntity
  8
TEXT
100
AcDbPolyline
 90
        5
 70
     0
 43
0.0001332181640625
 10
1.097084138349404
 20
0.917096018418389
 10
1.110405954755652
 20
0.917096018418389
 10
1.110405954755652
 20
0.9537310135355788
 10
1.147040949872842
 20
0.9537310135355788
 10
1.147040949872842
 20
0.9670528299418258
  0
LWPOLYLINE
  5
7DE1B343D9D2C05
330
7DE1B343D9D2CC1
100
AcDbEntity
  8
TEXT
100
AcDbPolyline
 90
        5
 70
     0
 43
0.0001332181640625
 10
1.167023674482214
 20
0.9670528299418258
 10
1.167023674482214
 20
0.9537310135355788
 10
1.203658669599404
 20
0.9537310135355788
 10
1.203658669599404
 20
0.917096018418389
 10
1.216980486005653
 20
0.917096018418389
  0
LWPOLYLINE
  5
7DE1B343D9D2C0C
330
7DE1B343D9D2CC1
100
AcDbEntity
  8
TEXT
100
AcDbPolyline
 90
        2
 70
     0
 43
0.0001332181640625
 10
1.177015036786903
 20
0.8005301248637032
 10
1.167023674482214
 20
0.8604782986918287
  0
LWPOLYLINE
  5
7DE1B343D9D2C10
330
7DE1B343D9D2CC1
100
AcDbEntity
  8
TEXT
100
AcDbPolyline
 90
        2
 70
     0
 43
0.0001332181640625
 10
1.167023674482214
 20
0.8471564822855782
 10
1.177015036786903
 20
0.7738864920512021
  0
LWPOLYLINE
  5
7DE1B343D9D2C14
330
7DE1B343D9D2CC1
100
AcDbEntity
  8
TEXT
100
AcDbPolyline
 90
        2
 70
     0
 43
0.0006660908203125
 10
1.177015036786903
 20
0.8005301248637032
 10
1.177015036786903
 20
0.7738864920512021
  0
LWPOLYLINE
  5
7DE1B343D9D2C18
330
7DE1B343D9D2CC1
100
AcDbEntity
  8
TEXT
100
AcDbPolyline
 90
        5
 70
     0
 43
0.0001332181640625
 10
1.216980486005653
 20
0.897113293809015
 10
1.203658669599404
 20
0.897113293809015
 10
1.203658669599404
 20
0.8604782986918287
 10
1.167023674482214
 20
0.8604782986918287
 10
1.167023674482214
 20
0.8471564822855782
  0
LWPOLYLINE
  5
7DE1B343D9D2C1F
330
7DE1B343D9D2CC1
100
AcDbEntity
  8
TEXT
100
AcDbPolyline
 90
        2
 70
     0
 43
0.0006660908203125
 10
1.263606843427528
 20
0.9270873807230778
 10
1.290250476240029
 20
0.9270873807230778
  0
LWPOLYLINE
  5
7DE1B343D9D2C23
330
7DE1B343D9D2CC1
100
AcDbEntity
  8
TEXT
100
AcDbPolyline
 90
        2
 70
     0
 43
0.0006660908203125
 10
1.263606843427528
 20
0.8871219315043298
 10
1.290250476240029
 20
0.8871219315043298
  0
LINE
  5
7DE1B343D9D2C27
330
7DE1B343D9D2CC1
100
AcDbEntity
  8
TEXT
100
AcDbLine
 10
1.560364613088054
 20
0.9760461255194364
 30
0.0
 11
1.727270267117025
 21
0.9760461255194364
 31
0.0
  0
LINE
  5
7DE1B343D9D2C28
330
7DE1B343D9D2CC1
100
AcDbEntity
  8
TEXT
100
AcDbLine
 10
1.625964749332355
 20
0.9402414039088085
 30
0.0
 11
1.560364613088054
 21
0.9402414039088085
 31
0.0
  0
LINE
  5
7DE1B343D9D2C29
330
7DE1B343D9D2CC1
100
AcDbEntity
  8
TEXT
100
AcDbLine
 10
1.473039823527302
 20
0.7738497871876909
 30
0.0
 11
1.625964749332355
 21
0.7738497871876909
 31
0.0
  0
LINE
  5
7DE1B343D9D2C2A
330
7DE1B343D9D2CC1
100
AcDbEntity
  8
TEXT
100
AcDbLine
 10
1.630905123238635
 20
0.8422067935211302
 30
0.0
 11
1.473039823527301
 21
0.8422067935211302
 31
0.0
  0
LINE
  5
7DE1B343D9D2C2B
330
7DE1B343D9D2CC1
100
AcDbEntity
  8
TEXT
100
AcDbLine
 10
1.555127282973806
 20
0.8761479012831948
 30
0.0
 11
1.630905123238635
 21
0.8761479012831948
 31
0.0
  0
ARC
  5
7DE1B343D9D2C2C
330
7DE1B343D9D2CC1
100
AcDbEntity
  8
TEXT
100
AcDbCircle
 10
1.560364613088055
 20
0.9581437647141243
 30
0.0
 40
0.017902360805315
100
AcDbArc
 50
90.0
 51
270.0
  0
LINE
  5
7DE1B343D9D2C2D
330
7DE1B343D9D2CC1
100
AcDbEntity
  8
TEXT
100
AcDbLine
 10
1.473039823527301
 20
0.8422067935211302
 30
0.0
 11
1.473039823527302
 21
0.7738497871876909
 31
0.0
  0
LINE
  5
7DE1B343D9D2C2E
330
7DE1B343D9D2CC1
100
AcDbEntity
  8
TEXT
100
AcDbLine
 10
1.727270267117025
 20
0.9760461255194364
 30
0.0
 11
1.727270267117025
 21
0.8336421785257407
 31
0.0
  0
ARC
  5
7DE1B343D9D2C2F
330
7DE1B343D9D2CC1
100
AcDbEntity
  8
TEXT
100
AcDbCircle
 10
1.625964749332356
 20
0.8570455955482479
 30
0.0
 40
0.0831958083605586
100
AcDbArc
 50
270.0
 51
90.0
  0
ARC
  5
7DE1B343D9D2C30
330
7DE1B343D9D2CC1
100
AcDbEntity
  8
TEXT
100
AcDbCircle
 10
1.630905123238636
 20
0.8591773474021643
 30
0.0
 40
0.0169705538810321
100
AcDbArc
 50
270.0
 51
90.0
  0
LWPOLYLINE
  5
7DE1B343D9D2C31
330
7DE1B343D9D2CC1
100
AcDbEntity
  8
TEXT
100
AcDbPolyline
 90
        2
 70
     0
 43
0.0006660908203125
 10
1.137049587568152
 20
1.013679187363704
 10
1.137049587568152
 20
1.040322820176205
  0
LWPOLYLINE
  5
7DE1B343D9D2C35
330
7DE1B343D9D2CC1
100
AcDbEntity
  8
TEXT
100
AcDbPolyline
 90
        2
 70
     0
 43
0.0006660908203125
 10
1.177015036786903
 20
1.013679187363704
 10
1.177015036786903
 20
1.040322820176205
  0
LINE
  5
7DE1B343D9D2C39
330
7DE1B343D9D2CC1
100
AcDbEntity
  8
TEXT
100
AcDbLine
 10
1.730859035872318
 20
1.040322820176201
 30
0.0
 11
1.555127282973806
 21
1.040322820176201
 31
0.0
  0
LINE
  5
7DE1B343D9D2C3A
330
7DE1B343D9D2CC1
100
AcDbEntity
  8
TEXT
100
AcDbLine
 10
1.730859035872318
 20
1.074710737770339
 30
0.0
 11
1.730859035872318
 21
1.040322820176201
 31
0.0
  0
LINE
  5
7DE1B343D9D2C3B
330
7DE1B343D9D2CC1
100
AcDbEntity
  8
TEXT
100
AcDbLine
 10
1.92133092789217
 20
0.9394508240630813
 30
0.0
 11
1.862700606860233
 21
1.040322820176201
 31
0.0
  0
LINE
  5
7DE1B343D9D2C3C
330
7DE1B343D9D2CC1
100
AcDbEntity
  8
TEXT
100
AcDbLine
 10
1.980079490698036
 20
1.040322820176201
 30
0.0
 11
1.92133092789217
 21
0.9394508240630813
 31
0.0
  0
LINE
  5
7DE1B343D9D2C3D
330
7DE1B343D9D2CC1
100
AcDbEntity
  8
TEXT
100
AcDbLine
 10
2.077010116057777
 20
0.8562376252906901
 30
0.0
 11
2.077010116057777
 21
1.108334297915012
 31
0.0
  0
LINE
  5
7DE1B343D9D2C3E
330
7DE1B343D9D2CC1
100
AcDbEntity
  8
TEXT
100
AcDbLine
 10
2.109321970195437
 20
1.040322820176201
 30
0.0
 11
2.109321970195437
 21
0.8394586134437936
 31
0.0
  0
LINE
  5
7DE1B343D9D2C3F
330
7DE1B343D9D2CC1
100
AcDbEntity
  8
TEXT
100
AcDbLine
 10
2.109321970195437
 20
0.8394586134437936
 30
0.0
 11
2.092328333310836
 21
0.8394586134437936
 31
0.0
  0
LINE
  5
7DE1B343D9D2C40
330
7DE1B343D9D2CC1
100
AcDbEntity
  8
TEXT
100
AcDbLine
 10
2.078149689553972
 20
0.7738497871876909
 30
0.0
 11
2.176153023253406
 21
0.7738497871876909
 31
0.0
  0
LINE
  5
7DE1B343D9D2C41
330
7DE1B343D9D2CC1
100
AcDbEntity
  8
TEXT
100
AcDbLine
 10
1.911730690895216
 20
0.7938082932927038
 30
0.0
 11
2.009030396988661
 21
0.9581585042279719
 31
0.0
  0
ARC
  5
7DE1B343D9D2C42
330
7DE1B343D9D2CC1
100
AcDbEntity
  8
TEXT
100
AcDbCircle
 10
1.877687130983002
 20
0.8133975094613866
 30
0.0
 40
0.0392772371940762
100
AcDbArc
 50
270.1604552698595
 51
330.0831797321295
  0
LINE
  5
7DE1B343D9D2C43
330
7DE1B343D9D2CC1
100
AcDbEntity
  8
TEXT
100
AcDbLine
 10
1.781156874597131
 20
0.7738497871876909
 30
0.0
 11
1.877797125672125
 21
0.7741204262859731
 31
0.0
  0
LWPOLYLINE
  5
7DE1B343D9D2C44
330
7DE1B343D9D2CC1
100
AcDbEntity
  8
TEXT
100
AcDbPolyline
 90
        6
 70
     1
 43
0.0
 10
1.82368067817228
 20
0.9760461255194364
 10
1.793364083952072
 20
0.9760461255194364
 10
1.793364083952072
 20
0.8529351274645421
 42
0.407328721240804
 10
1.804907735113549
 20
0.841116212788156
 10
1.865529434158279
 20
0.841116212788156
 10
1.882994774565597
 20
0.8739284418316351
  0
LINE
  5
7DE1B343D9D2C4C
330
7DE1B343D9D2CC1
100
AcDbEntity
  8
TEXT
100
AcDbLine
 10
2.009030396988661
 20
0.9581585042279719
 30
0.0
 11
2.009030396988661
 21
0.8254011294026156
 31
0.0
  0
ARC
  5
7DE1B343D9D2C4D
330
7DE1B343D9D2CC1
100
AcDbEntity
  8
TEXT
100
AcDbCircle
 10
2.092328333310834
 20
0.8548404196872191
 30
0.0
 40
0.0153818062434269
100
AcDbArc
 50
174.7883570302258
 51
270.0
  0
LWPOLYLINE
  5
7DE1B343D9D2C4E
330
7DE1B343D9D2CC1
100
AcDbEntity
  8
TEXT
100
AcDbPolyline
 90
        2
 70
     0
 43
0.0
 10
2.009030396988659
 20
0.8254011294026192
 42
0.3318488747599744
 10
2.078149689553972
 20
0.7738497871876909
 42
-6.868794160588311
  0
LINE
  5
7DE1B343D9D2C52
330
7DE1B343D9D2CC1
100
AcDbEntity
  8
TEXT
100
AcDbLine
 10
2.233542092242668
 20
0.7738497871876909
 30
0.0
 11
2.300600139024508
 21
0.7738497871876909
 31
0.0
  0
LINE
  5
7DE1B343D9D2C53
330
7DE1B343D9D2CC1
100
AcDbEntity
  8
TEXT
100
AcDbLine
 10
2.233542092242668
 20
0.9684923363533265
 30
0.0
 11
2.233542092242668
 21
0.7738497871876909
 31
0.0
  0
LINE
  5
7DE1B343D9D2C54
330
7DE1B343D9D2CC1
100
AcDbEntity
  8
TEXT
100
AcDbLine
 10
2.176153023253406
 20
0.9760461255194364
 30
0.0
 11
2.225988303076554
 21
0.9760461255194364
 31
0.0
  0
LINE
  5
7DE1B343D9D2C55
330
7DE1B343D9D2CC1
100
AcDbEntity
  8
TEXT
100
AcDbLine
 10
2.176153023253406
 20
0.7738497871876909
 30
0.0
 11
2.176153023253406
 21
0.9760461255194364
 31
0.0
  0
LWPOLYLINE
  5
7DE1B343D9D2C56
330
7DE1B343D9D2CC1
100
AcDbEntity
  8
TEXT
100
AcDbPolyline
 90
        2
 70
     0
 43
0.0
 10
2.225988303076552
 20
0.9760461255194364
 42
-0.4142135623731017
 10
2.233542092242666
 20
0.9684923363533265
 42
-0.9999999999999998
  0
LINE
  5
7DE1B343D9D2C5A
330
7DE1B343D9D2CC1
100
AcDbEntity
  8
TEXT
100
AcDbLine
 10
2.431798303854237
 20
0.9760461255194364
 30
0.0
 11
2.431798303854237
 21
0.9009937194452298
 31
0.0
  0
LINE
  5
7DE1B343D9D2C5B
330
7DE1B343D9D2CC1
100
AcDbEntity
  8
TEXT
100
AcDbLine
 10
2.300600139024508
 20
0.9760461255194364
 30
0.0
 11
2.354733735945458
 21
0.9760461255194364
 31
0.0
  0
LINE
  5
7DE1B343D9D2C5C
330
7DE1B343D9D2CC1
100
AcDbEntity
  8
TEXT
100
AcDbLine
 10
2.300600139024508
 20
0.7738497871876909
 30
0.0
 11
2.300600139024508
 21
0.9760461255194364
 31
0.0
  0
LWPOLYLINE
  5
7DE1B343D9D2C5D
330
7DE1B343D9D2CC1
100
AcDbEntity
  8
TEXT
100
AcDbPolyline
 90
        2
 70
     0
 43
0.0
 10
2.354733735945456
 20
0.9760461255194364
 42
-0.4142135623731017
 10
2.36228752511157
 20
0.9684923363533265
 42
-0.9999999999999998
  0
LWPOLYLINE
  5
7DE1B343D9D2C61
330
7DE1B343D9D2CC1
100
AcDbEntity
  8
TEXT
100
AcDbPolyline
 90
        4
 70
     0
 43
0.0
 10
2.36228752511157
 20
0.9684923363533265
 10
2.36228752511157
 20
0.7738497871876909
 10
2.430765808399427
 20
0.7738497871876909
 10
2.430765808399427
 20
0.817340732138129
 42
-1.714843617202739
  0
LINE
  5
7DE1B343D9D2C67
330
7DE1B343D9D2CC1
100
AcDbEntity
  8
TEXT
100
AcDbLine
 10
1.790901640716325
 20
1.040322820176201
 30
0.0
 11
1.790901640716325
 21
1.074710737770339
 31
0.0
  0
LINE
  5
7DE1B343D9D2C68
330
7DE1B343D9D2CC1
100
AcDbEntity
  8
TEXT
100
AcDbLine
 10
1.862700606860233
 20
1.040322820176201
 30
0.0
 11
1.790901640716325
 21
1.040322820176201
 31
0.0
  0
LINE
  5
7DE1B343D9D2C69
330
7DE1B343D9D2CC1
100
AcDbEntity
  8
TEXT
100
AcDbLine
 10
2.010201403491412
 20
1.040322820176201
 30
0.0
 11
1.980079490698036
 21
1.040322820176201
 31
0.0
  0
LINE
  5
7DE1B343D9D2C6A
330
7DE1B343D9D2CC1
100
AcDbEntity
  8
TEXT
100
AcDbLine
 10
2.010201403491412
 20
1.108334297915012
 30
0.0
 11
2.010201403491412
 21
1.040322820176201
 31
0.0
  0
LINE
  5
7DE1B343D9D2C6B
330
7DE1B343D9D2CC1
100
AcDbEntity
  8
TEXT
100
AcDbLine
 10
2.077010116057777
 20
1.108334297915012
 30
0.0
 11
2.010201403491412
 21
1.108334297915012
 31
0.0
  0
LWPOLYLINE
  5
7DE1B343D9D2C6C
330
7DE1B343D9D2CC1
100
AcDbEntity
  8
TEXT
100
AcDbPolyline
 90
        3
 70
     0
 43
0.0
 10
2.397421875655779
 20
1.040322820176205
 10
2.279121716839735
 20
1.040322820176205
 10
2.279121716839735
 20
1.013155323415309
 42
-1.960274751411753
  0
LINE
  5
7DE1B343D9D2C71
330
7DE1B343D9D2CC1
100
AcDbEntity
  8
TEXT
100
AcDbLine
 10
2.243340026126574
 20
1.040322820176201
 30
0.0
 11
2.109321970195437
 21
1.040322820176201
 31
0.0
  0
LWPOLYLINE
  5
7DE1B343D9D2C72
330
7DE1B343D9D2CC1
100
AcDbEntity
  8
TEXT
100
AcDbPolyline
 90
        2
 70
     0
 43
0.0
 10
2.243340026126574
 20
1.040322820176205
 42
-0.3328679258950098
 10
2.279121716839735
 20
1.013155323415309
 42
6.772930709997214
  0
LINE
  5
7DE1B343D9D2C76
330
7DE1B343D9D2CC1
100
AcDbEntity
  8
TEXT
100
AcDbLine
 10
2.433203566368946
 20
1.040322820176201
 30
0.0
 11
2.433203566368946
 21
1.012000274406557
 31
0.0
  0
LWPOLYLINE
  5
7DE1B343D9D2C77
330
7DE1B343D9D2CC1
100
AcDbEntity
  8
TEXT
100
AcDbPolyline
 90
        2
 70
     0
 43
0.0
 10
2.397421875655779
 20
1.040322820176205
 42
-0.3277054968067132
 10
2.433203566368944
 20
1.012000274406561
 42
6.667889725900311
  0
LINE
  5
7DE1B343D9D2C7B
330
7DE1B343D9D2CC1
100
AcDbEntity
  8
TEXT
100
AcDbLine
 10
2.646995414461046
 20
0.9351108416227745
 30
0.0
 11
2.603244643279145
 21
1.017361117618919
 31
0.0
  0
LINE
  5
7DE1B343D9D2C7C
330
7DE1B343D9D2CC1
100
AcDbEntity
  8
TEXT
100
AcDbLine
 10
2.646995414461046
 20
1.040322820176201
 30
0.0
 11
2.646995414461046
 21
0.9351108416227745
 31
0.0
  0
LINE
  5
7DE1B343D9D2C7D
330
7DE1B343D9D2CC1
100
AcDbEntity
  8
TEXT
100
AcDbLine
 10
2.874679153399415
 20
0.9644574937646638
 30
0.0
 11
2.874679153399415
 21
1.105787025943802
 31
0.0
  0
LINE
  5
7DE1B343D9D2C7E
330
7DE1B343D9D2CC1
100
AcDbEntity
  8
TEXT
100
AcDbLine
 10
2.9217773119554
 20
1.040322820176201
 30
0.0
 11
2.874679153399415
 21
0.9644574937646638
 31
0.0
  0
LINE
  5
7DE1B343D9D2C7F
330
7DE1B343D9D2CC1
100
AcDbEntity
  8
TEXT
100
AcDbLine
 10
2.932212028719323
 20
0.9304295772352283
 30
0.0
 11
2.996769144685028
 21
1.040322820176201
 31
0.0
  0
LINE
  5
7DE1B343D9D2C80
330
7DE1B343D9D2CC1
100
AcDbEntity
  8
TEXT
100
AcDbLine
 10
2.810844162176642
 20
0.7738497871876909
 30
0.0
 11
2.875222346495263
 21
0.7738497871876909
 31
0.0
  0
LWPOLYLINE
  5
7DE1B343D9D2C81
330
7DE1B343D9D2CC1
100
AcDbEntity
  8
TEXT
100
AcDbPolyline
 90
        2
 70
     0
 43
0.0
 10
2.650935091766084
 20
0.817340732138129
 42
-0.2901071551932486
 10
2.60785915889844
 20
0.7738497871876909
 42
-5.328517124445184
  0
ARC
  5
7DE1B343D9D2C85
330
7DE1B343D9D2CC1
100
AcDbEntity
  8
TEXT
100
AcDbCircle
 10
2.539004577241525
 20
0.9476867505194391
 30
0.0
 40
0.028359375
100
AcDbArc
 50
25.78218179591245
 51
90.0
  0
LINE
  5
7DE1B343D9D2C86
330
7DE1B343D9D2CC1
100
AcDbEntity
  8
TEXT
100
AcDbLine
 10
2.574805652545648
 20
0.9387711520573041
 30
0.0
 11
2.564540892132084
 21
0.9600216916299984
 31
0.0
  0
LINE
  5
7DE1B343D9D2C87
330
7DE1B343D9D2CC1
100
AcDbEntity
  8
TEXT
100
AcDbLine
 10
2.492517662762265
 20
0.9387711520573041
 30
0.0
 11
2.574805652545648
 21
0.9387711520573041
 31
0.0
  0
LWPOLYLINE
  5
7DE1B343D9D2C88
330
7DE1B343D9D2CC1
100
AcDbEntity
  8
TEXT
100
AcDbPolyline
 90
        4
 70
     1
 43
0.0
 10
2.587736693828547
 20
0.8768137651717161
 10
2.499076375168689
 20
0.8768137651717161
 42
0.9999999999999998
 10
2.499076375168689
 20
0.8344152246678554
 10
2.587736693828547
 20
0.8344152246678554
 42
1.0
  0
LWPOLYLINE
  5
7DE1B343D9D2C8E
330
7DE1B343D9D2CC1
100
AcDbEntity
  8
TEXT
100
AcDbPolyline
 90
        2
 70
     0
 43
0.0
 10
2.473841741267063
 20
0.7738497871876909
 10
2.60785915889844
 20
0.7738497871876909
 42
0.9999999999999998
  0
LINE
  5
7DE1B343D9D2C92
330
7DE1B343D9D2CC1
100
AcDbEntity
  8
TEXT
100
AcDbLine
 10
2.734196180884079
 20
0.9760461255194364
 30
0.0
 11
2.810844162176637
 21
0.9760461255194364
 31
0.0
  0
LINE
  5
7DE1B343D9D2C93
330
7DE1B343D9D2CC1
100
AcDbEntity
  8
TEXT
100
AcDbLine
 10
2.810844162176637
 20
0.9760461255194364
 30
0.0
 11
2.810844162176642
 21
0.7738497871876909
 31
0.0
  0
ARC
  5
7DE1B343D9D2C94
330
7DE1B343D9D2CC1
100
AcDbEntity
  8
TEXT
100
AcDbCircle
 10
2.734196180884077
 20
0.9511402502367737
 30
0.0
 40
0.0249058752826653
100
AcDbArc
 50
89.99971217465335
 51
179.9999999999985
  0
LINE
  5
7DE1B343D9D2C95
330
7DE1B343D9D2CC1
100
AcDbEntity
  8
TEXT
100
AcDbLine
 10
2.70929030560142
 20
0.7738497871876909
 30
0.0
 11
2.709290305601415
 21
0.9511402926191593
 31
0.0
  0
LWPOLYLINE
  5
7DE1B343D9D2C96
330
7DE1B343D9D2CC1
100
AcDbEntity
  8
TEXT
100
AcDbPolyline
 90
        2
 70
     0
 43
0.0
 10
2.650935091766084
 20
0.7738497871876909
 10
2.709290305601418
 20
0.7738497871876909
  0
LWPOLYLINE
  5
7DE1B343D9D2C9A
330
7DE1B343D9D2CC1
100
AcDbEntity
  8
TEXT
100
AcDbPolyline
 90
        2
 70
     0
 43
0.0
 10
2.650935091766084
 20
0.817340732138129
 10
2.650935091766084
 20
0.7738497871876909
  0
LINE
  5
7DE1B343D9D2C9E
330
7DE1B343D9D2CC1
100
AcDbEntity
  8
TEXT
100
AcDbLine
 10
3.027704252082933
 20
0.7738497871876909
 30
0.0
 11
2.932212028719323
 21
0.9304295772352283
 31
0.0
  0
LINE
  5
7DE1B343D9D2C9F
330
7DE1B343D9D2CC1
100
AcDbEntity
  8
TEXT
100
AcDbLine
 10
2.951125879706727
 20
0.7738497871876909
 30
0.0
 11
3.027704252082933
 21
0.7738497871876909
 31
0.0
  0
LINE
  5
7DE1B343D9D2CA0
330
7DE1B343D9D2CC1
100
AcDbEntity
  8
TEXT
100
AcDbLine
 10
2.875222346495263
 20
0.9054293556638711
 30
0.0
 11
2.951125879706727
 21
0.7738497871876909
 31
0.0
  0
LINE
  5
7DE1B343D9D2CA1
330
7DE1B343D9D2CC1
100
AcDbEntity
  8
TEXT
100
AcDbLine
 10
2.875222346495263
 20
0.7738497871876909
 30
0.0
 11
2.875222346495263
 21
0.9054293556638711
 31
0.0
  0
LINE
  5
7DE1B343D9D2CA2
330
7DE1B343D9D2CC1
100
AcDbEntity
  8
TEXT
100
AcDbLine
 10
2.874679153399415
 20
1.105787025943802
 30
0.0
 11
2.806364274850142
 21
1.105787025943802
 31
0.0
  0
ARC
  5
7DE1B343D9D2CA3
330
7DE1B343D9D2CC1
100
AcDbEntity
  8
TEXT
100
AcDbCircle
 10
2.566008535808936
 20
0.9987392530552995
 30
0.0
 40
0.0416329381542859
100
AcDbArc
 50
26.56974201007528
 51
87.20939649401342
  0
LINE
  5
7DE1B343D9D2CA4
330
7DE1B343D9D2CC1
100
AcDbEntity
  8
TEXT
100
AcDbLine
 10
2.710892320760547
 20
1.040322820176201
 30
0.0
 11
2.646995414461046
 21
1.040322820176201
 31
0.0
  0
LINE
  5
7DE1B343D9D2CA5
330
7DE1B343D9D2CC1
100
AcDbEntity
  8
TEXT
100
AcDbLine
 10
2.710892320760547
 20
1.012775170315327
 30
0.0
 11
2.710892320760547
 21
1.040322820176201
 31
0.0
  0
ARC
  5
7DE1B343D9D2CA6
330
7DE1B343D9D2CC1
100
AcDbEntity
  8
TEXT
100
AcDbCircle
 10
2.742085137823655
 20
1.009077092893936
 30
0.0
 40
0.0314112657011332
100
AcDbArc
 50
95.88484768694724
 51
173.2388340632136
  0
LINE
  5
7DE1B343D9D2CA7
330
7DE1B343D9D2CC1
100
AcDbEntity
  8
TEXT
100
AcDbLine
 10
2.806364274850137
 20
1.040322820176201
 30
0.0
 11
2.73886455720062
 21
1.040322820176201
 31
0.0
  0
LINE
  5
7DE1B343D9D2CA8
330
7DE1B343D9D2CC1
100
AcDbEntity
  8
TEXT
100
AcDbLine
 10
2.806364274850142
 20
1.105787025943802
 30
0.0
 11
2.806364274850137
 21
1.040322820176201
 31
0.0
  0
LINE
  5
7DE1B343D9D2CA9
330
7DE1B343D9D2CC1
100
AcDbEntity
  8
TEXT
100
AcDbLine
 10
2.996769144685028
 20
1.040322820176201
 30
0.0
 11
2.921777311955402
 21
1.040322820176201
 31
0.0
  0
ENDSEC
  0
SECTION
  2
OBJECTS
  0
DICTIONARY
  5
7DE1B343D9D2CB5
330
0
100
AcDbDictionary
  3
ACAD_GROUP
350
7DE1B343D9D2CB6
  3
ACAD_LAYOUT
350
7DE1B343D9D2CDB
  3
ACAD_MLINESTYLE
350
7DE1B343D9D2CB7
  3
ACAD_PLOTSETTINGS
350
7DE1B343D9D2CDC
  3
ACAD_PLOTSTYLENAME
350
7DE1B343D9D2CD9
  3
ACDBHEADERROUNDTRIPXREC
350
7DE1B343D9D2CE6
  3
ACDBVARIABLEDICTIONARY
350
7DE1B343D9D2CE3
  0
DICTIONARY
  5
7DE1B343D9D2D08
330
7DE1B343D9D2CC1
100
AcDbDictionary
280
     1
  3
ACAD_LAYOUTSELFREF
360
7DE1B343D9D2D09
  0
DICTIONARY
  5
7DE1B343D9D2D06
330
7DE1B343D9D2CBE
100
AcDbDictionary
280
     1
  3
ACAD_LAYOUTSELFREF
360
7DE1B343D9D2D07
  0
DICTIONARY
  5
7DE1B343D9D2CB6
102
{ACAD_REACTORS
330
7DE1B343D9D2CB5
102
}
330
7DE1B343D9D2CB5
100
AcDbDictionary
  0
DICTIONARY
  5
7DE1B343D9D2CDB
102
{ACAD_REACTORS
330
7DE1B343D9D2CB5
102
}
330
7DE1B343D9D2CB5
100
AcDbDictionary
  0
DICTIONARY
  5
7DE1B343D9D2CB7
102
{ACAD_REACTORS
330
7DE1B343D9D2CB5
102
}
330
7DE1B343D9D2CB5
100
AcDbDictionary
  3
STANDARD
350
7DE1B343D9D2CC4
  0
DICTIONARY
  5
7DE1B343D9D2CDC
102
{ACAD_REACTORS
330
7DE1B343D9D2CB5
102
}
330
7DE1B343D9D2CB5
100
AcDbDictionary
  0
ACDBDICTIONARYWDFLT
  5
7DE1B343D9D2CD9
102
{ACAD_REACTORS
330
7DE1B343D9D2CB5
102
}
330
7DE1B343D9D2CB5
100
AcDbDictionary
281
     1
  3
Normal
350
7DE1B343D9D2CDA
100
AcDbDictionaryWithDefault
340
7DE1B343D9D2CDA
  0
DICTIONARY
  5
7DE1B343D9D2CE6
102
{ACAD_REACTORS
330
7DE1B343D9D2CB5
102
}
330
7DE1B343D9D2CB5
100
AcDbDictionary
  3
CEPSNTYPE
350
7DE1B343D9D2CF0
  3
FINGERPRINTGUID
350
7DE1B343D9D2CF1
  3
HYPERLINKBASE
350
7DE1B343D9D2CE9
  3
INSUNITS
350
7DE1B343D9D2CEF
  3
LAYOUTDICT
350
7DE1B343D9D2CEB
  3
LWETCUNION
350
7DE1B343D9D2CEE
  3
PLOTSETDICT
350
7DE1B343D9D2CEC
  3
PLOTSTYLNAMDICT
350
7DE1B343D9D2CED
  3
PSVPSCALE
350
7DE1B343D9D2CF3
  3
PUCSBASE
350
7DE1B343D9D2CF6
  3
PUCSORGBACK
350
7DE1B343D9D2CFC
  3
PUCSORGBOTTOM
350
7DE1B343D9D2CF8
  3
PUCSORGFRONT
350
7DE1B343D9D2CFB
  3
PUCSORGLEFT
350
7DE1B343D9D2CF9
  3
PUCSORGRIGHT
350
7DE1B343D9D2CFA
  3
PUCSORGTOP
350
7DE1B343D9D2CF7
  3
PUCSORTHOREF
350
7DE1B343D9D2CF4
  3
PUCSORTHOVIEW
350
7DE1B343D9D2CF5
  3
STYLESHEET
350
7DE1B343D9D2CEA
  3
TSTACKALIGN
350
7DE1B343D9D2CE7
  3
TSTACKSIZE
350
7DE1B343D9D2CE8
  3
UCSBASE
350
7DE1B343D9D2CFF
  3
UCSORGBACK
350
7DE1B343D9D2D05
  3
UCSORGBOTTOM
350
7DE1B343D9D2D01
  3
UCSORGFRONT
350
7DE1B343D9D2D04
  3
UCSORGLEFT
350
7DE1B343D9D2D02
  3
UCSORGRIGHT
350
7DE1B343D9D2D03
  3
UCSORGTOP
350
7DE1B343D9D2D00
  3
UCSORTHOREF
350
7DE1B343D9D2CFD
  3
UCSORTHOVIEW
350
7DE1B343D9D2CFE
  3
VERSIONGUID
350
7DE1B343D9D2CF2
  0
DICTIONARY
  5
7DE1B343D9D2CE3
102
{ACAD_REACTORS
330
7DE1B343D9D2CB5
102
}
330
7DE1B343D9D2CB5
100
AcDbDictionary
  3
DIMASSOC
350
7DE1B343D9D2CE4
  0
XRECORD
  5
7DE1B343D9D2D09
102
{ACAD_REACTORS
330
7DE1B343D9D2D08
102
}
330
7DE1B343D9D2D08
100
AcDbXrecord
340
7DE1B343D9D2CC1
  0
XRECORD
  5
7DE1B343D9D2D07
102
{ACAD_REACTORS
330
7DE1B343D9D2D06
102
}
330
7DE1B343D9D2D06
100
AcDbXrecord
340
7DE1B343D9D2CBE
  0
MLINESTYLE
  5
7DE1B343D9D2CC4
102
{ACAD_REACTORS
330
7DE1B343D9D2CB7
102
}
330
7DE1B343D9D2CB7
100
AcDbMlineStyle
  2
STANDARD
 70
     0
  3

 62
     0
 51
90.0
 52
90.0
 71
     2
 49
0.5
 62
   256
  6
BYLAYER
 49
-0.5
 62
   256
  6
BYLAYER
  0
ACDBPLACEHOLDER
  5
7DE1B343D9D2CDA
102
{ACAD_REACTORS
330
7DE1B343D9D2CD9
102
}
330
7DE1B343D9D2CD9
100
AcDbPlaceHolder
280
     0
  0
XRECORD
  5
7DE1B343D9D2CF0
102
{ACAD_REACTORS
330
7DE1B343D9D2CE6
102
}
330
7DE1B343D9D2CE6
100
AcDbXrecord
 90
        0
  0
XRECORD
  5
7DE1B343D9D2CF1
102
{ACAD_REACTORS
330
7DE1B343D9D2CE6
102
}
330
7DE1B343D9D2CE6
100
AcDbXrecord
  1
{9A645940-8DB4-11D6-88E6-0090279574E7}
  0
XRECORD
  5
7DE1B343D9D2CE9
102
{ACAD_REACTORS
330
7DE1B343D9D2CE6
102
}
330
7DE1B343D9D2CE6
100
AcDbXrecord
  1

  0
XRECORD
  5
7DE1B343D9D2CEF
102
{ACAD_REACTORS
330
7DE1B343D9D2CE6
102
}
330
7DE1B343D9D2CE6
100
AcDbXrecord
 90
        0
  0
XRECORD
  5
7DE1B343D9D2CEB
102
{ACAD_REACTORS
330
7DE1B343D9D2CE6
102
}
330
7DE1B343D9D2CE6
100
AcDbXrecord
340
7DE1B343D9D2CDB
  0
XRECORD
  5
7DE1B343D9D2CEE
102
{ACAD_REACTORS
330
7DE1B343D9D2CE6
102
}
330
7DE1B343D9D2CE6
100
AcDbXrecord
 90
    14877
  0
XRECORD
  5
7DE1B343D9D2CEC
102
{ACAD_REACTORS
330
7DE1B343D9D2CE6
102
}
330
7DE1B343D9D2CE6
100
AcDbXrecord
340
7DE1B343D9D2CDC
  0
XRECORD
  5
7DE1B343D9D2CED
102
{ACAD_REACTORS
330
7DE1B343D9D2CE6
102
}
330
7DE1B343D9D2CE6
100
AcDbXrecord
340
7DE1B343D9D2CD9
  0
XRECORD
  5
7DE1B343D9D2CF3
102
{ACAD_REACTORS
330
7DE1B343D9D2CE6
102
}
330
7DE1B343D9D2CE6
100
AcDbXrecord
 40
0.0
  0
XRECORD
  5
7DE1B343D9D2CF6
102
{ACAD_REACTORS
330
7DE1B343D9D2CE6
102
}
330
7DE1B343D9D2CE6
100
AcDbXrecord
340
0
  0
XRECORD
  5
7DE1B343D9D2CFC
102
{ACAD_REACTORS
330
7DE1B343D9D2CE6
102
}
330
7DE1B343D9D2CE6
100
AcDbXrecord
 10
0.0
 20
0.0
 30
0.0
  0
XRECORD
  5
7DE1B343D9D2CF8
102
{ACAD_REACTORS
330
7DE1B343D9D2CE6
102
}
330
7DE1B343D9D2CE6
100
AcDbXrecord
 10
0.0
 20
0.0
 30
0.0
  0
XRECORD
  5
7DE1B343D9D2CFB
102
{ACAD_REACTORS
330
7DE1B343D9D2CE6
102
}
330
7DE1B343D9D2CE6
100
AcDbXrecord
 10
0.0
 20
0.0
 30
0.0
  0
XRECORD
  5
7DE1B343D9D2CF9
102
{ACAD_REACTORS
330
7DE1B343D9D2CE6
102
}
330
7DE1B343D9D2CE6
100
AcDbXrecord
 10
0.0
 20
0.0
 30
0.0
  0
XRECORD
  5
7DE1B343D9D2CFA
102
{ACAD_REACTORS
330
7DE1B343D9D2CE6
102
}
330
7DE1B343D9D2CE6
100
AcDbXrecord
 10
0.0
 20
0.0
 30
0.0
  0
XRECORD
  5
7DE1B343D9D2CF7
102
{ACAD_REACTORS
330
7DE1B343D9D2CE6
102
}
330
7DE1B343D9D2CE6
100
AcDbXrecord
 10
0.0
 20
0.0
 30
0.0
  0
XRECORD
  5
7DE1B343D9D2CF4
102
{ACAD_REACTORS
330
7DE1B343D9D2CE6
102
}
330
7DE1B343D9D2CE6
100
AcDbXrecord
340
0
  0
XRECORD
  5
7DE1B343D9D2CF5
102
{ACAD_REACTORS
330
7DE1B343D9D2CE6
102
}
330
7DE1B343D9D2CE6
100
AcDbXrecord
 70
     0
  0
XRECORD
  5
7DE1B343D9D2CEA
102
{ACAD_REACTORS
330
7DE1B343D9D2CE6
102
}
330
7DE1B343D9D2CE6
100
AcDbXrecord
  1

  0
XRECORD
  5
7DE1B343D9D2CE7
102
{ACAD_REACTORS
330
7DE1B343D9D2CE6
102
}
330
7DE1B343D9D2CE6
100
AcDbXrecord
 90
        1
  0
XRECORD
  5
7DE1B343D9D2CE8
102
{ACAD_REACTORS
330
7DE1B343D9D2CE6
102
}
330
7DE1B343D9D2CE6
100
AcDbXrecord
 90
       70
  0
XRECORD
  5
7DE1B343D9D2CFF
102
{ACAD_REACTORS
330
7DE1B343D9D2CE6
102
}
330
7DE1B343D9D2CE6
100
AcDbXrecord
340
0
  0
XRECORD
  5
7DE1B343D9D2D05
102
{ACAD_REACTORS
330
7DE1B343D9D2CE6
102
}
330
7DE1B343D9D2CE6
100
AcDbXrecord
 10
0.0
 20
0.0
 30
0.0
  0
XRECORD
  5
7DE1B343D9D2D01
102
{ACAD_REACTORS
330
7DE1B343D9D2CE6
102
}
330
7DE1B343D9D2CE6
100
AcDbXrecord
 10
0.0
 20
0.0
 30
0.0
  0
XRECORD
  5
7DE1B343D9D2D04
102
{ACAD_REACTORS
330
7DE1B343D9D2CE6
102
}
330
7DE1B343D9D2CE6
100
AcDbXrecord
 10
0.0
 20
0.0
 30
0.0
  0
XRECORD
  5
7DE1B343D9D2D02
102
{ACAD_REACTORS
330
7DE1B343D9D2CE6
102
}
330
7DE1B343D9D2CE6
100
AcDbXrecord
 10
0.0
 20
0.0
 30
0.0
  0
XRECORD
  5
7DE1B343D9D2D03
102
{ACAD_REACTORS
330
7DE1B343D9D2CE6
102
}
330
7DE1B343D9D2CE6
100
AcDbXrecord
 10
0.0
 20
0.0
 30
0.0
  0
XRECORD
  5
7DE1B343D9D2D00
102
{ACAD_REACTORS
330
7DE1B343D9D2CE6
102
}
330
7DE1B343D9D2CE6
100
AcDbXrecord
 10
0.0
 20
0.0
 30
0.0
  0
XRECORD
  5
7DE1B343D9D2CFD
102
{ACAD_REACTORS
330
7DE1B343D9D2CE6
102
}
330
7DE1B343D9D2CE6
100
AcDbXrecord
340
0
  0
XRECORD
  5
7DE1B343D9D2CFE
102
{ACAD_REACTORS
330
7DE1B343D9D2CE6
102
}
330
7DE1B343D9D2CE6
100
AcDbXrecord
 70
     0
  0
XRECORD
  5
7DE1B343D9D2CF2
102
{ACAD_REACTORS
330
7DE1B343D9D2CE6
102
}
330
7DE1B343D9D2CE6
100
AcDbXrecord
  1
{9A645942-8DB4-11D6-88E6-0090279574E7}
  0
DICTIONARYVAR
  5
7DE1B343D9D2CE4
102
{ACAD_REACTORS
330
7DE1B343D9D2CE3
102
}
330
7DE1B343D9D2CE3
100
DictionaryVariables
280
     0
  1
1
  0
ENDSEC
  0
EOF
