  0
SECTION
  2
HEADER
  9
$ACADVER
  1
AC1014
  9
$ACADMAINTVER
 70
     9
  9
$DWGCODEPAGE
  3
ANSI_1252
  9
$INSBASE
 10
1.703125
 20
0.609375
 30
0.0
  9
$EXTMIN
 10
-0.0554815792271433
 20
-0.1611436040825815
 30
0.0
  9
$EXTMAX
 10
3.429737742519984
 20
2.359375
 30
0.0
  9
$LIMMIN
 10
0.0
 20
0.0
  9
$LIMMAX
 10
18.0
 20
12.0
  9
$ORTHOMODE
 70
     0
  9
$REGENMODE
 70
     1
  9
$FILLMODE
 70
     1
  9
$QTEXTMODE
 70
     0
  9
$MIRRTEXT
 70
     0
  9
$DRAGMODE
 70
     2
  9
$LTSCALE
 40
1.0
  9
$OSMODE
 70
    39
  9
$ATTMODE
 70
     1
  9
$TEXTSIZE
 40
0.125
  9
$TRACEWID
 40
0.05
  9
$TEXTSTYLE
  7
ROMANS
  9
$CLAYER
  8
0
  9
$CELTYPE
  6
BYLAYER
  9
$CECOLOR
 62
   256
  9
$CELTSCALE
 40
1.0
  9
$DELOBJ
 70
     1
  9
$DISPSILH
 70
     1
  9
$DIMSCALE
 40
1.0
  9
$DIMASZ
 40
0.125
  9
$DIMEXO
 40
0.125
  9
$DIMDLI
 40
0.375
  9
$DIMRND
 40
0.0
  9
$DIMDLE
 40
0.0
  9
$DIMEXE
 40
0.125
  9
$DIMTP
 40
0.0
  9
$DIMTM
 40
0.0
  9
$DIMTXT
 40
0.125
  9
$DIMCEN
 40
-0.125
  9
$DIMTSZ
 40
0.0
  9
$DIMTOL
 70
     0
  9
$DIMLIM
 70
     0
  9
$DIMTIH
 70
     1
  9
$DIMTOH
 70
     1
  9
$DIMSE1
 70
     0
  9
$DIMSE2
 70
     0
  9
$DIMTAD
 70
     0
  9
$DIMZIN
 70
     4
  9
$DIMBLK
  1

  9
$DIMASO
 70
     1
  9
$DIMSHO
 70
     1
  9
$DIMPOST
  1

  9
$DIMAPOST
  1

  9
$DIMALT
 70
     0
  9
$DIMALTD
 70
     2
  9
$DIMALTF
 40
25.4
  9
$DIMLFAC
 40
1.0
  9
$DIMTOFL
 70
     0
  9
$DIMTVP
 40
0.0
  9
$DIMTIX
 70
     1
  9
$DIMSOXD
 70
     0
  9
$DIMSAH
 70
     0
  9
$DIMBLK1
  1

  9
$DIMBLK2
  1

  9
$DIMSTYLE
  2
STANDARD
  9
$DIMCLRD
 70
     0
  9
$DIMCLRE
 70
     0
  9
$DIMCLRT
 70
     0
  9
$DIMTFAC
 40
1.0
  9
$DIMGAP
 40
0.09
  9
$DIMJUST
 70
     0
  9
$DIMSD1
 70
     0
  9
$DIMSD2
 70
     0
  9
$DIMTOLJ
 70
     1
  9
$DIMTZIN
 70
     4
  9
$DIMALTZ
 70
     0
  9
$DIMALTTZ
 70
     0
  9
$DIMFIT
 70
     3
  9
$DIMUPT
 70
     0
  9
$DIMUNIT
 70
     2
  9
$DIMDEC
 70
     3
  9
$DIMTDEC
 70
     3
  9
$DIMALTU
 70
     2
  9
$DIMALTTD
 70
     2
  9
$DIMTXSTY
  7
ROMANS
  9
$DIMAUNIT
 70
     0
  9
$LUNITS
 70
     2
  9
$LUPREC
 70
     3
  9
$SKETCHINC
 40
0.1
  9
$FILLETRAD
 40
0.03125
  9
$AUNITS
 70
     0
  9
$AUPREC
 70
     0
  9
$MENU
  1
ACAD
  9
$ELEVATION
 40
0.0
  9
$PELEVATION
 40
0.0
  9
$THICKNESS
 40
0.0
  9
$LIMCHECK
 70
     0
  9
$BLIPMODE
 70
     0
  9
$CHAMFERA
 40
0.0
  9
$CHAMFERB
 40
0.0
  9
$CHAMFERC
 40
0.0
  9
$CHAMFERD
 40
0.0
  9
$SKPOLY
 70
     0
  9
$TDCREATE
 40
2448994.353939467
  9
$TDUPDATE
 40
2452458.298417268
  9
$TDINDWG
 40
0.0013930093
  9
$TDUSRTIMER
 40
0.0013930093
  9
$USRTIMER
 70
     1
  9
$ANGBASE
 50
0.0
  9
$ANGDIR
 70
     0
  9
$PDMODE
 70
     0
  9
$PDSIZE
 40
0.0
  9
$PLINEWID
 40
0.0
  9
$COORDS
 70
     2
  9
$SPLFRAME
 70
     0
  9
$SPLINETYPE
 70
     6
  9
$SPLINESEGS
 70
     8
  9
$ATTDIA
 70
     0
  9
$ATTREQ
 70
     1
  9
$HANDLING
 70
 22529
  9
$HANDSEED
  5
7DE1B343D9D2920
  9
$SURFTAB1
 70
     6
  9
$SURFTAB2
 70
     6
  9
$SURFTYPE
 70
     6
  9
$SURFU
 70
     6
  9
$SURFV
 70
     6
  9
$UCSNAME
  2

  9
$UCSORG
 10
0.0
 20
0.0
 30
0.0
  9
$UCSXDIR
 10
1.0
 20
0.0
 30
0.0
  9
$UCSYDIR
 10
0.0
 20
1.0
 30
0.0
  9
$PUCSNAME
  2

  9
$PUCSORG
 10
0.0
 20
0.0
 30
0.0
  9
$PUCSXDIR
 10
1.0
 20
0.0
 30
0.0
  9
$PUCSYDIR
 10
0.0
 20
1.0
 30
0.0
  9
$USERI1
 70
     0
  9
$USERI2
 70
     0
  9
$USERI3
 70
     0
  9
$USERI4
 70
     0
  9
$USERI5
 70
     0
  9
$USERR1
 40
0.0
  9
$USERR2
 40
0.0
  9
$USERR3
 40
0.0
  9
$USERR4
 40
0.0
  9
$USERR5
 40
0.0
  9
$WORLDVIEW
 70
     1
  9
$SHADEDGE
 70
     3
  9
$SHADEDIF
 70
    70
  9
$TILEMODE
 70
     1
  9
$MAXACTVP
 70
    16
  9
$PINSBASE
 10
1.812800890378995
 20
50.00000000000001
 30
0.9603658006127073
  9
$PLIMCHECK
 70
     0
  9
$PEXTMIN
 10
1.000000000000000E+20
 20
1.000000000000000E+20
 30
1.000000000000000E+20
  9
$PEXTMAX
 10
-1.000000000000000E+20
 20
-1.000000000000000E+20
 30
-1.000000000000000E+20
  9
$PLIMMIN
 10
0.0
 20
0.0
  9
$PLIMMAX
 10
12.0
 20
9.0
  9
$UNITMODE
 70
     0
  9
$VISRETAIN
 70
     0
  9
$PLINEGEN
 70
     1
  9
$PSLTSCALE
 70
     0
  9
$TREEDEPTH
 70
  3020
  9
$PICKSTYLE
 70
     1
  9
$CMLSTYLE
  2
STANDARD
  9
$CMLJUST
 70
     0
  9
$CMLSCALE
 40
1.0
  9
$PROXYGRAPHICS
 70
     1
  9
$MEASUREMENT
 70
     0
  0
ENDSEC
  0
SECTION
  2
CLASSES
  0
CLASS
  1
LWPOLYLINE
  2
AcDbPolyline
  3
AutoCAD 2000
 90
        0
280
     0
281
     1
  0
CLASS
  1
ACDBDICTIONARYWDFLT
  2
AcDbDictionaryWithDefault
  3
AutoCAD 2000
 90
        0
280
     0
281
     0
  0
CLASS
  1
ACDBPLACEHOLDER
  2
AcDbPlaceHolder
  3
AutoCAD 2000
 90
        0
280
     0
281
     0
  0
CLASS
  1
LAYOUT
  2
AcDbLayout
  3
AutoCAD 2000
 90
        0
280
     0
281
     0
  0
CLASS
  1
DICTIONARYVAR
  2
AcDbDictionaryVar
  3
AutoCAD 2000
 90
        0
280
     0
281
     0
  0
CLASS
  1
LONG_TRANSACTION
  2
AcDbLongTransaction
  3
AutoCAD 2000
 90
        0
280
     0
281
     0
  0
CLASS
  1
LWPOLYLINE
  2
AcDbPolyline
  3
AutoCAD 2000
 90
        0
280
     0
281
     1
  0
CLASS
  1
HATCH
  2
AcDbHatch
  3
AutoCAD 2000
 90
        0
280
     0
281
     1
  0
CLASS
  1
XRECORD
  2
AcDbXrecord
  3
AutoCAD 2000
 90
        0
280
     0
281
     0
  0
ENDSEC
  0
SECTION
  2
TABLES
  0
TABLE
  2
VPORT
  5
7DE1B343D9D28C7
330
0
100
AcDbSymbolTable
 70
     2
  0
VPORT
  5
7DE1B343D9D28FB
330
7DE1B343D9D28C7
100
AcDbSymbolTableRecord
100
AcDbViewportTableRecord
  2
*ACTIVE
 70
     0
 10
0.0
 20
0.0
 11
1.0
 21
1.0
 12
5.398017711909615
 22
1.098930967624436
 13
0.0
 23
0.0
 14
0.015625
 24
0.015625
 15
0.0
 25
0.0
 16
0.0
 26
0.0
 36
1.0
 17
0.0
 27
0.0
 37
0.0
 40
2.845926056899536
 41
4.320930232558139
 42
50.0
 43
0.0
 44
0.0
 50
0.0
 51
0.0
 71
     0
 72
  2000
 73
     1
 74
     0
 75
     1
 76
     0
 77
     0
 78
     0
  0
ENDTAB
  0
TABLE
  2
LTYPE
  5
7DE1B343D9D28C4
330
0
100
AcDbSymbolTable
 70
     1
  0
LTYPE
  5
7DE1B343D9D28D1
330
7DE1B343D9D28C4
100
AcDbSymbolTableRecord
100
AcDbLinetypeTableRecord
  2
BYBLOCK
 70
     0
  3

 72
    65
 73
     0
 40
0.0
  0
LTYPE
  5
7DE1B343D9D28D2
330
7DE1B343D9D28C4
100
AcDbSymbolTableRecord
100
AcDbLinetypeTableRecord
  2
BYLAYER
 70
     0
  3

 72
    65
 73
     0
 40
0.0
  0
LTYPE
  5
7DE1B343D9D28D3
330
7DE1B343D9D28C4
100
AcDbSymbolTableRecord
100
AcDbLinetypeTableRecord
  2
CONTINUOUS
 70
     0
  3
Solid line
 72
    65
 73
     0
 40
0.0
  0
ENDTAB
  0
TABLE
  2
LAYER
  5
7DE1B343D9D28C1
330
0
100
AcDbSymbolTable
 70
     2
  0
LAYER
  5
7DE1B343D9D28CE
330
7DE1B343D9D28C1
100
AcDbSymbolTableRecord
100
AcDbLayerTableRecord
  2
0
 70
     0
 62
     7
  6
CONTINUOUS
  0
LAYER
  5
7DE1B343D9D28DE
330
7DE1B343D9D28C1
100
AcDbSymbolTableRecord
100
AcDbLayerTableRecord
  2
TEXT
 70
     0
 62
     3
  6
CONTINUOUS
  0
ENDTAB
  0
TABLE
  2
STYLE
  5
7DE1B343D9D28C2
330
0
100
AcDbSymbolTable
 70
     3
  0
STYLE
  5
7DE1B343D9D28CF
330
7DE1B343D9D28C2
100
AcDbSymbolTableRecord
100
AcDbTextStyleTableRecord
  2
STANDARD
 70
     0
 40
0.0
 41
1.0
 50
0.0
 71
     0
 42
0.3125
  3
txt
  4

  0
STYLE
  5
7DE1B343D9D28DB
330
7DE1B343D9D28C2
100
AcDbSymbolTableRecord
100
AcDbTextStyleTableRecord
  2
ITALICC
 70
     0
 40
0.0
 41
1.0
 50
0.0
 71
     0
 42
0.125
  3
italicc
  4

  0
STYLE
  5
7DE1B343D9D28EB
330
7DE1B343D9D28C2
100
AcDbSymbolTableRecord
100
AcDbTextStyleTableRecord
  2
ROMANS
 70
     0
 40
0.0
 41
1.0
 50
0.0
 71
     0
 42
0.125
  3
romans.shx
  4

  0
ENDTAB
  0
TABLE
  2
VIEW
  5
7DE1B343D9D28C5
330
0
100
AcDbSymbolTable
 70
     0
  0
ENDTAB
  0
TABLE
  2
UCS
  5
7DE1B343D9D28C6
330
0
100
AcDbSymbolTable
 70
     0
  0
ENDTAB
  0
TABLE
  2
APPID
  5
7DE1B343D9D28C8
330
0
100
AcDbSymbolTable
 70
     1
  0
APPID
  5
7DE1B343D9D28D0
330
7DE1B343D9D28C8
100
AcDbSymbolTableRecord
100
AcDbRegAppTableRecord
  2
ACAD
 70
     0
  0
ENDTAB
  0
TABLE
  2
DIMSTYLE
  5
7DE1B343D9D28C9
330
0
100
AcDbSymbolTable
 70
     1
  0
DIMSTYLE
105
7DE1B343D9D28E3
330
7DE1B343D9D28C9
100
AcDbSymbolTableRecord
100
AcDbDimStyleTableRecord
  2
STANDARD
 70
     0
  3

  4

  5

  6

  7

 40
1.0
 41
0.125
 42
0.125
 43
0.375
 44
0.125
 45
0.0
 46
0.0
 47
0.0
 48
0.0
140
0.125
141
-0.125
142
0.0
143
25.4
144
1.0
145
0.0
146
1.0
147
0.09
 71
     0
 72
     0
 73
     1
 74
     1
 75
     0
 76
     0
 77
     0
 78
     4
170
     0
171
     2
172
     0
173
     0
174
     1
175
     0
176
     0
177
     0
178
     0
270
     2
271
     3
272
     3
273
     2
274
     2
340
7DE1B343D9D28EB
275
     0
280
     0
281
     0
282
     0
283
     1
284
     4
285
     0
286
     0
287
     3
288
     0
  0
ENDTAB
  0
TABLE
  2
BLOCK_RECORD
  5
7DE1B343D9D28C0
330
0
100
AcDbSymbolTable
 70
     0
  0
BLOCK_RECORD
  5
7DE1B343D9D28D7
102
{ACAD_XDICTIONARY
360
7DE1B343D9D291E
102
}
330
7DE1B343D9D28C0
100
AcDbSymbolTableRecord
100
AcDbBlockTableRecord
  2
*MODEL_SPACE
  0
BLOCK_RECORD
  5
7DE1B343D9D28D4
102
{ACAD_XDICTIONARY
360
7DE1B343D9D291C
102
}
330
7DE1B343D9D28C0
100
AcDbSymbolTableRecord
100
AcDbBlockTableRecord
  2
*PAPER_SPACE
  0
ENDTAB
  0
ENDSEC
  0
SECTION
  2
BLOCKS
  0
BLOCK
  5
7DE1B343D9D28E1
330
7DE1B343D9D28D7
100
AcDbEntity
  8
0
100
AcDbBlockBegin
  2
*MODEL_SPACE
 70
     0
 10
0.0
 20
0.0
 30
0.0
  3
*MODEL_SPACE
  1

  0
ENDBLK
  5
7DE1B343D9D28E2
330
7DE1B343D9D28D7
100
AcDbEntity
  8
0
100
AcDbBlockEnd
  0
BLOCK
  5
7DE1B343D9D28DF
330
7DE1B343D9D28D4
100
AcDbEntity
 67
     1
  8
0
100
AcDbBlockBegin
  2
*PAPER_SPACE
 70
     0
 10
0.0
 20
0.0
 30
0.0
  3
*PAPER_SPACE
  1

  0
ENDBLK
  5
7DE1B343D9D28E0
330
7DE1B343D9D28D4
100
AcDbEntity
 67
     1
  8
0
100
AcDbBlockEnd
  0
ENDSEC
  0
SECTION
  2
ENTITIES
  0
LWPOLYLINE
  5
7DE1B343D9D1500
330
7DE1B343D9D28D7
100
AcDbEntity
  8
0
100
AcDbPolyline
 90
        4
 70
     1
 43
0.0
 10
2.953125
 20
2.359375
 10
0.453125
 20
2.359375
 10
0.453125
 20
0.609375
 10
2.953125
 20
0.609375
  0
LWPOLYLINE
  5
7DE1B343D9D1506
330
7DE1B343D9D28D7
100
AcDbEntity
  8
0
100
AcDbPolyline
 90
        7
 70
     1
 43
0.0
 10
1.693125
 20
2.265625
 10
0.546875
 20
2.265625
 10
0.546875
 20
0.703125
 10
2.859375
 20
0.703125
 10
2.859375
 20
2.265625
 10
1.713124999999998
 20
2.265625
 10
1.703125
 20
2.275624999999999
  0
TEXT
  5
7DE1B343D9D2782
330
7DE1B343D9D28D7
100
AcDbEntity
  8
TEXT
100
AcDbText
 10
0.9345238095238091
 20
0.296875
 30
0.0
 40
0.125
  1
PART #110160
  7
ITALICC
 72
     1
 11
1.6875
 21
0.296875
 31
0.0
100
AcDbText
  0
TEXT
  5
7DE1B343D9D2783
330
7DE1B343D9D28D7
100
AcDbEntity
  8
TEXT
100
AcDbText
 10
2.10080515825032
 20
-0.1500476426723751
 30
0.0
 40
0.0522247191011236
  1
Phone  1-800-328-2495
 41
1.272321428571429
 72
     5
 11
3.429737742519984
 21
-0.1500476426723751
 31
0.0
100
AcDbText
  0
TEXT
  5
7DE1B343D9D2784
330
7DE1B343D9D28D7
100
AcDbEntity
  8
TEXT
100
AcDbText
 10
2.10080515825032
 20
0.1297276382265013
 30
0.0
 40
0.0522247191011236
  1
Stylmark  Incorporated
 41
1.221428571428573
 72
     5
 11
3.429737742519984
 21
0.1297276382265013
 31
0.0
100
AcDbText
  0
TEXT
  5
7DE1B343D9D2785
330
7DE1B343D9D28D7
100
AcDbEntity
  8
TEXT
100
AcDbText
 10
2.10080515825032
 20
0.0364692112602092
 30
0.0
 40
0.0522247191011236
  1
6536 Main St. N.E. * P.O. Box 32008
 41
0.8388932496075366
 72
     5
 11
3.429737742519984
 21
0.0364692112602092
 31
0.0
100
AcDbText
  0
TEXT
  5
7DE1B343D9D2786
330
7DE1B343D9D28D7
100
AcDbEntity
  8
TEXT
100
AcDbText
 10
2.10080515825032
 20
-0.056789215706083
 30
0.0
 40
0.0522247191011236
  1
Minneapolis, MN 55432-0008
 41
1.11444212721585
 72
     5
 11
3.429737742519984
 21
-0.056789215706083
 31
0.0
100
AcDbText
  0
LWPOLYLINE
  5
7DE1B343D9D2787
330
7DE1B343D9D28D7
100
AcDbEntity
  8
TEXT
100
AcDbPolyline
 90
        3
 70
     0
 43
0.0006660908203125
 10
-0.055148533816987
 20
-0.0364028800349403
 10
-0.055148533816987
 20
-0.1496383194880679
 10
0.0580869056361353
 20
-0.1496383194880679
  0
LWPOLYLINE
  5
7DE1B343D9D278C
330
7DE1B343D9D28D7
100
AcDbEntity
  8
TEXT
100
AcDbPolyline
 90
        3
 70
     0
 43
0.0006660908203125
 10
-0.0285049010044896
 20
-0.0364028800349403
 10
-0.0285049010044896
 20
-0.1229946866755669
 10
0.0580869056361353
 20
-0.1229946866755669
  0
LWPOLYLINE
  5
7DE1B343D9D2791
330
7DE1B343D9D28D7
100
AcDbEntity
  8
TEXT
100
AcDbPolyline
 90
        2
 70
     0
 43
0.0001332181640625
 10
0.0181214564173873
 20
-0.0264115177302551
 10
-0.055148533816987
 20
-0.0364028800349403
  0
LWPOLYLINE
  5
7DE1B343D9D2795
330
7DE1B343D9D28D7
100
AcDbEntity
  8
TEXT
100
AcDbPolyline
 90
        2
 70
     0
 43
0.0001332181640625
 10
-0.0285049010044896
 20
-0.0364028800349403
 10
0.0314432728236378
 20
-0.0264115177302551
  0
LWPOLYLINE
  5
7DE1B343D9D2799
330
7DE1B343D9D28D7
100
AcDbEntity
  8
TEXT
100
AcDbPolyline
 90
        2
 70
     0
 43
0.0001332181640625
 10
-0.0285049010044896
 20
-0.1229946866755669
 10
0.0314432728236378
 20
-0.0630465128474414
  0
LWPOLYLINE
  5
7DE1B343D9D279D
330
7DE1B343D9D28D7
100
AcDbEntity
  8
TEXT
100
AcDbPolyline
 90
        3
 70
     0
 43
0.0006660908203125
 10
0.0580869056361353
 20
0.1167980086369353
 10
-0.055148533816987
 20
0.1167980086369353
 10
-0.055148533816987
 20
0.0035625691838077
  0
LWPOLYLINE
  5
7DE1B343D9D27A2
330
7DE1B343D9D28D7
100
AcDbEntity
  8
TEXT
100
AcDbPolyline
 90
        3
 70
     0
 43
0.0006660908203125
 10
0.0580869056361353
 20
0.0901543758244343
 10
-0.0285049010044896
 20
0.0901543758244343
 10
-0.0285049010044896
 20
0.0035625691838077
  0
LWPOLYLINE
  5
7DE1B343D9D27A7
330
7DE1B343D9D28D7
100
AcDbEntity
  8
TEXT
100
AcDbPolyline
 90
        2
 70
     0
 43
0.0001332181640625
 10
-0.0285049010044896
 20
0.0901543758244343
 10
0.031443272823636
 20
0.0302062019963088
  0
LWPOLYLINE
  5
7DE1B343D9D27AB
330
7DE1B343D9D28D7
100
AcDbEntity
  8
TEXT
100
AcDbPolyline
 90
        2
 70
     0
 43
0.0001332181640625
 10
-0.0285049010044896
 20
0.0035625691838077
 10
0.031443272823636
 20
-0.0064287931208811
  0
LWPOLYLINE
  5
7DE1B343D9D27AF
330
7DE1B343D9D28D7
100
AcDbEntity
  8
TEXT
100
AcDbPolyline
 90
        2
 70
     0
 43
0.0001332181640625
 10
-0.055148533816987
 20
0.0035625691838077
 10
0.0181214564173873
 20
-0.0064287931208811
  0
LWPOLYLINE
  5
7DE1B343D9D27B3
330
7DE1B343D9D28D7
100
AcDbEntity
  8
TEXT
100
AcDbPolyline
 90
        2
 70
     0
 43
0.0006660908203125
 10
-0.0285049010044896
 20
-0.0364028800349403
 10
-0.055148533816987
 20
-0.0364028800349403
  0
LWPOLYLINE
  5
7DE1B343D9D27B7
330
7DE1B343D9D28D7
100
AcDbEntity
  8
TEXT
100
AcDbPolyline
 90
        2
 70
     0
 43
0.0006660908203125
 10
-0.0285049010044896
 20
0.0035625691838077
 10
-0.055148533816987
 20
0.0035625691838077
  0
LINE
  5
7DE1B343D9D27BB
330
7DE1B343D9D28D7
100
AcDbEntity
  8
TEXT
100
AcDbLine
 10
1.46004189530951
 20
0.0525213139801664
 30
0.0
 11
1.352835621922221
 21
0.0525213139801664
 31
0.0
  0
LINE
  5
7DE1B343D9D27BC
330
7DE1B343D9D28D7
100
AcDbEntity
  8
TEXT
100
AcDbLine
 10
1.489072793653988
 20
0.1167980086369318
 30
0.0
 11
1.354240884436929
 21
0.1167980086369318
 31
0.0
  0
ARC
  5
7DE1B343D9D27BD
330
7DE1B343D9D28D7
100
AcDbEntity
  8
TEXT
100
AcDbCircle
 10
1.413554980830246
 20
-0.0524392406260845
 30
0.0
 40
0.0676855811441166
100
AcDbArc
 50
90.0
 51
153.7768192527749
  0
LWPOLYLINE
  5
7DE1B343D9D27BE
330
7DE1B343D9D28D7
100
AcDbEntity
  8
TEXT
100
AcDbPolyline
 90
        2
 70
     0
 43
0.0
 10
1.351803126467411
 20
-0.106184079401141
 42
0.2901071551932823
 10
1.394879059335046
 20
-0.1496750243515792
 42
5.328517124445801
  0
ARC
  5
7DE1B343D9D27C2
330
7DE1B343D9D28D7
100
AcDbEntity
  8
TEXT
100
AcDbCircle
 10
0.708423603158761
 20
-0.0898826330135294
 30
0.0
 40
0.0601160179737537
100
AcDbArc
 50
180.0000000000003
 51
264.0521544866073
  0
LINE
  5
7DE1B343D9D27C3
330
7DE1B343D9D28D7
100
AcDbEntity
  8
TEXT
100
AcDbLine
 10
0.7119389587843088
 20
0.15118592623107
 30
0.0
 11
0.6518963539403018
 21
0.15118592623107
 31
0.0
  0
ARC
  5
7DE1B343D9D27C4
330
7DE1B343D9D28D7
100
AcDbEntity
  8
TEXT
100
AcDbCircle
 10
0.4761646010417904
 20
0.0347105491904301
 30
0.0
 40
0.0820874594465043
100
AcDbArc
 50
90.0
 51
270.0
  0
LWPOLYLINE
  5
7DE1B343D9D27C5
330
7DE1B343D9D28D7
100
AcDbEntity
  8
TEXT
100
AcDbPolyline
 90
        2
 70
     0
 43
0.0001332181640625
 10
0.0680782679408258
 20
0.0435280184025557
 10
0.0580869056361353
 20
0.1167980086369353
  0
LWPOLYLINE
  5
7DE1B343D9D27C9
330
7DE1B343D9D28D7
100
AcDbEntity
  8
TEXT
100
AcDbPolyline
 90
        2
 70
     0
 43
0.0001332181640625
 10
0.0580869056361353
 20
0.0901543758244343
 10
0.0680782679408258
 20
0.0302062019963088
  0
LWPOLYLINE
  5
7DE1B343D9D27CD
330
7DE1B343D9D28D7
100
AcDbEntity
  8
TEXT
100
AcDbPolyline
 90
        3
 70
     0
 43
0.0006660908203125
 10
0.2112877943080127
 20
0.0035625691838077
 10
0.2112877943080127
 20
0.1167980086369353
 10
0.0980523548548869
 20
0.1167980086369353
  0
LWPOLYLINE
  5
7DE1B343D9D27D2
330
7DE1B343D9D28D7
100
AcDbEntity
  8
TEXT
100
AcDbPolyline
 90
        3
 70
     0
 43
0.0006660908203125
 10
0.1846441614955116
 20
0.0035625691838077
 10
0.1846441614955116
 20
0.0901543758244343
 10
0.0980523548548869
 20
0.0901543758244343
  0
LWPOLYLINE
  5
7DE1B343D9D27D7
330
7DE1B343D9D28D7
100
AcDbEntity
  8
TEXT
100
AcDbPolyline
 90
        2
 70
     0
 43
0.0001332181640625
 10
0.1846441614955116
 20
0.0901543758244343
 10
0.1246959876673879
 20
0.0302062019963088
  0
LWPOLYLINE
  5
7DE1B343D9D27DB
330
7DE1B343D9D28D7
100
AcDbEntity
  8
TEXT
100
AcDbPolyline
 90
        2
 70
     0
 43
0.0001332181640625
 10
0.0980523548548869
 20
0.0901543758244343
 10
0.0880609925501981
 20
0.0302062019963088
  0
LWPOLYLINE
  5
7DE1B343D9D27DF
330
7DE1B343D9D28D7
100
AcDbEntity
  8
TEXT
100
AcDbPolyline
 90
        2
 70
     0
 43
0.0001332181640625
 10
0.0980523548548869
 20
0.1167980086369353
 10
0.0880609925501981
 20
0.0435280184025557
  0
LWPOLYLINE
  5
7DE1B343D9D27E3
330
7DE1B343D9D28D7
100
AcDbEntity
  8
TEXT
100
AcDbPolyline
 90
        2
 70
     0
 43
0.0001332181640625
 10
0.1380178040736366
 20
-0.0064287931208811
 10
0.2112877943080127
 20
0.0035625691838077
  0
LWPOLYLINE
  5
7DE1B343D9D27E7
330
7DE1B343D9D28D7
100
AcDbEntity
  8
TEXT
100
AcDbPolyline
 90
        2
 70
     0
 43
0.0001332181640625
 10
0.1846441614955116
 20
0.0035625691838077
 10
0.1246959876673879
 20
-0.0064287931208811
  0
LWPOLYLINE
  5
7DE1B343D9D27EB
330
7DE1B343D9D28D7
100
AcDbEntity
  8
TEXT
100
AcDbPolyline
 90
        2
 70
     0
 43
0.0001332181640625
 10
0.2112877943080127
 20
-0.0364028800349403
 10
0.1380178040736366
 20
-0.0264115177302551
  0
LWPOLYLINE
  5
7DE1B343D9D27EF
330
7DE1B343D9D28D7
100
AcDbEntity
  8
TEXT
100
AcDbPolyline
 90
        2
 70
     0
 43
0.0001332181640625
 10
0.1846441614955116
 20
-0.0364028800349403
 10
0.1246959876673879
 20
-0.0264115177302551
  0
LWPOLYLINE
  5
7DE1B343D9D27F3
330
7DE1B343D9D28D7
100
AcDbEntity
  8
TEXT
100
AcDbPolyline
 90
        2
 70
     0
 43
0.0001332181640625
 10
0.1846441614955116
 20
-0.1229946866755669
 10
0.1246959876673879
 20
-0.0630465128474414
  0
LWPOLYLINE
  5
7DE1B343D9D27F7
330
7DE1B343D9D28D7
100
AcDbEntity
  8
TEXT
100
AcDbPolyline
 90
        3
 70
     0
 43
0.0006660908203125
 10
0.0980523548548869
 20
-0.1229946866755669
 10
0.1846441614955116
 20
-0.1229946866755669
 10
0.1846441614955116
 20
-0.0364028800349403
  0
LWPOLYLINE
  5
7DE1B343D9D27FC
330
7DE1B343D9D28D7
100
AcDbEntity
  8
TEXT
100
AcDbPolyline
 90
        3
 70
     0
 43
0.0006660908203125
 10
0.0980523548548869
 20
-0.1496383194880679
 10
0.2112877943080127
 20
-0.1496383194880679
 10
0.2112877943080127
 20
-0.0364028800349403
  0
LWPOLYLINE
  5
7DE1B343D9D2801
330
7DE1B343D9D28D7
100
AcDbEntity
  8
TEXT
100
AcDbPolyline
 90
        5
 70
     0
 43
0.0001332181640625
 10
0.0680782679408258
 20
-0.0763683292536919
 10
0.0680782679408258
 20
-0.0630465128474414
 10
0.0314432728236378
 20
-0.0630465128474414
 10
0.0314432728236378
 20
-0.0264115177302551
 10
0.0181214564173873
 20
-0.0264115177302551
  0
LWPOLYLINE
  5
7DE1B343D9D2808
330
7DE1B343D9D28D7
100
AcDbEntity
  8
TEXT
100
AcDbPolyline
 90
        2
 70
     0
 43
0.0006660908203125
 10
0.0580869056361353
 20
-0.1229946866755669
 10
0.0580869056361353
 20
-0.1496383194880679
  0
LWPOLYLINE
  5
7DE1B343D9D280C
330
7DE1B343D9D28D7
100
AcDbEntity
  8
TEXT
100
AcDbPolyline
 90
        2
 70
     0
 43
0.0001332181640625
 10
0.0580869056361353
 20
-0.1229946866755669
 10
0.0680782679408258
 20
-0.0630465128474414
  0
LWPOLYLINE
  5
7DE1B343D9D2810
330
7DE1B343D9D28D7
100
AcDbEntity
  8
TEXT
100
AcDbPolyline
 90
        2
 70
     0
 43
0.0001332181640625
 10
0.0580869056361353
 20
-0.1496383194880679
 10
0.0680782679408258
 20
-0.0763683292536919
  0
LWPOLYLINE
  5
7DE1B343D9D2814
330
7DE1B343D9D28D7
100
AcDbEntity
  8
TEXT
100
AcDbPolyline
 90
        5
 70
     0
 43
0.0001332181640625
 10
0.0181214564173873
 20
-0.0064287931208811
 10
0.031443272823636
 20
-0.0064287931208811
 10
0.031443272823636
 20
0.0302062019963088
 10
0.0680782679408258
 20
0.0302062019963088
 10
0.0680782679408258
 20
0.0435280184025557
  0
LWPOLYLINE
  5
7DE1B343D9D281B
330
7DE1B343D9D28D7
100
AcDbEntity
  8
TEXT
100
AcDbPolyline
 90
        5
 70
     0
 43
0.0001332181640625
 10
0.0880609925501981
 20
0.0435280184025557
 10
0.0880609925501981
 20
0.0302062019963088
 10
0.1246959876673879
 20
0.0302062019963088
 10
0.1246959876673879
 20
-0.0064287931208811
 10
0.1380178040736366
 20
-0.0064287931208811
  0
LWPOLYLINE
  5
7DE1B343D9D2822
330
7DE1B343D9D28D7
100
AcDbEntity
  8
TEXT
100
AcDbPolyline
 90
        2
 70
     0
 43
0.0001332181640625
 10
0.0980523548548869
 20
-0.1229946866755669
 10
0.0880609925501981
 20
-0.0630465128474414
  0
LWPOLYLINE
  5
7DE1B343D9D2826
330
7DE1B343D9D28D7
100
AcDbEntity
  8
TEXT
100
AcDbPolyline
 90
        2
 70
     0
 43
0.0001332181640625
 10
0.0880609925501981
 20
-0.0763683292536919
 10
0.0980523548548869
 20
-0.1496383194880679
  0
LWPOLYLINE
  5
7DE1B343D9D282A
330
7DE1B343D9D28D7
100
AcDbEntity
  8
TEXT
100
AcDbPolyline
 90
        2
 70
     0
 43
0.0006660908203125
 10
0.0980523548548869
 20
-0.1229946866755669
 10
0.0980523548548869
 20
-0.1496383194880679
  0
LWPOLYLINE
  5
7DE1B343D9D282E
330
7DE1B343D9D28D7
100
AcDbEntity
  8
TEXT
100
AcDbPolyline
 90
        5
 70
     0
 43
0.0001332181640625
 10
0.1380178040736366
 20
-0.0264115177302551
 10
0.1246959876673879
 20
-0.0264115177302551
 10
0.1246959876673879
 20
-0.0630465128474414
 10
0.0880609925501981
 20
-0.0630465128474414
 10
0.0880609925501981
 20
-0.0763683292536919
  0
LWPOLYLINE
  5
7DE1B343D9D2835
330
7DE1B343D9D28D7
100
AcDbEntity
  8
TEXT
100
AcDbPolyline
 90
        2
 70
     0
 43
0.0006660908203125
 10
0.1846441614955116
 20
0.0035625691838077
 10
0.2112877943080127
 20
0.0035625691838077
  0
LWPOLYLINE
  5
7DE1B343D9D2839
330
7DE1B343D9D28D7
100
AcDbEntity
  8
TEXT
100
AcDbPolyline
 90
        2
 70
     0
 43
0.0006660908203125
 10
0.1846441614955116
 20
-0.0364028800349403
 10
0.2112877943080127
 20
-0.0364028800349403
  0
LINE
  5
7DE1B343D9D283D
330
7DE1B343D9D28D7
100
AcDbEntity
  8
TEXT
100
AcDbLine
 10
0.4814019311560376
 20
0.0525213139801664
 30
0.0
 11
0.6483075851850089
 21
0.0525213139801664
 31
0.0
  0
LINE
  5
7DE1B343D9D283E
330
7DE1B343D9D28D7
100
AcDbEntity
  8
TEXT
100
AcDbLine
 10
0.5470020674003387
 20
0.0167165923695385
 30
0.0
 11
0.4814019311560376
 21
0.0167165923695385
 31
0.0
  0
LINE
  5
7DE1B343D9D283F
330
7DE1B343D9D28D7
100
AcDbEntity
  8
TEXT
100
AcDbLine
 10
0.3940771415952859
 20
-0.1496750243515792
 30
0.0
 11
0.5470020674003387
 21
-0.1496750243515792
 31
0.0
  0
LINE
  5
7DE1B343D9D2840
330
7DE1B343D9D28D7
100
AcDbEntity
  8
TEXT
100
AcDbLine
 10
0.5519424413066183
 20
-0.0813180180181399
 30
0.0
 11
0.3940771415952842
 21
-0.0813180180181399
 31
0.0
  0
LINE
  5
7DE1B343D9D2841
330
7DE1B343D9D28D7
100
AcDbEntity
  8
TEXT
100
AcDbLine
 10
0.4761646010417895
 20
-0.0473769102560753
 30
0.0
 11
0.5519424413066183
 21
-0.0473769102560753
 31
0.0
  0
ARC
  5
7DE1B343D9D2842
330
7DE1B343D9D28D7
100
AcDbEntity
  8
TEXT
100
AcDbCircle
 10
0.4814019311560385
 20
0.0346189531748542
 30
0.0
 40
0.017902360805315
100
AcDbArc
 50
90.0
 51
270.0
  0
LINE
  5
7DE1B343D9D2843
330
7DE1B343D9D28D7
100
AcDbEntity
  8
TEXT
100
AcDbLine
 10
0.3940771415952842
 20
-0.0813180180181399
 30
0.0
 11
0.3940771415952859
 21
-0.1496750243515792
 31
0.0
  0
LINE
  5
7DE1B343D9D2844
330
7DE1B343D9D28D7
100
AcDbEntity
  8
TEXT
100
AcDbLine
 10
0.6483075851850089
 20
0.0525213139801664
 30
0.0
 11
0.6483075851850089
 21
-0.0898826330135294
 31
0.0
  0
ARC
  5
7DE1B343D9D2845
330
7DE1B343D9D28D7
100
AcDbEntity
  8
TEXT
100
AcDbCircle
 10
0.5470020674003396
 20
-0.0664792159910221
 30
0.0
 40
0.0831958083605586
100
AcDbArc
 50
270.0
 51
90.0
  0
ARC
  5
7DE1B343D9D2846
330
7DE1B343D9D28D7
100
AcDbEntity
  8
TEXT
100
AcDbCircle
 10
0.5519424413066192
 20
-0.0643474641371058
 30
0.0
 40
0.0169705538810321
100
AcDbArc
 50
270.0
 51
90.0
  0
LWPOLYLINE
  5
7DE1B343D9D2847
330
7DE1B343D9D28D7
100
AcDbEntity
  8
TEXT
100
AcDbPolyline
 90
        2
 70
     0
 43
0.0006660908203125
 10
0.0580869056361353
 20
0.0901543758244343
 10
0.0580869056361353
 20
0.1167980086369353
  0
LWPOLYLINE
  5
7DE1B343D9D284B
330
7DE1B343D9D28D7
100
AcDbEntity
  8
TEXT
100
AcDbPolyline
 90
        2
 70
     0
 43
0.0006660908203125
 10
0.0980523548548869
 20
0.0901543758244343
 10
0.0980523548548869
 20
0.1167980086369353
  0
LINE
  5
7DE1B343D9D284F
330
7DE1B343D9D28D7
100
AcDbEntity
  8
TEXT
100
AcDbLine
 10
0.6518963539403018
 20
0.1167980086369318
 30
0.0
 11
0.4761646010417895
 21
0.1167980086369318
 31
0.0
  0
LINE
  5
7DE1B343D9D2850
330
7DE1B343D9D28D7
100
AcDbEntity
  8
TEXT
100
AcDbLine
 10
0.6518963539403018
 20
0.15118592623107
 30
0.0
 11
0.6518963539403018
 21
0.1167980086369318
 31
0.0
  0
LINE
  5
7DE1B343D9D2851
330
7DE1B343D9D28D7
100
AcDbEntity
  8
TEXT
100
AcDbLine
 10
0.842368245960154
 20
0.0159260125238112
 30
0.0
 11
0.7837379249282162
 21
0.1167980086369318
 31
0.0
  0
LINE
  5
7DE1B343D9D2852
330
7DE1B343D9D28D7
100
AcDbEntity
  8
TEXT
100
AcDbLine
 10
0.9011168087660195
 20
0.1167980086369318
 30
0.0
 11
0.842368245960154
 21
0.0159260125238112
 31
0.0
  0
LINE
  5
7DE1B343D9D2853
330
7DE1B343D9D28D7
100
AcDbEntity
  8
TEXT
100
AcDbLine
 10
0.9980474341257608
 20
-0.06728718624858
 30
0.0
 11
0.9980474341257608
 21
0.1848094863757424
 31
0.0
  0
LINE
  5
7DE1B343D9D2854
330
7DE1B343D9D28D7
100
AcDbEntity
  8
TEXT
100
AcDbLine
 10
1.03035928826342
 20
0.1167980086369318
 30
0.0
 11
1.03035928826342
 21
-0.0840661980954765
 31
0.0
  0
LINE
  5
7DE1B343D9D2855
330
7DE1B343D9D28D7
100
AcDbEntity
  8
TEXT
100
AcDbLine
 10
1.03035928826342
 20
-0.0840661980954765
 30
0.0
 11
1.013365651378819
 21
-0.0840661980954765
 31
0.0
  0
LINE
  5
7DE1B343D9D2856
330
7DE1B343D9D28D7
100
AcDbEntity
  8
TEXT
100
AcDbLine
 10
0.9991870076219555
 20
-0.1496750243515792
 30
0.0
 11
1.09719034132139
 21
-0.1496750243515792
 31
0.0
  0
LINE
  5
7DE1B343D9D2857
330
7DE1B343D9D28D7
100
AcDbEntity
  8
TEXT
100
AcDbLine
 10
0.8327680089631996
 20
-0.1297165182465663
 30
0.0
 11
0.9300677150566443
 21
0.0346336926887019
 31
0.0
  0
ARC
  5
7DE1B343D9D2858
330
7DE1B343D9D28D7
100
AcDbEntity
  8
TEXT
100
AcDbCircle
 10
0.7987244490509858
 20
-0.1101273020778835
 30
0.0
 40
0.0392772371940762
100
AcDbArc
 50
270.1604552698595
 51
330.0831797321295
  0
LINE
  5
7DE1B343D9D2859
330
7DE1B343D9D28D7
100
AcDbEntity
  8
TEXT
100
AcDbLine
 10
0.7021941926651146
 20
-0.1496750243515792
 30
0.0
 11
0.798834443740109
 21
-0.1494043852532969
 31
0.0
  0
LWPOLYLINE
  5
7DE1B343D9D285A
330
7DE1B343D9D28D7
100
AcDbEntity
  8
TEXT
100
AcDbPolyline
 90
        6
 70
     1
 43
0.0
 10
0.7447179962402642
 20
0.0525213139801664
 10
0.714401402020056
 20
0.0525213139801664
 10
0.714401402020056
 20
-0.070589684074728
 42
0.407328721240804
 10
0.7259450531815324
 20
-0.0824085987511141
 10
0.7865667522262632
 20
-0.0824085987511141
 10
0.8040320926335811
 20
-0.0495963697076349
  0
LINE
  5
7DE1B343D9D2862
330
7DE1B343D9D28D7
100
AcDbEntity
  8
TEXT
100
AcDbLine
 10
0.9300677150566443
 20
0.0346336926887019
 30
0.0
 11
0.9300677150566443
 21
-0.0981236821366545
 31
0.0
  0
ARC
  5
7DE1B343D9D2863
330
7DE1B343D9D28D7
100
AcDbEntity
  8
TEXT
100
AcDbCircle
 10
1.013365651378817
 20
-0.068684391852051
 30
0.0
 40
0.0153818062434269
100
AcDbArc
 50
174.7883570302258
 51
270.0
  0
LWPOLYLINE
  5
7DE1B343D9D2864
330
7DE1B343D9D28D7
100
AcDbEntity
  8
TEXT
100
AcDbPolyline
 90
        2
 70
     0
 43
0.0
 10
0.9300677150566425
 20
-0.0981236821366509
 42
0.3318488747599744
 10
0.9991870076219555
 20
-0.1496750243515792
 42
-6.868794160588311
  0
LINE
  5
7DE1B343D9D2868
330
7DE1B343D9D28D7
100
AcDbEntity
  8
TEXT
100
AcDbLine
 10
1.154579410310651
 20
-0.1496750243515792
 30
0.0
 11
1.221637457092491
 21
-0.1496750243515792
 31
0.0
  0
LINE
  5
7DE1B343D9D2869
330
7DE1B343D9D28D7
100
AcDbEntity
  8
TEXT
100
AcDbLine
 10
1.154579410310651
 20
0.0449675248140564
 30
0.0
 11
1.154579410310651
 21
-0.1496750243515792
 31
0.0
  0
LINE
  5
7DE1B343D9D286A
330
7DE1B343D9D28D7
100
AcDbEntity
  8
TEXT
100
AcDbLine
 10
1.09719034132139
 20
0.0525213139801664
 30
0.0
 11
1.147025621144537
 21
0.0525213139801664
 31
0.0
  0
LINE
  5
7DE1B343D9D286B
330
7DE1B343D9D28D7
100
AcDbEntity
  8
TEXT
100
AcDbLine
 10
1.09719034132139
 20
-0.1496750243515792
 30
0.0
 11
1.09719034132139
 21
0.0525213139801664
 31
0.0
  0
LWPOLYLINE
  5
7DE1B343D9D286C
330
7DE1B343D9D28D7
100
AcDbEntity
  8
TEXT
100
AcDbPolyline
 90
        2
 70
     0
 43
0.0
 10
1.147025621144535
 20
0.0525213139801664
 42
-0.4142135623731017
 10
1.154579410310649
 20
0.0449675248140564
 42
-0.9999999999999998
  0
LINE
  5
7DE1B343D9D2870
330
7DE1B343D9D28D7
100
AcDbEntity
  8
TEXT
100
AcDbLine
 10
1.352835621922221
 20
0.0525213139801664
 30
0.0
 11
1.352835621922221
 21
-0.0225310920940403
 31
0.0
  0
LINE
  5
7DE1B343D9D2871
330
7DE1B343D9D28D7
100
AcDbEntity
  8
TEXT
100
AcDbLine
 10
1.221637457092491
 20
0.0525213139801664
 30
0.0
 11
1.275771054013441
 21
0.0525213139801664
 31
0.0
  0
LINE
  5
7DE1B343D9D2872
330
7DE1B343D9D28D7
100
AcDbEntity
  8
TEXT
100
AcDbLine
 10
1.221637457092491
 20
-0.1496750243515792
 30
0.0
 11
1.221637457092491
 21
0.0525213139801664
 31
0.0
  0
LWPOLYLINE
  5
7DE1B343D9D2873
330
7DE1B343D9D28D7
100
AcDbEntity
  8
TEXT
100
AcDbPolyline
 90
        2
 70
     0
 43
0.0
 10
1.275771054013439
 20
0.0525213139801664
 42
-0.4142135623731017
 10
1.283324843179553
 20
0.0449675248140564
 42
-0.9999999999999998
  0
LWPOLYLINE
  5
7DE1B343D9D2877
330
7DE1B343D9D28D7
100
AcDbEntity
  8
TEXT
100
AcDbPolyline
 90
        4
 70
     0
 43
0.0
 10
1.283324843179553
 20
0.0449675248140564
 10
1.283324843179553
 20
-0.1496750243515792
 10
1.351803126467411
 20
-0.1496750243515792
 10
1.351803126467411
 20
-0.106184079401141
 42
-1.714843617202739
  0
LINE
  5
7DE1B343D9D287D
330
7DE1B343D9D28D7
100
AcDbEntity
  8
TEXT
100
AcDbLine
 10
0.7119389587843088
 20
0.1167980086369318
 30
0.0
 11
0.7119389587843088
 21
0.15118592623107
 31
0.0
  0
LINE
  5
7DE1B343D9D287E
330
7DE1B343D9D28D7
100
AcDbEntity
  8
TEXT
100
AcDbLine
 10
0.7837379249282162
 20
0.1167980086369318
 30
0.0
 11
0.7119389587843088
 21
0.1167980086369318
 31
0.0
  0
LINE
  5
7DE1B343D9D287F
330
7DE1B343D9D28D7
100
AcDbEntity
  8
TEXT
100
AcDbLine
 10
0.9312387215593957
 20
0.1167980086369318
 30
0.0
 11
0.9011168087660195
 21
0.1167980086369318
 31
0.0
  0
LINE
  5
7DE1B343D9D2880
330
7DE1B343D9D28D7
100
AcDbEntity
  8
TEXT
100
AcDbLine
 10
0.9312387215593957
 20
0.1848094863757424
 30
0.0
 11
0.9312387215593957
 21
0.1167980086369318
 31
0.0
  0
LINE
  5
7DE1B343D9D2881
330
7DE1B343D9D28D7
100
AcDbEntity
  8
TEXT
100
AcDbLine
 10
0.9980474341257608
 20
0.1848094863757424
 30
0.0
 11
0.9312387215593957
 21
0.1848094863757424
 31
0.0
  0
LWPOLYLINE
  5
7DE1B343D9D2882
330
7DE1B343D9D28D7
100
AcDbEntity
  8
TEXT
100
AcDbPolyline
 90
        3
 70
     0
 43
0.0
 10
1.318459193723763
 20
0.1167980086369353
 10
1.200159034907718
 20
0.1167980086369353
 10
1.200159034907718
 20
0.0896305118760395
 42
-1.960274751411753
  0
LINE
  5
7DE1B343D9D2887
330
7DE1B343D9D28D7
100
AcDbEntity
  8
TEXT
100
AcDbLine
 10
1.164377344194557
 20
0.1167980086369318
 30
0.0
 11
1.03035928826342
 21
0.1167980086369318
 31
0.0
  0
LWPOLYLINE
  5
7DE1B343D9D2888
330
7DE1B343D9D28D7
100
AcDbEntity
  8
TEXT
100
AcDbPolyline
 90
        2
 70
     0
 43
0.0
 10
1.164377344194557
 20
0.1167980086369353
 42
-0.3328679258950098
 10
1.200159034907718
 20
0.0896305118760395
 42
6.772930709997214
  0
LINE
  5
7DE1B343D9D288C
330
7DE1B343D9D28D7
100
AcDbEntity
  8
TEXT
100
AcDbLine
 10
1.354240884436929
 20
0.1167980086369318
 30
0.0
 11
1.354240884436929
 21
0.0884754628672879
 31
0.0
  0
LWPOLYLINE
  5
7DE1B343D9D288D
330
7DE1B343D9D28D7
100
AcDbEntity
  8
TEXT
100
AcDbPolyline
 90
        2
 70
     0
 43
0.0
 10
1.318459193723763
 20
0.1167980086369353
 42
-0.3277054968067132
 10
1.354240884436928
 20
0.0884754628672915
 42
6.667889725900311
  0
LINE
  5
7DE1B343D9D2891
330
7DE1B343D9D28D7
100
AcDbEntity
  8
TEXT
100
AcDbLine
 10
1.568032732529029
 20
0.0115860300835045
 30
0.0
 11
1.524281961347128
 21
0.0938363060796497
 31
0.0
  0
LINE
  5
7DE1B343D9D2892
330
7DE1B343D9D28D7
100
AcDbEntity
  8
TEXT
100
AcDbLine
 10
1.568032732529029
 20
0.1167980086369318
 30
0.0
 11
1.568032732529029
 21
0.0115860300835045
 31
0.0
  0
LINE
  5
7DE1B343D9D2893
330
7DE1B343D9D28D7
100
AcDbEntity
  8
TEXT
100
AcDbLine
 10
1.795716471467398
 20
0.0409326822253937
 30
0.0
 11
1.795716471467398
 21
0.1822622144045325
 31
0.0
  0
LINE
  5
7DE1B343D9D2894
330
7DE1B343D9D28D7
100
AcDbEntity
  8
TEXT
100
AcDbLine
 10
1.842814630023383
 20
0.1167980086369318
 30
0.0
 11
1.795716471467398
 21
0.0409326822253937
 31
0.0
  0
LINE
  5
7DE1B343D9D2895
330
7DE1B343D9D28D7
100
AcDbEntity
  8
TEXT
100
AcDbLine
 10
1.853249346787306
 20
0.0069047656959582
 30
0.0
 11
1.917806462753011
 21
0.1167980086369318
 31
0.0
  0
LINE
  5
7DE1B343D9D2896
330
7DE1B343D9D28D7
100
AcDbEntity
  8
TEXT
100
AcDbLine
 10
1.731881480244625
 20
-0.1496750243515792
 30
0.0
 11
1.796259664563246
 21
-0.1496750243515792
 31
0.0
  0
LWPOLYLINE
  5
7DE1B343D9D2897
330
7DE1B343D9D28D7
100
AcDbEntity
  8
TEXT
100
AcDbPolyline
 90
        2
 70
     0
 43
0.0
 10
1.571972409834067
 20
-0.106184079401141
 42
-0.2901071551932486
 10
1.528896476966423
 20
-0.1496750243515792
 42
-5.328517124445184
  0
ARC
  5
7DE1B343D9D289B
330
7DE1B343D9D28D7
100
AcDbEntity
  8
TEXT
100
AcDbCircle
 10
1.460041895309508
 20
0.0241619389801691
 30
0.0
 40
0.028359375
100
AcDbArc
 50
25.78218179591245
 51
90.0
  0
LINE
  5
7DE1B343D9D289C
330
7DE1B343D9D28D7
100
AcDbEntity
  8
TEXT
100
AcDbLine
 10
1.495842970613631
 20
0.0152463405180341
 30
0.0
 11
1.485578210200067
 21
0.0364968800907284
 31
0.0
  0
LINE
  5
7DE1B343D9D289D
330
7DE1B343D9D28D7
100
AcDbEntity
  8
TEXT
100
AcDbLine
 10
1.413554980830248
 20
0.0152463405180341
 30
0.0
 11
1.495842970613631
 21
0.0152463405180341
 31
0.0
  0
LWPOLYLINE
  5
7DE1B343D9D289E
330
7DE1B343D9D28D7
100
AcDbEntity
  8
TEXT
100
AcDbPolyline
 90
        4
 70
     1
 43
0.0
 10
1.50877401189653
 20
-0.046711046367554
 10
1.420113693236672
 20
-0.046711046367554
 42
0.9999999999999998
 10
1.420113693236672
 20
-0.0891095868714147
 10
1.50877401189653
 20
-0.0891095868714147
 42
1.0
  0
LWPOLYLINE
  5
7DE1B343D9D28A4
330
7DE1B343D9D28D7
100
AcDbEntity
  8
TEXT
100
AcDbPolyline
 90
        2
 70
     0
 43
0.0
 10
1.394879059335046
 20
-0.1496750243515792
 10
1.528896476966423
 20
-0.1496750243515792
 42
0.9999999999999998
  0
LINE
  5
7DE1B343D9D28A8
330
7DE1B343D9D28D7
100
AcDbEntity
  8
TEXT
100
AcDbLine
 10
1.655233498952062
 20
0.0525213139801664
 30
0.0
 11
1.73188148024462
 21
0.0525213139801664
 31
0.0
  0
LINE
  5
7DE1B343D9D28A9
330
7DE1B343D9D28D7
100
AcDbEntity
  8
TEXT
100
AcDbLine
 10
1.73188148024462
 20
0.0525213139801664
 30
0.0
 11
1.731881480244625
 21
-0.1496750243515792
 31
0.0
  0
ARC
  5
7DE1B343D9D28AA
330
7DE1B343D9D28D7
100
AcDbEntity
  8
TEXT
100
AcDbCircle
 10
1.65523349895206
 20
0.0276154386975036
 30
0.0
 40
0.0249058752826653
100
AcDbArc
 50
89.99971217465335
 51
179.9999999999985
  0
LINE
  5
7DE1B343D9D28AB
330
7DE1B343D9D28D7
100
AcDbEntity
  8
TEXT
100
AcDbLine
 10
1.630327623669403
 20
-0.1496750243515792
 30
0.0
 11
1.630327623669398
 21
0.0276154810798892
 31
0.0
  0
LWPOLYLINE
  5
7DE1B343D9D28AC
330
7DE1B343D9D28D7
100
AcDbEntity
  8
TEXT
100
AcDbPolyline
 90
        2
 70
     0
 43
0.0
 10
1.571972409834067
 20
-0.1496750243515792
 10
1.630327623669401
 20
-0.1496750243515792
  0
LWPOLYLINE
  5
7DE1B343D9D28B0
330
7DE1B343D9D28D7
100
AcDbEntity
  8
TEXT
100
AcDbPolyline
 90
        2
 70
     0
 43
0.0
 10
1.571972409834067
 20
-0.106184079401141
 10
1.571972409834067
 20
-0.1496750243515792
  0
LINE
  5
7DE1B343D9D28B4
330
7DE1B343D9D28D7
100
AcDbEntity
  8
TEXT
100
AcDbLine
 10
1.948741570150916
 20
-0.1496750243515792
 30
0.0
 11
1.853249346787306
 21
0.0069047656959582
 31
0.0
  0
LINE
  5
7DE1B343D9D28B5
330
7DE1B343D9D28D7
100
AcDbEntity
  8
TEXT
100
AcDbLine
 10
1.87216319777471
 20
-0.1496750243515792
 30
0.0
 11
1.948741570150916
 21
-0.1496750243515792
 31
0.0
  0
LINE
  5
7DE1B343D9D28B6
330
7DE1B343D9D28D7
100
AcDbEntity
  8
TEXT
100
AcDbLine
 10
1.796259664563246
 20
-0.018095455875399
 30
0.0
 11
1.87216319777471
 21
-0.1496750243515792
 31
0.0
  0
LINE
  5
7DE1B343D9D28B7
330
7DE1B343D9D28D7
100
AcDbEntity
  8
TEXT
100
AcDbLine
 10
1.796259664563246
 20
-0.1496750243515792
 30
0.0
 11
1.796259664563246
 21
-0.018095455875399
 31
0.0
  0
LINE
  5
7DE1B343D9D28B8
330
7DE1B343D9D28D7
100
AcDbEntity
  8
TEXT
100
AcDbLine
 10
1.795716471467398
 20
0.1822622144045325
 30
0.0
 11
1.727401592918125
 21
0.1822622144045325
 31
0.0
  0
ARC
  5
7DE1B343D9D28B9
330
7DE1B343D9D28D7
100
AcDbEntity
  8
TEXT
100
AcDbCircle
 10
1.487045853876919
 20
0.0752144415160294
 30
0.0
 40
0.0416329381542859
100
AcDbArc
 50
26.56974201007528
 51
87.20939649401342
  0
LINE
  5
7DE1B343D9D28BA
330
7DE1B343D9D28D7
100
AcDbEntity
  8
TEXT
100
AcDbLine
 10
1.63192963882853
 20
0.1167980086369318
 30
0.0
 11
1.568032732529029
 21
0.1167980086369318
 31
0.0
  0
LINE
  5
7DE1B343D9D28BB
330
7DE1B343D9D28D7
100
AcDbEntity
  8
TEXT
100
AcDbLine
 10
1.63192963882853
 20
0.0892503587760572
 30
0.0
 11
1.63192963882853
 21
0.1167980086369318
 31
0.0
  0
ARC
  5
7DE1B343D9D28BC
330
7DE1B343D9D28D7
100
AcDbEntity
  8
TEXT
100
AcDbCircle
 10
1.663122455891638
 20
0.085552281354667
 30
0.0
 40
0.0314112657011332
100
AcDbArc
 50
95.88484768694724
 51
173.2388340632136
  0
LINE
  5
7DE1B343D9D28BD
330
7DE1B343D9D28D7
100
AcDbEntity
  8
TEXT
100
AcDbLine
 10
1.72740159291812
 20
0.1167980086369318
 30
0.0
 11
1.659901875268603
 21
0.1167980086369318
 31
0.0
  0
LINE
  5
7DE1B343D9D28BE
330
7DE1B343D9D28D7
100
AcDbEntity
  8
TEXT
100
AcDbLine
 10
1.727401592918125
 20
0.1822622144045325
 30
0.0
 11
1.72740159291812
 21
0.1167980086369318
 31
0.0
  0
LINE
  5
7DE1B343D9D28BF
330
7DE1B343D9D28D7
100
AcDbEntity
  8
TEXT
100
AcDbLine
 10
1.917806462753011
 20
0.1167980086369318
 30
0.0
 11
1.842814630023385
 21
0.1167980086369318
 31
0.0
  0
ENDSEC
  0
SECTION
  2
OBJECTS
  0
DICTIONARY
  5
7DE1B343D9D28CB
330
0
100
AcDbDictionary
  3
ACAD_GROUP
350
7DE1B343D9D28CC
  3
ACAD_LAYOUT
350
7DE1B343D9D28F1
  3
ACAD_MLINESTYLE
350
7DE1B343D9D28CD
  3
ACAD_PLOTSETTINGS
350
7DE1B343D9D28F2
  3
ACAD_PLOTSTYLENAME
350
7DE1B343D9D28EF
  3
ACDBHEADERROUNDTRIPXREC
350
7DE1B343D9D28FC
  3
ACDBVARIABLEDICTIONARY
350
7DE1B343D9D28F9
  0
DICTIONARY
  5
7DE1B343D9D291E
330
7DE1B343D9D28D7
100
AcDbDictionary
280
     1
  3
ACAD_LAYOUTSELFREF
360
7DE1B343D9D291F
  0
DICTIONARY
  5
7DE1B343D9D291C
330
7DE1B343D9D28D4
100
AcDbDictionary
280
     1
  3
ACAD_LAYOUTSELFREF
360
7DE1B343D9D291D
  0
DICTIONARY
  5
7DE1B343D9D28CC
102
{ACAD_REACTORS
330
7DE1B343D9D28CB
102
}
330
7DE1B343D9D28CB
100
AcDbDictionary
  0
DICTIONARY
  5
7DE1B343D9D28F1
102
{ACAD_REACTORS
330
7DE1B343D9D28CB
102
}
330
7DE1B343D9D28CB
100
AcDbDictionary
  0
DICTIONARY
  5
7DE1B343D9D28CD
102
{ACAD_REACTORS
330
7DE1B343D9D28CB
102
}
330
7DE1B343D9D28CB
100
AcDbDictionary
  3
STANDARD
350
7DE1B343D9D28DA
  0
DICTIONARY
  5
7DE1B343D9D28F2
102
{ACAD_REACTORS
330
7DE1B343D9D28CB
102
}
330
7DE1B343D9D28CB
100
AcDbDictionary
  0
ACDBDICTIONARYWDFLT
  5
7DE1B343D9D28EF
102
{ACAD_REACTORS
330
7DE1B343D9D28CB
102
}
330
7DE1B343D9D28CB
100
AcDbDictionary
281
     1
  3
Normal
350
7DE1B343D9D28F0
100
AcDbDictionaryWithDefault
340
7DE1B343D9D28F0
  0
DICTIONARY
  5
7DE1B343D9D28FC
102
{ACAD_REACTORS
330
7DE1B343D9D28CB
102
}
330
7DE1B343D9D28CB
100
AcDbDictionary
  3
CEPSNTYPE
350
7DE1B343D9D2906
  3
FINGERPRINTGUID
350
7DE1B343D9D2907
  3
HYPERLINKBASE
350
7DE1B343D9D28FF
  3
INSUNITS
350
7DE1B343D9D2905
  3
LAYOUTDICT
350
7DE1B343D9D2901
  3
LWETCUNION
350
7DE1B343D9D2904
  3
PLOTSETDICT
350
7DE1B343D9D2902
  3
PLOTSTYLNAMDICT
350
7DE1B343D9D2903
  3
PSVPSCALE
350
7DE1B343D9D2909
  3
PUCSBASE
350
7DE1B343D9D290C
  3
PUCSORGBACK
350
7DE1B343D9D2912
  3
PUCSORGBOTTOM
350
7DE1B343D9D290E
  3
PUCSORGFRONT
350
7DE1B343D9D2911
  3
PUCSORGLEFT
350
7DE1B343D9D290F
  3
PUCSORGRIGHT
350
7DE1B343D9D2910
  3
PUCSORGTOP
350
7DE1B343D9D290D
  3
PUCSORTHOREF
350
7DE1B343D9D290A
  3
PUCSORTHOVIEW
350
7DE1B343D9D290B
  3
STYLESHEET
350
7DE1B343D9D2900
  3
TSTACKALIGN
350
7DE1B343D9D28FD
  3
TSTACKSIZE
350
7DE1B343D9D28FE
  3
UCSBASE
350
7DE1B343D9D2915
  3
UCSORGBACK
350
7DE1B343D9D291B
  3
UCSORGBOTTOM
350
7DE1B343D9D2917
  3
UCSORGFRONT
350
7DE1B343D9D291A
  3
UCSORGLEFT
350
7DE1B343D9D2918
  3
UCSORGRIGHT
350
7DE1B343D9D2919
  3
UCSORGTOP
350
7DE1B343D9D2916
  3
UCSORTHOREF
350
7DE1B343D9D2913
  3
UCSORTHOVIEW
350
7DE1B343D9D2914
  3
VERSIONGUID
350
7DE1B343D9D2908
  0
DICTIONARY
  5
7DE1B343D9D28F9
102
{ACAD_REACTORS
330
7DE1B343D9D28CB
102
}
330
7DE1B343D9D28CB
100
AcDbDictionary
  3
DIMASSOC
350
7DE1B343D9D28FA
  0
XRECORD
  5
7DE1B343D9D291F
102
{ACAD_REACTORS
330
7DE1B343D9D291E
102
}
330
7DE1B343D9D291E
100
AcDbXrecord
340
7DE1B343D9D28D7
  0
XRECORD
  5
7DE1B343D9D291D
102
{ACAD_REACTORS
330
7DE1B343D9D291C
102
}
330
7DE1B343D9D291C
100
AcDbXrecord
340
7DE1B343D9D28D4
  0
MLINESTYLE
  5
7DE1B343D9D28DA
102
{ACAD_REACTORS
330
7DE1B343D9D28CD
102
}
330
7DE1B343D9D28CD
100
AcDbMlineStyle
  2
STANDARD
 70
     0
  3

 62
     0
 51
90.0
 52
90.0
 71
     2
 49
0.5
 62
   256
  6
BYLAYER
 49
-0.5
 62
   256
  6
BYLAYER
  0
ACDBPLACEHOLDER
  5
7DE1B343D9D28F0
102
{ACAD_REACTORS
330
7DE1B343D9D28EF
102
}
330
7DE1B343D9D28EF
100
AcDbPlaceHolder
280
     0
  0
XRECORD
  5
7DE1B343D9D2906
102
{ACAD_REACTORS
330
7DE1B343D9D28FC
102
}
330
7DE1B343D9D28FC
100
AcDbXrecord
 90
        0
  0
XRECORD
  5
7DE1B343D9D2907
102
{ACAD_REACTORS
330
7DE1B343D9D28FC
102
}
330
7DE1B343D9D28FC
100
AcDbXrecord
  1
{962A7880-8DB4-11D6-88E6-0090279574E7}
  0
XRECORD
  5
7DE1B343D9D28FF
102
{ACAD_REACTORS
330
7DE1B343D9D28FC
102
}
330
7DE1B343D9D28FC
100
AcDbXrecord
  1

  0
XRECORD
  5
7DE1B343D9D2905
102
{ACAD_REACTORS
330
7DE1B343D9D28FC
102
}
330
7DE1B343D9D28FC
100
AcDbXrecord
 90
        0
  0
XRECORD
  5
7DE1B343D9D2901
102
{ACAD_REACTORS
330
7DE1B343D9D28FC
102
}
330
7DE1B343D9D28FC
100
AcDbXrecord
340
7DE1B343D9D28F1
  0
XRECORD
  5
7DE1B343D9D2904
102
{ACAD_REACTORS
330
7DE1B343D9D28FC
102
}
330
7DE1B343D9D28FC
100
AcDbXrecord
 90
    14877
  0
XRECORD
  5
7DE1B343D9D2902
102
{ACAD_REACTORS
330
7DE1B343D9D28FC
102
}
330
7DE1B343D9D28FC
100
AcDbXrecord
340
7DE1B343D9D28F2
  0
XRECORD
  5
7DE1B343D9D2903
102
{ACAD_REACTORS
330
7DE1B343D9D28FC
102
}
330
7DE1B343D9D28FC
100
AcDbXrecord
340
7DE1B343D9D28EF
  0
XRECORD
  5
7DE1B343D9D2909
102
{ACAD_REACTORS
330
7DE1B343D9D28FC
102
}
330
7DE1B343D9D28FC
100
AcDbXrecord
 40
0.0
  0
XRECORD
  5
7DE1B343D9D290C
102
{ACAD_REACTORS
330
7DE1B343D9D28FC
102
}
330
7DE1B343D9D28FC
100
AcDbXrecord
340
0
  0
XRECORD
  5
7DE1B343D9D2912
102
{ACAD_REACTORS
330
7DE1B343D9D28FC
102
}
330
7DE1B343D9D28FC
100
AcDbXrecord
 10
0.0
 20
0.0
 30
0.0
  0
XRECORD
  5
7DE1B343D9D290E
102
{ACAD_REACTORS
330
7DE1B343D9D28FC
102
}
330
7DE1B343D9D28FC
100
AcDbXrecord
 10
0.0
 20
0.0
 30
0.0
  0
XRECORD
  5
7DE1B343D9D2911
102
{ACAD_REACTORS
330
7DE1B343D9D28FC
102
}
330
7DE1B343D9D28FC
100
AcDbXrecord
 10
0.0
 20
0.0
 30
0.0
  0
XRECORD
  5
7DE1B343D9D290F
102
{ACAD_REACTORS
330
7DE1B343D9D28FC
102
}
330
7DE1B343D9D28FC
100
AcDbXrecord
 10
0.0
 20
0.0
 30
0.0
  0
XRECORD
  5
7DE1B343D9D2910
102
{ACAD_REACTORS
330
7DE1B343D9D28FC
102
}
330
7DE1B343D9D28FC
100
AcDbXrecord
 10
0.0
 20
0.0
 30
0.0
  0
XRECORD
  5
7DE1B343D9D290D
102
{ACAD_REACTORS
330
7DE1B343D9D28FC
102
}
330
7DE1B343D9D28FC
100
AcDbXrecord
 10
0.0
 20
0.0
 30
0.0
  0
XRECORD
  5
7DE1B343D9D290A
102
{ACAD_REACTORS
330
7DE1B343D9D28FC
102
}
330
7DE1B343D9D28FC
100
AcDbXrecord
340
0
  0
XRECORD
  5
7DE1B343D9D290B
102
{ACAD_REACTORS
330
7DE1B343D9D28FC
102
}
330
7DE1B343D9D28FC
100
AcDbXrecord
 70
     0
  0
XRECORD
  5
7DE1B343D9D2900
102
{ACAD_REACTORS
330
7DE1B343D9D28FC
102
}
330
7DE1B343D9D28FC
100
AcDbXrecord
  1

  0
XRECORD
  5
7DE1B343D9D28FD
102
{ACAD_REACTORS
330
7DE1B343D9D28FC
102
}
330
7DE1B343D9D28FC
100
AcDbXrecord
 90
        1
  0
XRECORD
  5
7DE1B343D9D28FE
102
{ACAD_REACTORS
330
7DE1B343D9D28FC
102
}
330
7DE1B343D9D28FC
100
AcDbXrecord
 90
       70
  0
XRECORD
  5
7DE1B343D9D2915
102
{ACAD_REACTORS
330
7DE1B343D9D28FC
102
}
330
7DE1B343D9D28FC
100
AcDbXrecord
340
0
  0
XRECORD
  5
7DE1B343D9D291B
102
{ACAD_REACTORS
330
7DE1B343D9D28FC
102
}
330
7DE1B343D9D28FC
100
AcDbXrecord
 10
0.0
 20
0.0
 30
0.0
  0
XRECORD
  5
7DE1B343D9D2917
102
{ACAD_REACTORS
330
7DE1B343D9D28FC
102
}
330
7DE1B343D9D28FC
100
AcDbXrecord
 10
0.0
 20
0.0
 30
0.0
  0
XRECORD
  5
7DE1B343D9D291A
102
{ACAD_REACTORS
330
7DE1B343D9D28FC
102
}
330
7DE1B343D9D28FC
100
AcDbXrecord
 10
0.0
 20
0.0
 30
0.0
  0
XRECORD
  5
7DE1B343D9D2918
102
{ACAD_REACTORS
330
7DE1B343D9D28FC
102
}
330
7DE1B343D9D28FC
100
AcDbXrecord
 10
0.0
 20
0.0
 30
0.0
  0
XRECORD
  5
7DE1B343D9D2919
102
{ACAD_REACTORS
330
7DE1B343D9D28FC
102
}
330
7DE1B343D9D28FC
100
AcDbXrecord
 10
0.0
 20
0.0
 30
0.0
  0
XRECORD
  5
7DE1B343D9D2916
102
{ACAD_REACTORS
330
7DE1B343D9D28FC
102
}
330
7DE1B343D9D28FC
100
AcDbXrecord
 10
0.0
 20
0.0
 30
0.0
  0
XRECORD
  5
7DE1B343D9D2913
102
{ACAD_REACTORS
330
7DE1B343D9D28FC
102
}
330
7DE1B343D9D28FC
100
AcDbXrecord
340
0
  0
XRECORD
  5
7DE1B343D9D2914
102
{ACAD_REACTORS
330
7DE1B343D9D28FC
102
}
330
7DE1B343D9D28FC
100
AcDbXrecord
 70
     0
  0
XRECORD
  5
7DE1B343D9D2908
102
{ACAD_REACTORS
330
7DE1B343D9D28FC
102
}
330
7DE1B343D9D28FC
100
AcDbXrecord
  1
{962A7882-8DB4-11D6-88E6-0090279574E7}
  0
DICTIONARYVAR
  5
7DE1B343D9D28FA
102
{ACAD_REACTORS
330
7DE1B343D9D28F9
102
}
330
7DE1B343D9D28F9
100
DictionaryVariables
280
     0
  1
1
  0
ENDSEC
  0
EOF
