  0
SECTION
  2
HEADER
  9
$ACADVER
  1
AC1014
  9
$ACADMAINTVER
 70
     9
  9
$DWGCODEPAGE
  3
ANSI_1252
  9
$INSBASE
 10
2.609375
 20
1.5625
 30
0.0
  9
$EXTMIN
 10
0.8663934207728567
 20
0.8232313959174184
 30
0.0
  9
$EXTMAX
 10
4.351612742519986
 20
2.0625
 30
0.0
  9
$LIMMIN
 10
0.0
 20
0.0
  9
$LIMMAX
 10
18.0
 20
12.0
  9
$ORTHOMODE
 70
     1
  9
$REGENMODE
 70
     1
  9
$FILLMODE
 70
     1
  9
$QTEXTMODE
 70
     0
  9
$MIRRTEXT
 70
     0
  9
$DRAGMODE
 70
     2
  9
$LTSCALE
 40
1.0
  9
$OSMODE
 70
    39
  9
$ATTMODE
 70
     1
  9
$TEXTSIZE
 40
0.125
  9
$TRACEWID
 40
0.05
  9
$TEXTSTYLE
  7
ROMANS
  9
$CLAYER
  8
0
  9
$CELTYPE
  6
BYLAYER
  9
$CECOLOR
 62
   256
  9
$CELTSCALE
 40
1.0
  9
$DELOBJ
 70
     1
  9
$DISPSILH
 70
     1
  9
$DIMSCALE
 40
1.0
  9
$DIMASZ
 40
0.125
  9
$DIMEXO
 40
0.125
  9
$DIMDLI
 40
0.375
  9
$DIMRND
 40
0.0
  9
$DIMDLE
 40
0.0
  9
$DIMEXE
 40
0.125
  9
$DIMTP
 40
0.0
  9
$DIMTM
 40
0.0
  9
$DIMTXT
 40
0.125
  9
$DIMCEN
 40
-0.125
  9
$DIMTSZ
 40
0.0
  9
$DIMTOL
 70
     0
  9
$DIMLIM
 70
     0
  9
$DIMTIH
 70
     1
  9
$DIMTOH
 70
     1
  9
$DIMSE1
 70
     0
  9
$DIMSE2
 70
     0
  9
$DIMTAD
 70
     0
  9
$DIMZIN
 70
     4
  9
$DIMBLK
  1

  9
$DIMASO
 70
     1
  9
$DIMSHO
 70
     1
  9
$DIMPOST
  1

  9
$DIMAPOST
  1

  9
$DIMALT
 70
     0
  9
$DIMALTD
 70
     2
  9
$DIMALTF
 40
25.4
  9
$DIMLFAC
 40
1.0
  9
$DIMTOFL
 70
     0
  9
$DIMTVP
 40
0.0
  9
$DIMTIX
 70
     1
  9
$DIMSOXD
 70
     0
  9
$DIMSAH
 70
     0
  9
$DIMBLK1
  1

  9
$DIMBLK2
  1

  9
$DIMSTYLE
  2
STANDARD
  9
$DIMCLRD
 70
     0
  9
$DIMCLRE
 70
     0
  9
$DIMCLRT
 70
     0
  9
$DIMTFAC
 40
1.0
  9
$DIMGAP
 40
0.09
  9
$DIMJUST
 70
     0
  9
$DIMSD1
 70
     0
  9
$DIMSD2
 70
     0
  9
$DIMTOLJ
 70
     1
  9
$DIMTZIN
 70
     4
  9
$DIMALTZ
 70
     0
  9
$DIMALTTZ
 70
     0
  9
$DIMFIT
 70
     3
  9
$DIMUPT
 70
     0
  9
$DIMUNIT
 70
     2
  9
$DIMDEC
 70
     3
  9
$DIMTDEC
 70
     3
  9
$DIMALTU
 70
     2
  9
$DIMALTTD
 70
     2
  9
$DIMTXSTY
  7
ROMANS
  9
$DIMAUNIT
 70
     0
  9
$LUNITS
 70
     2
  9
$LUPREC
 70
     3
  9
$SKETCHINC
 40
0.1
  9
$FILLETRAD
 40
0.03125
  9
$AUNITS
 70
     0
  9
$AUPREC
 70
     0
  9
$MENU
  1
ACAD
  9
$ELEVATION
 40
0.0
  9
$PELEVATION
 40
0.0
  9
$THICKNESS
 40
0.0
  9
$LIMCHECK
 70
     0
  9
$BLIPMODE
 70
     0
  9
$CHAMFERA
 40
0.0
  9
$CHAMFERB
 40
0.0
  9
$CHAMFERC
 40
0.0
  9
$CHAMFERD
 40
0.0
  9
$SKPOLY
 70
     0
  9
$TDCREATE
 40
2448994.351327893
  9
$TDUPDATE
 40
2452458.298335092
  9
$TDINDWG
 40
0.0009823611
  9
$TDUSRTIMER
 40
0.0009823611
  9
$USRTIMER
 70
     1
  9
$ANGBASE
 50
0.0
  9
$ANGDIR
 70
     0
  9
$PDMODE
 70
     0
  9
$PDSIZE
 40
0.0
  9
$PLINEWID
 40
0.0
  9
$COORDS
 70
     2
  9
$SPLFRAME
 70
     0
  9
$SPLINETYPE
 70
     6
  9
$SPLINESEGS
 70
     8
  9
$ATTDIA
 70
     0
  9
$ATTREQ
 70
     1
  9
$HANDLING
 70
 22529
  9
$HANDSEED
  5
7DE1B343D9D25C5
  9
$SURFTAB1
 70
     6
  9
$SURFTAB2
 70
     6
  9
$SURFTYPE
 70
     6
  9
$SURFU
 70
     6
  9
$SURFV
 70
     6
  9
$UCSNAME
  2

  9
$UCSORG
 10
0.0
 20
0.0
 30
0.0
  9
$UCSXDIR
 10
1.0
 20
0.0
 30
0.0
  9
$UCSYDIR
 10
0.0
 20
1.0
 30
0.0
  9
$PUCSNAME
  2

  9
$PUCSORG
 10
0.0
 20
0.0
 30
0.0
  9
$PUCSXDIR
 10
1.0
 20
0.0
 30
0.0
  9
$PUCSYDIR
 10
0.0
 20
1.0
 30
0.0
  9
$USERI1
 70
     0
  9
$USERI2
 70
     0
  9
$USERI3
 70
     0
  9
$USERI4
 70
     0
  9
$USERI5
 70
     0
  9
$USERR1
 40
0.0
  9
$USERR2
 40
0.0
  9
$USERR3
 40
0.0
  9
$USERR4
 40
0.0
  9
$USERR5
 40
0.0
  9
$WORLDVIEW
 70
     1
  9
$SHADEDGE
 70
     3
  9
$SHADEDIF
 70
    70
  9
$TILEMODE
 70
     1
  9
$MAXACTVP
 70
    16
  9
$PINSBASE
 10
0.9231573977158943
 20
50.00000000000001
 30
1.62499997433539
  9
$PLIMCHECK
 70
     0
  9
$PEXTMIN
 10
1.000000000000000E+20
 20
1.000000000000000E+20
 30
1.000000000000000E+20
  9
$PEXTMAX
 10
-1.000000000000000E+20
 20
-1.000000000000000E+20
 30
-1.000000000000000E+20
  9
$PLIMMIN
 10
0.0
 20
0.0
  9
$PLIMMAX
 10
12.0
 20
9.0
  9
$UNITMODE
 70
     0
  9
$VISRETAIN
 70
     0
  9
$PLINEGEN
 70
     1
  9
$PSLTSCALE
 70
     0
  9
$TREEDEPTH
 70
  3020
  9
$PICKSTYLE
 70
     1
  9
$CMLSTYLE
  2
STANDARD
  9
$CMLJUST
 70
     0
  9
$CMLSCALE
 40
1.0
  9
$PROXYGRAPHICS
 70
     1
  9
$MEASUREMENT
 70
     0
  0
ENDSEC
  0
SECTION
  2
CLASSES
  0
CLASS
  1
LWPOLYLINE
  2
AcDbPolyline
  3
AutoCAD 2000
 90
        0
280
     0
281
     1
  0
CLASS
  1
ACDBDICTIONARYWDFLT
  2
AcDbDictionaryWithDefault
  3
AutoCAD 2000
 90
        0
280
     0
281
     0
  0
CLASS
  1
ACDBPLACEHOLDER
  2
AcDbPlaceHolder
  3
AutoCAD 2000
 90
        0
280
     0
281
     0
  0
CLASS
  1
LAYOUT
  2
AcDbLayout
  3
AutoCAD 2000
 90
        0
280
     0
281
     0
  0
CLASS
  1
DICTIONARYVAR
  2
AcDbDictionaryVar
  3
AutoCAD 2000
 90
        0
280
     0
281
     0
  0
CLASS
  1
LONG_TRANSACTION
  2
AcDbLongTransaction
  3
AutoCAD 2000
 90
        0
280
     0
281
     0
  0
CLASS
  1
LWPOLYLINE
  2
AcDbPolyline
  3
AutoCAD 2000
 90
        0
280
     0
281
     1
  0
CLASS
  1
HATCH
  2
AcDbHatch
  3
AutoCAD 2000
 90
        0
280
     0
281
     1
  0
CLASS
  1
XRECORD
  2
AcDbXrecord
  3
AutoCAD 2000
 90
        0
280
     0
281
     0
  0
ENDSEC
  0
SECTION
  2
TABLES
  0
TABLE
  2
VPORT
  5
7DE1B343D9D256C
330
0
100
AcDbSymbolTable
 70
     2
  0
VPORT
  5
7DE1B343D9D25A0
330
7DE1B343D9D256C
100
AcDbSymbolTableRecord
100
AcDbViewportTableRecord
  2
*ACTIVE
 70
     0
 10
0.0
 20
0.0
 11
1.0
 21
1.0
 12
5.585726582297536
 22
1.442962669118962
 13
0.0
 23
0.0
 14
0.015625
 24
0.015625
 15
0.0
 25
0.0
 16
0.0
 26
0.0
 36
1.0
 17
0.0
 27
0.0
 37
0.0
 40
2.282647215150728
 41
4.320930232558139
 42
50.0
 43
0.0
 44
0.0
 50
0.0
 51
0.0
 71
     0
 72
  2000
 73
     1
 74
     0
 75
     1
 76
     0
 77
     0
 78
     0
  0
ENDTAB
  0
TABLE
  2
LTYPE
  5
7DE1B343D9D2569
330
0
100
AcDbSymbolTable
 70
     1
  0
LTYPE
  5
7DE1B343D9D2576
330
7DE1B343D9D2569
100
AcDbSymbolTableRecord
100
AcDbLinetypeTableRecord
  2
BYBLOCK
 70
     0
  3

 72
    65
 73
     0
 40
0.0
  0
LTYPE
  5
7DE1B343D9D2577
330
7DE1B343D9D2569
100
AcDbSymbolTableRecord
100
AcDbLinetypeTableRecord
  2
BYLAYER
 70
     0
  3

 72
    65
 73
     0
 40
0.0
  0
LTYPE
  5
7DE1B343D9D2578
330
7DE1B343D9D2569
100
AcDbSymbolTableRecord
100
AcDbLinetypeTableRecord
  2
CONTINUOUS
 70
     0
  3
Solid line
 72
    65
 73
     0
 40
0.0
  0
ENDTAB
  0
TABLE
  2
LAYER
  5
7DE1B343D9D2566
330
0
100
AcDbSymbolTable
 70
     2
  0
LAYER
  5
7DE1B343D9D2573
330
7DE1B343D9D2566
100
AcDbSymbolTableRecord
100
AcDbLayerTableRecord
  2
0
 70
     0
 62
     7
  6
CONTINUOUS
  0
LAYER
  5
7DE1B343D9D2583
330
7DE1B343D9D2566
100
AcDbSymbolTableRecord
100
AcDbLayerTableRecord
  2
TEXT
 70
     0
 62
     3
  6
CONTINUOUS
  0
ENDTAB
  0
TABLE
  2
STYLE
  5
7DE1B343D9D2567
330
0
100
AcDbSymbolTable
 70
     3
  0
STYLE
  5
7DE1B343D9D2574
330
7DE1B343D9D2567
100
AcDbSymbolTableRecord
100
AcDbTextStyleTableRecord
  2
STANDARD
 70
     0
 40
0.0
 41
1.0
 50
0.0
 71
     0
 42
0.3125
  3
txt
  4

  0
STYLE
  5
7DE1B343D9D2580
330
7DE1B343D9D2567
100
AcDbSymbolTableRecord
100
AcDbTextStyleTableRecord
  2
ITALICC
 70
     0
 40
0.0
 41
1.0
 50
0.0
 71
     0
 42
0.125
  3
italicc
  4

  0
STYLE
  5
7DE1B343D9D2590
330
7DE1B343D9D2567
100
AcDbSymbolTableRecord
100
AcDbTextStyleTableRecord
  2
ROMANS
 70
     0
 40
0.0
 41
1.0
 50
0.0
 71
     0
 42
0.125
  3
romans.shx
  4

  0
ENDTAB
  0
TABLE
  2
VIEW
  5
7DE1B343D9D256A
330
0
100
AcDbSymbolTable
 70
     0
  0
ENDTAB
  0
TABLE
  2
UCS
  5
7DE1B343D9D256B
330
0
100
AcDbSymbolTable
 70
     0
  0
ENDTAB
  0
TABLE
  2
APPID
  5
7DE1B343D9D256D
330
0
100
AcDbSymbolTable
 70
     1
  0
APPID
  5
7DE1B343D9D2575
330
7DE1B343D9D256D
100
AcDbSymbolTableRecord
100
AcDbRegAppTableRecord
  2
ACAD
 70
     0
  0
ENDTAB
  0
TABLE
  2
DIMSTYLE
  5
7DE1B343D9D256E
330
0
100
AcDbSymbolTable
 70
     1
  0
DIMSTYLE
105
7DE1B343D9D2588
330
7DE1B343D9D256E
100
AcDbSymbolTableRecord
100
AcDbDimStyleTableRecord
  2
STANDARD
 70
     0
  3

  4

  5

  6

  7

 40
1.0
 41
0.125
 42
0.125
 43
0.375
 44
0.125
 45
0.0
 46
0.0
 47
0.0
 48
0.0
140
0.125
141
-0.125
142
0.0
143
25.4
144
1.0
145
0.0
146
1.0
147
0.09
 71
     0
 72
     0
 73
     1
 74
     1
 75
     0
 76
     0
 77
     0
 78
     4
170
     0
171
     2
172
     0
173
     0
174
     1
175
     0
176
     0
177
     0
178
     0
270
     2
271
     3
272
     3
273
     2
274
     2
340
7DE1B343D9D2590
275
     0
280
     0
281
     0
282
     0
283
     1
284
     4
285
     0
286
     0
287
     3
288
     0
  0
ENDTAB
  0
TABLE
  2
BLOCK_RECORD
  5
7DE1B343D9D2565
330
0
100
AcDbSymbolTable
 70
     0
  0
BLOCK_RECORD
  5
7DE1B343D9D257C
102
{ACAD_XDICTIONARY
360
7DE1B343D9D25C3
102
}
330
7DE1B343D9D2565
100
AcDbSymbolTableRecord
100
AcDbBlockTableRecord
  2
*MODEL_SPACE
  0
BLOCK_RECORD
  5
7DE1B343D9D2579
102
{ACAD_XDICTIONARY
360
7DE1B343D9D25C1
102
}
330
7DE1B343D9D2565
100
AcDbSymbolTableRecord
100
AcDbBlockTableRecord
  2
*PAPER_SPACE
  0
ENDTAB
  0
ENDSEC
  0
SECTION
  2
BLOCKS
  0
BLOCK
  5
7DE1B343D9D2586
330
7DE1B343D9D257C
100
AcDbEntity
  8
0
100
AcDbBlockBegin
  2
*MODEL_SPACE
 70
     0
 10
0.0
 20
0.0
 30
0.0
  3
*MODEL_SPACE
  1

  0
ENDBLK
  5
7DE1B343D9D2587
330
7DE1B343D9D257C
100
AcDbEntity
  8
0
100
AcDbBlockEnd
  0
BLOCK
  5
7DE1B343D9D2584
330
7DE1B343D9D2579
100
AcDbEntity
 67
     1
  8
0
100
AcDbBlockBegin
  2
*PAPER_SPACE
 70
     0
 10
0.0
 20
0.0
 30
0.0
  3
*PAPER_SPACE
  1

  0
ENDBLK
  5
7DE1B343D9D2585
330
7DE1B343D9D2579
100
AcDbEntity
 67
     1
  8
0
100
AcDbBlockEnd
  0
ENDSEC
  0
SECTION
  2
ENTITIES
  0
LWPOLYLINE
  5
7DE1B343D9D11A2
330
7DE1B343D9D257C
100
AcDbEntity
  8
0
100
AcDbPolyline
 90
        7
 70
     1
 43
0.0
 10
2.109375
 20
1.59375
 42
0.4142135623730951
 10
2.140625
 20
1.5625
 10
3.078125
 20
1.5625
 42
1.0
 10
3.078125
 20
1.625
 10
2.171875
 20
1.625
 10
2.171875
 20
2.03125
 42
1.0
 10
2.109375
 20
2.03125
  0
TEXT
  5
7DE1B343D9D2427
330
7DE1B343D9D257C
100
AcDbEntity
  8
TEXT
100
AcDbText
 10
1.856398809523809
 20
1.28125
 30
0.0
 40
0.125
  1
PART #110159
  7
ITALICC
 72
     1
 11
2.609375
 21
1.28125
 31
0.0
100
AcDbText
  0
TEXT
  5
7DE1B343D9D2428
330
7DE1B343D9D257C
100
AcDbEntity
  8
TEXT
100
AcDbText
 10
3.02268015825032
 20
0.8343273573276249
 30
0.0
 40
0.0522247191011236
  1
Phone  1-800-328-2495
 41
1.272321428571429
 72
     5
 11
4.351612742519984
 21
0.8343273573276249
 31
0.0
100
AcDbText
  0
TEXT
  5
7DE1B343D9D2429
330
7DE1B343D9D257C
100
AcDbEntity
  8
TEXT
100
AcDbText
 10
3.02268015825032
 20
1.114102638226501
 30
0.0
 40
0.0522247191011236
  1
Stylmark  Incorporated
 41
1.221428571428573
 72
     5
 11
4.351612742519984
 21
1.114102638226501
 31
0.0
100
AcDbText
  0
TEXT
  5
7DE1B343D9D242A
330
7DE1B343D9D257C
100
AcDbEntity
  8
TEXT
100
AcDbText
 10
3.02268015825032
 20
1.020844211260209
 30
0.0
 40
0.0522247191011236
  1
6536 Main St. N.E. * P.O. Box 32008
 41
0.8388932496075366
 72
     5
 11
4.351612742519984
 21
1.020844211260209
 31
0.0
100
AcDbText
  0
TEXT
  5
7DE1B343D9D242B
330
7DE1B343D9D257C
100
AcDbEntity
  8
TEXT
100
AcDbText
 10
3.02268015825032
 20
0.9275857842939171
 30
0.0
 40
0.0522247191011236
  1
Minneapolis, MN 55432-0008
 41
1.11444212721585
 72
     5
 11
4.351612742519984
 21
0.9275857842939171
 31
0.0
100
AcDbText
  0
LWPOLYLINE
  5
7DE1B343D9D242C
330
7DE1B343D9D257C
100
AcDbEntity
  8
TEXT
100
AcDbPolyline
 90
        3
 70
     0
 43
0.0006660908203125
 10
0.8667264661830129
 20
0.9479721199650597
 10
0.8667264661830129
 20
0.8347366805119321
 10
0.9799619056361352
 20
0.8347366805119321
  0
LWPOLYLINE
  5
7DE1B343D9D2431
330
7DE1B343D9D257C
100
AcDbEntity
  8
TEXT
100
AcDbPolyline
 90
        3
 70
     0
 43
0.0006660908203125
 10
0.8933700989955104
 20
0.9479721199650597
 10
0.8933700989955104
 20
0.8613803133244331
 10
0.9799619056361352
 20
0.8613803133244331
  0
LWPOLYLINE
  5
7DE1B343D9D2436
330
7DE1B343D9D257C
100
AcDbEntity
  8
TEXT
100
AcDbPolyline
 90
        2
 70
     0
 43
0.0001332181640625
 10
0.9399964564173872
 20
0.957963482269745
 10
0.8667264661830129
 20
0.9479721199650597
  0
LWPOLYLINE
  5
7DE1B343D9D243A
330
7DE1B343D9D257C
100
AcDbEntity
  8
TEXT
100
AcDbPolyline
 90
        2
 70
     0
 43
0.0001332181640625
 10
0.8933700989955104
 20
0.9479721199650597
 10
0.9533182728236377
 20
0.957963482269745
  0
LWPOLYLINE
  5
7DE1B343D9D243E
330
7DE1B343D9D257C
100
AcDbEntity
  8
TEXT
100
AcDbPolyline
 90
        2
 70
     0
 43
0.0001332181640625
 10
0.8933700989955104
 20
0.8613803133244331
 10
0.9533182728236377
 20
0.9213284871525587
  0
LWPOLYLINE
  5
7DE1B343D9D2442
330
7DE1B343D9D257C
100
AcDbEntity
  8
TEXT
100
AcDbPolyline
 90
        3
 70
     0
 43
0.0006660908203125
 10
0.9799619056361352
 20
1.101173008636935
 10
0.8667264661830129
 20
1.101173008636935
 10
0.8667264661830129
 20
0.9879375691838077
  0
LWPOLYLINE
  5
7DE1B343D9D2447
330
7DE1B343D9D257C
100
AcDbEntity
  8
TEXT
100
AcDbPolyline
 90
        3
 70
     0
 43
0.0006660908203125
 10
0.9799619056361352
 20
1.074529375824434
 10
0.8933700989955104
 20
1.074529375824434
 10
0.8933700989955104
 20
0.9879375691838077
  0
LWPOLYLINE
  5
7DE1B343D9D244C
330
7DE1B343D9D257C
100
AcDbEntity
  8
TEXT
100
AcDbPolyline
 90
        2
 70
     0
 43
0.0001332181640625
 10
0.8933700989955104
 20
1.074529375824434
 10
0.953318272823636
 20
1.014581201996308
  0
LWPOLYLINE
  5
7DE1B343D9D2450
330
7DE1B343D9D257C
100
AcDbEntity
  8
TEXT
100
AcDbPolyline
 90
        2
 70
     0
 43
0.0001332181640625
 10
0.8933700989955104
 20
0.9879375691838077
 10
0.953318272823636
 20
0.977946206879119
  0
LWPOLYLINE
  5
7DE1B343D9D2454
330
7DE1B343D9D257C
100
AcDbEntity
  8
TEXT
100
AcDbPolyline
 90
        2
 70
     0
 43
0.0001332181640625
 10
0.8667264661830129
 20
0.9879375691838077
 10
0.9399964564173872
 20
0.977946206879119
  0
LWPOLYLINE
  5
7DE1B343D9D2458
330
7DE1B343D9D257C
100
AcDbEntity
  8
TEXT
100
AcDbPolyline
 90
        2
 70
     0
 43
0.0006660908203125
 10
0.8933700989955104
 20
0.9479721199650597
 10
0.8667264661830129
 20
0.9479721199650597
  0
LWPOLYLINE
  5
7DE1B343D9D245C
330
7DE1B343D9D257C
100
AcDbEntity
  8
TEXT
100
AcDbPolyline
 90
        2
 70
     0
 43
0.0006660908203125
 10
0.8933700989955104
 20
0.9879375691838077
 10
0.8667264661830129
 20
0.9879375691838077
  0
LINE
  5
7DE1B343D9D2460
330
7DE1B343D9D257C
100
AcDbEntity
  8
TEXT
100
AcDbLine
 10
2.38191689530951
 20
1.036896313980166
 30
0.0
 11
2.274710621922221
 21
1.036896313980166
 31
0.0
  0
LINE
  5
7DE1B343D9D2461
330
7DE1B343D9D257C
100
AcDbEntity
  8
TEXT
100
AcDbLine
 10
2.410947793653988
 20
1.101173008636931
 30
0.0
 11
2.276115884436929
 21
1.101173008636931
 31
0.0
  0
ARC
  5
7DE1B343D9D2462
330
7DE1B343D9D257C
100
AcDbEntity
  8
TEXT
100
AcDbCircle
 10
2.335429980830246
 20
0.9319357593739155
 30
0.0
 40
0.0676855811441166
100
AcDbArc
 50
90.0
 51
153.7768192527749
  0
LWPOLYLINE
  5
7DE1B343D9D2463
330
7DE1B343D9D257C
100
AcDbEntity
  8
TEXT
100
AcDbPolyline
 90
        2
 70
     0
 43
0.0
 10
2.273678126467411
 20
0.878190920598859
 42
0.2901071551932823
 10
2.316754059335046
 20
0.8346999756484208
 42
5.328517124445801
  0
ARC
  5
7DE1B343D9D2467
330
7DE1B343D9D257C
100
AcDbEntity
  8
TEXT
100
AcDbCircle
 10
1.63029860315876
 20
0.8944923669864706
 30
0.0
 40
0.0601160179737537
100
AcDbArc
 50
180.0000000000003
 51
264.0521544866073
  0
LINE
  5
7DE1B343D9D2468
330
7DE1B343D9D257C
100
AcDbEntity
  8
TEXT
100
AcDbLine
 10
1.633813958784308
 20
1.135560926231069
 30
0.0
 11
1.573771353940301
 21
1.135560926231069
 31
0.0
  0
ARC
  5
7DE1B343D9D2469
330
7DE1B343D9D257C
100
AcDbEntity
  8
TEXT
100
AcDbCircle
 10
1.39803960104179
 20
1.01908554919043
 30
0.0
 40
0.0820874594465043
100
AcDbArc
 50
90.0
 51
270.0
  0
LWPOLYLINE
  5
7DE1B343D9D246A
330
7DE1B343D9D257C
100
AcDbEntity
  8
TEXT
100
AcDbPolyline
 90
        2
 70
     0
 43
0.0001332181640625
 10
0.9899532679408258
 20
1.027903018402555
 10
0.9799619056361352
 20
1.101173008636935
  0
LWPOLYLINE
  5
7DE1B343D9D246E
330
7DE1B343D9D257C
100
AcDbEntity
  8
TEXT
100
AcDbPolyline
 90
        2
 70
     0
 43
0.0001332181640625
 10
0.9799619056361352
 20
1.074529375824434
 10
0.9899532679408258
 20
1.014581201996308
  0
LWPOLYLINE
  5
7DE1B343D9D2472
330
7DE1B343D9D257C
100
AcDbEntity
  8
TEXT
100
AcDbPolyline
 90
        3
 70
     0
 43
0.0006660908203125
 10
1.133162794308012
 20
0.9879375691838077
 10
1.133162794308012
 20
1.101173008636935
 10
1.019927354854886
 20
1.101173008636935
  0
LWPOLYLINE
  5
7DE1B343D9D2477
330
7DE1B343D9D257C
100
AcDbEntity
  8
TEXT
100
AcDbPolyline
 90
        3
 70
     0
 43
0.0006660908203125
 10
1.106519161495511
 20
0.9879375691838077
 10
1.106519161495511
 20
1.074529375824434
 10
1.019927354854886
 20
1.074529375824434
  0
LWPOLYLINE
  5
7DE1B343D9D247C
330
7DE1B343D9D257C
100
AcDbEntity
  8
TEXT
100
AcDbPolyline
 90
        2
 70
     0
 43
0.0001332181640625
 10
1.106519161495511
 20
1.074529375824434
 10
1.046570987667387
 20
1.014581201996308
  0
LWPOLYLINE
  5
7DE1B343D9D2480
330
7DE1B343D9D257C
100
AcDbEntity
  8
TEXT
100
AcDbPolyline
 90
        2
 70
     0
 43
0.0001332181640625
 10
1.019927354854886
 20
1.074529375824434
 10
1.009935992550198
 20
1.014581201996308
  0
LWPOLYLINE
  5
7DE1B343D9D2484
330
7DE1B343D9D257C
100
AcDbEntity
  8
TEXT
100
AcDbPolyline
 90
        2
 70
     0
 43
0.0001332181640625
 10
1.019927354854886
 20
1.101173008636935
 10
1.009935992550198
 20
1.027903018402555
  0
LWPOLYLINE
  5
7DE1B343D9D2488
330
7DE1B343D9D257C
100
AcDbEntity
  8
TEXT
100
AcDbPolyline
 90
        2
 70
     0
 43
0.0001332181640625
 10
1.059892804073636
 20
0.977946206879119
 10
1.133162794308012
 20
0.9879375691838077
  0
LWPOLYLINE
  5
7DE1B343D9D248C
330
7DE1B343D9D257C
100
AcDbEntity
  8
TEXT
100
AcDbPolyline
 90
        2
 70
     0
 43
0.0001332181640625
 10
1.106519161495511
 20
0.9879375691838077
 10
1.046570987667387
 20
0.977946206879119
  0
LWPOLYLINE
  5
7DE1B343D9D2490
330
7DE1B343D9D257C
100
AcDbEntity
  8
TEXT
100
AcDbPolyline
 90
        2
 70
     0
 43
0.0001332181640625
 10
1.133162794308012
 20
0.9479721199650597
 10
1.059892804073636
 20
0.957963482269745
  0
LWPOLYLINE
  5
7DE1B343D9D2494
330
7DE1B343D9D257C
100
AcDbEntity
  8
TEXT
100
AcDbPolyline
 90
        2
 70
     0
 43
0.0001332181640625
 10
1.106519161495511
 20
0.9479721199650597
 10
1.046570987667387
 20
0.957963482269745
  0
LWPOLYLINE
  5
7DE1B343D9D2498
330
7DE1B343D9D257C
100
AcDbEntity
  8
TEXT
100
AcDbPolyline
 90
        2
 70
     0
 43
0.0001332181640625
 10
1.106519161495511
 20
0.8613803133244331
 10
1.046570987667387
 20
0.9213284871525587
  0
LWPOLYLINE
  5
7DE1B343D9D249C
330
7DE1B343D9D257C
100
AcDbEntity
  8
TEXT
100
AcDbPolyline
 90
        3
 70
     0
 43
0.0006660908203125
 10
1.019927354854886
 20
0.8613803133244331
 10
1.106519161495511
 20
0.8613803133244331
 10
1.106519161495511
 20
0.9479721199650597
  0
LWPOLYLINE
  5
7DE1B343D9D24A1
330
7DE1B343D9D257C
100
AcDbEntity
  8
TEXT
100
AcDbPolyline
 90
        3
 70
     0
 43
0.0006660908203125
 10
1.019927354854886
 20
0.8347366805119321
 10
1.133162794308012
 20
0.8347366805119321
 10
1.133162794308012
 20
0.9479721199650597
  0
LWPOLYLINE
  5
7DE1B343D9D24A6
330
7DE1B343D9D257C
100
AcDbEntity
  8
TEXT
100
AcDbPolyline
 90
        5
 70
     0
 43
0.0001332181640625
 10
0.9899532679408258
 20
0.9080066707463082
 10
0.9899532679408258
 20
0.9213284871525587
 10
0.9533182728236377
 20
0.9213284871525587
 10
0.9533182728236377
 20
0.957963482269745
 10
0.9399964564173872
 20
0.957963482269745
  0
LWPOLYLINE
  5
7DE1B343D9D24AD
330
7DE1B343D9D257C
100
AcDbEntity
  8
TEXT
100
AcDbPolyline
 90
        2
 70
     0
 43
0.0006660908203125
 10
0.9799619056361352
 20
0.8613803133244331
 10
0.9799619056361352
 20
0.8347366805119321
  0
LWPOLYLINE
  5
7DE1B343D9D24B1
330
7DE1B343D9D257C
100
AcDbEntity
  8
TEXT
100
AcDbPolyline
 90
        2
 70
     0
 43
0.0001332181640625
 10
0.9799619056361352
 20
0.8613803133244331
 10
0.9899532679408258
 20
0.9213284871525587
  0
LWPOLYLINE
  5
7DE1B343D9D24B5
330
7DE1B343D9D257C
100
AcDbEntity
  8
TEXT
100
AcDbPolyline
 90
        2
 70
     0
 43
0.0001332181640625
 10
0.9799619056361352
 20
0.8347366805119321
 10
0.9899532679408258
 20
0.9080066707463082
  0
LWPOLYLINE
  5
7DE1B343D9D24B9
330
7DE1B343D9D257C
100
AcDbEntity
  8
TEXT
100
AcDbPolyline
 90
        5
 70
     0
 43
0.0001332181640625
 10
0.9399964564173872
 20
0.977946206879119
 10
0.953318272823636
 20
0.977946206879119
 10
0.953318272823636
 20
1.014581201996308
 10
0.9899532679408258
 20
1.014581201996308
 10
0.9899532679408258
 20
1.027903018402555
  0
LWPOLYLINE
  5
7DE1B343D9D24C0
330
7DE1B343D9D257C
100
AcDbEntity
  8
TEXT
100
AcDbPolyline
 90
        5
 70
     0
 43
0.0001332181640625
 10
1.009935992550198
 20
1.027903018402555
 10
1.009935992550198
 20
1.014581201996308
 10
1.046570987667387
 20
1.014581201996308
 10
1.046570987667387
 20
0.977946206879119
 10
1.059892804073636
 20
0.977946206879119
  0
LWPOLYLINE
  5
7DE1B343D9D24C7
330
7DE1B343D9D257C
100
AcDbEntity
  8
TEXT
100
AcDbPolyline
 90
        2
 70
     0
 43
0.0001332181640625
 10
1.019927354854886
 20
0.8613803133244331
 10
1.009935992550198
 20
0.9213284871525587
  0
LWPOLYLINE
  5
7DE1B343D9D24CB
330
7DE1B343D9D257C
100
AcDbEntity
  8
TEXT
100
AcDbPolyline
 90
        2
 70
     0
 43
0.0001332181640625
 10
1.009935992550198
 20
0.9080066707463082
 10
1.019927354854886
 20
0.8347366805119321
  0
LWPOLYLINE
  5
7DE1B343D9D24CF
330
7DE1B343D9D257C
100
AcDbEntity
  8
TEXT
100
AcDbPolyline
 90
        2
 70
     0
 43
0.0006660908203125
 10
1.019927354854886
 20
0.8613803133244331
 10
1.019927354854886
 20
0.8347366805119321
  0
LWPOLYLINE
  5
7DE1B343D9D24D3
330
7DE1B343D9D257C
100
AcDbEntity
  8
TEXT
100
AcDbPolyline
 90
        5
 70
     0
 43
0.0001332181640625
 10
1.059892804073636
 20
0.957963482269745
 10
1.046570987667387
 20
0.957963482269745
 10
1.046570987667387
 20
0.9213284871525587
 10
1.009935992550198
 20
0.9213284871525587
 10
1.009935992550198
 20
0.9080066707463082
  0
LWPOLYLINE
  5
7DE1B343D9D24DA
330
7DE1B343D9D257C
100
AcDbEntity
  8
TEXT
100
AcDbPolyline
 90
        2
 70
     0
 43
0.0006660908203125
 10
1.106519161495511
 20
0.9879375691838077
 10
1.133162794308012
 20
0.9879375691838077
  0
LWPOLYLINE
  5
7DE1B343D9D24DE
330
7DE1B343D9D257C
100
AcDbEntity
  8
TEXT
100
AcDbPolyline
 90
        2
 70
     0
 43
0.0006660908203125
 10
1.106519161495511
 20
0.9479721199650597
 10
1.133162794308012
 20
0.9479721199650597
  0
LINE
  5
7DE1B343D9D24E2
330
7DE1B343D9D257C
100
AcDbEntity
  8
TEXT
100
AcDbLine
 10
1.403276931156037
 20
1.036896313980166
 30
0.0
 11
1.570182585185008
 21
1.036896313980166
 31
0.0
  0
LINE
  5
7DE1B343D9D24E3
330
7DE1B343D9D257C
100
AcDbEntity
  8
TEXT
100
AcDbLine
 10
1.468877067400338
 20
1.001091592369538
 30
0.0
 11
1.403276931156037
 21
1.001091592369538
 31
0.0
  0
LINE
  5
7DE1B343D9D24E4
330
7DE1B343D9D257C
100
AcDbEntity
  8
TEXT
100
AcDbLine
 10
1.315952141595285
 20
0.8346999756484208
 30
0.0
 11
1.468877067400338
 21
0.8346999756484208
 31
0.0
  0
LINE
  5
7DE1B343D9D24E5
330
7DE1B343D9D257C
100
AcDbEntity
  8
TEXT
100
AcDbLine
 10
1.473817441306618
 20
0.9030569819818602
 30
0.0
 11
1.315952141595284
 21
0.9030569819818602
 31
0.0
  0
LINE
  5
7DE1B343D9D24E6
330
7DE1B343D9D257C
100
AcDbEntity
  8
TEXT
100
AcDbLine
 10
1.398039601041789
 20
0.9369980897439248
 30
0.0
 11
1.473817441306618
 21
0.9369980897439248
 31
0.0
  0
ARC
  5
7DE1B343D9D24E7
330
7DE1B343D9D257C
100
AcDbEntity
  8
TEXT
100
AcDbCircle
 10
1.403276931156038
 20
1.018993953174854
 30
0.0
 40
0.017902360805315
100
AcDbArc
 50
90.0
 51
270.0
  0
LINE
  5
7DE1B343D9D24E8
330
7DE1B343D9D257C
100
AcDbEntity
  8
TEXT
100
AcDbLine
 10
1.315952141595284
 20
0.9030569819818602
 30
0.0
 11
1.315952141595285
 21
0.8346999756484208
 31
0.0
  0
LINE
  5
7DE1B343D9D24E9
330
7DE1B343D9D257C
100
AcDbEntity
  8
TEXT
100
AcDbLine
 10
1.570182585185008
 20
1.036896313980166
 30
0.0
 11
1.570182585185008
 21
0.8944923669864706
 31
0.0
  0
ARC
  5
7DE1B343D9D24EA
330
7DE1B343D9D257C
100
AcDbEntity
  8
TEXT
100
AcDbCircle
 10
1.468877067400339
 20
0.9178957840089779
 30
0.0
 40
0.0831958083605586
100
AcDbArc
 50
270.0
 51
90.0
  0
ARC
  5
7DE1B343D9D24EB
330
7DE1B343D9D257C
100
AcDbEntity
  8
TEXT
100
AcDbCircle
 10
1.473817441306619
 20
0.9200275358628942
 30
0.0
 40
0.0169705538810321
100
AcDbArc
 50
270.0
 51
90.0
  0
LWPOLYLINE
  5
7DE1B343D9D24EC
330
7DE1B343D9D257C
100
AcDbEntity
  8
TEXT
100
AcDbPolyline
 90
        2
 70
     0
 43
0.0006660908203125
 10
0.9799619056361352
 20
1.074529375824434
 10
0.9799619056361352
 20
1.101173008636935
  0
LWPOLYLINE
  5
7DE1B343D9D24F0
330
7DE1B343D9D257C
100
AcDbEntity
  8
TEXT
100
AcDbPolyline
 90
        2
 70
     0
 43
0.0006660908203125
 10
1.019927354854886
 20
1.074529375824434
 10
1.019927354854886
 20
1.101173008636935
  0
LINE
  5
7DE1B343D9D24F4
330
7DE1B343D9D257C
100
AcDbEntity
  8
TEXT
100
AcDbLine
 10
1.573771353940301
 20
1.101173008636931
 30
0.0
 11
1.398039601041789
 21
1.101173008636931
 31
0.0
  0
LINE
  5
7DE1B343D9D24F5
330
7DE1B343D9D257C
100
AcDbEntity
  8
TEXT
100
AcDbLine
 10
1.573771353940301
 20
1.135560926231069
 30
0.0
 11
1.573771353940301
 21
1.101173008636931
 31
0.0
  0
LINE
  5
7DE1B343D9D24F6
330
7DE1B343D9D257C
100
AcDbEntity
  8
TEXT
100
AcDbLine
 10
1.764243245960154
 20
1.000301012523811
 30
0.0
 11
1.705612924928216
 21
1.101173008636931
 31
0.0
  0
LINE
  5
7DE1B343D9D24F7
330
7DE1B343D9D257C
100
AcDbEntity
  8
TEXT
100
AcDbLine
 10
1.822991808766019
 20
1.101173008636931
 30
0.0
 11
1.764243245960154
 21
1.000301012523811
 31
0.0
  0
LINE
  5
7DE1B343D9D24F8
330
7DE1B343D9D257C
100
AcDbEntity
  8
TEXT
100
AcDbLine
 10
1.91992243412576
 20
0.9170878137514201
 30
0.0
 11
1.91992243412576
 21
1.169184486375742
 31
0.0
  0
LINE
  5
7DE1B343D9D24F9
330
7DE1B343D9D257C
100
AcDbEntity
  8
TEXT
100
AcDbLine
 10
1.95223428826342
 20
1.101173008636931
 30
0.0
 11
1.95223428826342
 21
0.9003088019045236
 31
0.0
  0
LINE
  5
7DE1B343D9D24FA
330
7DE1B343D9D257C
100
AcDbEntity
  8
TEXT
100
AcDbLine
 10
1.95223428826342
 20
0.9003088019045236
 30
0.0
 11
1.935240651378819
 21
0.9003088019045236
 31
0.0
  0
LINE
  5
7DE1B343D9D24FB
330
7DE1B343D9D257C
100
AcDbEntity
  8
TEXT
100
AcDbLine
 10
1.921062007621955
 20
0.8346999756484208
 30
0.0
 11
2.01906534132139
 21
0.8346999756484208
 31
0.0
  0
LINE
  5
7DE1B343D9D24FC
330
7DE1B343D9D257C
100
AcDbEntity
  8
TEXT
100
AcDbLine
 10
1.754643008963199
 20
0.8546584817534338
 30
0.0
 11
1.851942715056644
 21
1.019008692688701
 31
0.0
  0
ARC
  5
7DE1B343D9D24FD
330
7DE1B343D9D257C
100
AcDbEntity
  8
TEXT
100
AcDbCircle
 10
1.720599449050985
 20
0.8742476979221166
 30
0.0
 40
0.0392772371940762
100
AcDbArc
 50
270.1604552698595
 51
330.0831797321295
  0
LINE
  5
7DE1B343D9D24FE
330
7DE1B343D9D257C
100
AcDbEntity
  8
TEXT
100
AcDbLine
 10
1.624069192665114
 20
0.8346999756484208
 30
0.0
 11
1.720709443740108
 21
0.8349706147467031
 31
0.0
  0
LWPOLYLINE
  5
7DE1B343D9D24FF
330
7DE1B343D9D257C
100
AcDbEntity
  8
TEXT
100
AcDbPolyline
 90
        6
 70
     1
 43
0.0
 10
1.666592996240264
 20
1.036896313980166
 10
1.636276402020055
 20
1.036896313980166
 10
1.636276402020055
 20
0.9137853159252721
 42
0.407328721240804
 10
1.647820053181532
 20
0.901966401248886
 10
1.708441752226263
 20
0.901966401248886
 10
1.725907092633581
 20
0.9347786302923651
  0
LINE
  5
7DE1B343D9D2507
330
7DE1B343D9D257C
100
AcDbEntity
  8
TEXT
100
AcDbLine
 10
1.851942715056644
 20
1.019008692688701
 30
0.0
 11
1.851942715056644
 21
0.8862513178633456
 31
0.0
  0
ARC
  5
7DE1B343D9D2508
330
7DE1B343D9D257C
100
AcDbEntity
  8
TEXT
100
AcDbCircle
 10
1.935240651378817
 20
0.915690608147949
 30
0.0
 40
0.0153818062434269
100
AcDbArc
 50
174.7883570302258
 51
270.0
  0
LWPOLYLINE
  5
7DE1B343D9D2509
330
7DE1B343D9D257C
100
AcDbEntity
  8
TEXT
100
AcDbPolyline
 90
        2
 70
     0
 43
0.0
 10
1.851942715056642
 20
0.8862513178633491
 42
0.3318488747599744
 10
1.921062007621955
 20
0.8346999756484208
 42
-6.868794160588311
  0
LINE
  5
7DE1B343D9D250D
330
7DE1B343D9D257C
100
AcDbEntity
  8
TEXT
100
AcDbLine
 10
2.076454410310651
 20
0.8346999756484208
 30
0.0
 11
2.143512457092491
 21
0.8346999756484208
 31
0.0
  0
LINE
  5
7DE1B343D9D250E
330
7DE1B343D9D257C
100
AcDbEntity
  8
TEXT
100
AcDbLine
 10
2.076454410310651
 20
1.029342524814056
 30
0.0
 11
2.076454410310651
 21
0.8346999756484208
 31
0.0
  0
LINE
  5
7DE1B343D9D250F
330
7DE1B343D9D257C
100
AcDbEntity
  8
TEXT
100
AcDbLine
 10
2.01906534132139
 20
1.036896313980166
 30
0.0
 11
2.068900621144537
 21
1.036896313980166
 31
0.0
  0
LINE
  5
7DE1B343D9D2510
330
7DE1B343D9D257C
100
AcDbEntity
  8
TEXT
100
AcDbLine
 10
2.01906534132139
 20
0.8346999756484208
 30
0.0
 11
2.01906534132139
 21
1.036896313980166
 31
0.0
  0
LWPOLYLINE
  5
7DE1B343D9D2511
330
7DE1B343D9D257C
100
AcDbEntity
  8
TEXT
100
AcDbPolyline
 90
        2
 70
     0
 43
0.0
 10
2.068900621144535
 20
1.036896313980166
 42
-0.4142135623731017
 10
2.076454410310649
 20
1.029342524814056
 42
-0.9999999999999998
  0
LINE
  5
7DE1B343D9D2515
330
7DE1B343D9D257C
100
AcDbEntity
  8
TEXT
100
AcDbLine
 10
2.274710621922221
 20
1.036896313980166
 30
0.0
 11
2.274710621922221
 21
0.9618439079059598
 31
0.0
  0
LINE
  5
7DE1B343D9D2516
330
7DE1B343D9D257C
100
AcDbEntity
  8
TEXT
100
AcDbLine
 10
2.143512457092491
 20
1.036896313980166
 30
0.0
 11
2.197646054013441
 21
1.036896313980166
 31
0.0
  0
LINE
  5
7DE1B343D9D2517
330
7DE1B343D9D257C
100
AcDbEntity
  8
TEXT
100
AcDbLine
 10
2.143512457092491
 20
0.8346999756484208
 30
0.0
 11
2.143512457092491
 21
1.036896313980166
 31
0.0
  0
LWPOLYLINE
  5
7DE1B343D9D2518
330
7DE1B343D9D257C
100
AcDbEntity
  8
TEXT
100
AcDbPolyline
 90
        2
 70
     0
 43
0.0
 10
2.197646054013439
 20
1.036896313980166
 42
-0.4142135623731017
 10
2.205199843179553
 20
1.029342524814056
 42
-0.9999999999999998
  0
LWPOLYLINE
  5
7DE1B343D9D251C
330
7DE1B343D9D257C
100
AcDbEntity
  8
TEXT
100
AcDbPolyline
 90
        4
 70
     0
 43
0.0
 10
2.205199843179553
 20
1.029342524814056
 10
2.205199843179553
 20
0.8346999756484208
 10
2.273678126467411
 20
0.8346999756484208
 10
2.273678126467411
 20
0.878190920598859
 42
-1.714843617202739
  0
LINE
  5
7DE1B343D9D2522
330
7DE1B343D9D257C
100
AcDbEntity
  8
TEXT
100
AcDbLine
 10
1.633813958784308
 20
1.101173008636931
 30
0.0
 11
1.633813958784308
 21
1.135560926231069
 31
0.0
  0
LINE
  5
7DE1B343D9D2523
330
7DE1B343D9D257C
100
AcDbEntity
  8
TEXT
100
AcDbLine
 10
1.705612924928216
 20
1.101173008636931
 30
0.0
 11
1.633813958784308
 21
1.101173008636931
 31
0.0
  0
LINE
  5
7DE1B343D9D2524
330
7DE1B343D9D257C
100
AcDbEntity
  8
TEXT
100
AcDbLine
 10
1.853113721559395
 20
1.101173008636931
 30
0.0
 11
1.822991808766019
 21
1.101173008636931
 31
0.0
  0
LINE
  5
7DE1B343D9D2525
330
7DE1B343D9D257C
100
AcDbEntity
  8
TEXT
100
AcDbLine
 10
1.853113721559395
 20
1.169184486375742
 30
0.0
 11
1.853113721559395
 21
1.101173008636931
 31
0.0
  0
LINE
  5
7DE1B343D9D2526
330
7DE1B343D9D257C
100
AcDbEntity
  8
TEXT
100
AcDbLine
 10
1.91992243412576
 20
1.169184486375742
 30
0.0
 11
1.853113721559395
 21
1.169184486375742
 31
0.0
  0
LWPOLYLINE
  5
7DE1B343D9D2527
330
7DE1B343D9D257C
100
AcDbEntity
  8
TEXT
100
AcDbPolyline
 90
        3
 70
     0
 43
0.0
 10
2.240334193723763
 20
1.101173008636935
 10
2.122034034907718
 20
1.101173008636935
 10
2.122034034907718
 20
1.074005511876039
 42
-1.960274751411753
  0
LINE
  5
7DE1B343D9D252C
330
7DE1B343D9D257C
100
AcDbEntity
  8
TEXT
100
AcDbLine
 10
2.086252344194557
 20
1.101173008636931
 30
0.0
 11
1.95223428826342
 21
1.101173008636931
 31
0.0
  0
LWPOLYLINE
  5
7DE1B343D9D252D
330
7DE1B343D9D257C
100
AcDbEntity
  8
TEXT
100
AcDbPolyline
 90
        2
 70
     0
 43
0.0
 10
2.086252344194557
 20
1.101173008636935
 42
-0.3328679258950098
 10
2.122034034907718
 20
1.074005511876039
 42
6.772930709997214
  0
LINE
  5
7DE1B343D9D2531
330
7DE1B343D9D257C
100
AcDbEntity
  8
TEXT
100
AcDbLine
 10
2.276115884436929
 20
1.101173008636931
 30
0.0
 11
2.276115884436929
 21
1.072850462867287
 31
0.0
  0
LWPOLYLINE
  5
7DE1B343D9D2532
330
7DE1B343D9D257C
100
AcDbEntity
  8
TEXT
100
AcDbPolyline
 90
        2
 70
     0
 43
0.0
 10
2.240334193723763
 20
1.101173008636935
 42
-0.3277054968067132
 10
2.276115884436928
 20
1.072850462867291
 42
6.667889725900311
  0
LINE
  5
7DE1B343D9D2536
330
7DE1B343D9D257C
100
AcDbEntity
  8
TEXT
100
AcDbLine
 10
2.489907732529029
 20
0.9959610300835045
 30
0.0
 11
2.446156961347128
 21
1.078211306079649
 31
0.0
  0
LINE
  5
7DE1B343D9D2537
330
7DE1B343D9D257C
100
AcDbEntity
  8
TEXT
100
AcDbLine
 10
2.489907732529029
 20
1.101173008636931
 30
0.0
 11
2.489907732529029
 21
0.9959610300835045
 31
0.0
  0
LINE
  5
7DE1B343D9D2538
330
7DE1B343D9D257C
100
AcDbEntity
  8
TEXT
100
AcDbLine
 10
2.717591471467398
 20
1.025307682225393
 30
0.0
 11
2.717591471467398
 21
1.166637214404532
 31
0.0
  0
LINE
  5
7DE1B343D9D2539
330
7DE1B343D9D257C
100
AcDbEntity
  8
TEXT
100
AcDbLine
 10
2.764689630023383
 20
1.101173008636931
 30
0.0
 11
2.717591471467398
 21
1.025307682225393
 31
0.0
  0
LINE
  5
7DE1B343D9D253A
330
7DE1B343D9D257C
100
AcDbEntity
  8
TEXT
100
AcDbLine
 10
2.775124346787306
 20
0.9912797656959583
 30
0.0
 11
2.839681462753011
 21
1.101173008636931
 31
0.0
  0
LINE
  5
7DE1B343D9D253B
330
7DE1B343D9D257C
100
AcDbEntity
  8
TEXT
100
AcDbLine
 10
2.653756480244625
 20
0.8346999756484208
 30
0.0
 11
2.718134664563246
 21
0.8346999756484208
 31
0.0
  0
LWPOLYLINE
  5
7DE1B343D9D253C
330
7DE1B343D9D257C
100
AcDbEntity
  8
TEXT
100
AcDbPolyline
 90
        2
 70
     0
 43
0.0
 10
2.493847409834067
 20
0.878190920598859
 42
-0.2901071551932486
 10
2.450771476966423
 20
0.8346999756484208
 42
-5.328517124445184
  0
ARC
  5
7DE1B343D9D2540
330
7DE1B343D9D257C
100
AcDbEntity
  8
TEXT
100
AcDbCircle
 10
2.381916895309508
 20
1.008536938980169
 30
0.0
 40
0.028359375
100
AcDbArc
 50
25.78218179591245
 51
90.0
  0
LINE
  5
7DE1B343D9D2541
330
7DE1B343D9D257C
100
AcDbEntity
  8
TEXT
100
AcDbLine
 10
2.417717970613631
 20
0.9996213405180341
 30
0.0
 11
2.407453210200067
 21
1.020871880090728
 31
0.0
  0
LINE
  5
7DE1B343D9D2542
330
7DE1B343D9D257C
100
AcDbEntity
  8
TEXT
100
AcDbLine
 10
2.335429980830248
 20
0.9996213405180341
 30
0.0
 11
2.417717970613631
 21
0.9996213405180341
 31
0.0
  0
LWPOLYLINE
  5
7DE1B343D9D2543
330
7DE1B343D9D257C
100
AcDbEntity
  8
TEXT
100
AcDbPolyline
 90
        4
 70
     1
 43
0.0
 10
2.43064901189653
 20
0.9376639536324461
 10
2.341988693236672
 20
0.9376639536324461
 42
0.9999999999999998
 10
2.341988693236672
 20
0.8952654131285854
 10
2.43064901189653
 20
0.8952654131285854
 42
1.0
  0
LWPOLYLINE
  5
7DE1B343D9D2549
330
7DE1B343D9D257C
100
AcDbEntity
  8
TEXT
100
AcDbPolyline
 90
        2
 70
     0
 43
0.0
 10
2.316754059335046
 20
0.8346999756484208
 10
2.450771476966423
 20
0.8346999756484208
 42
0.9999999999999998
  0
LINE
  5
7DE1B343D9D254D
330
7DE1B343D9D257C
100
AcDbEntity
  8
TEXT
100
AcDbLine
 10
2.577108498952062
 20
1.036896313980166
 30
0.0
 11
2.65375648024462
 21
1.036896313980166
 31
0.0
  0
LINE
  5
7DE1B343D9D254E
330
7DE1B343D9D257C
100
AcDbEntity
  8
TEXT
100
AcDbLine
 10
2.65375648024462
 20
1.036896313980166
 30
0.0
 11
2.653756480244625
 21
0.8346999756484208
 31
0.0
  0
ARC
  5
7DE1B343D9D254F
330
7DE1B343D9D257C
100
AcDbEntity
  8
TEXT
100
AcDbCircle
 10
2.57710849895206
 20
1.011990438697503
 30
0.0
 40
0.0249058752826653
100
AcDbArc
 50
89.99971217465335
 51
179.9999999999985
  0
LINE
  5
7DE1B343D9D2550
330
7DE1B343D9D257C
100
AcDbEntity
  8
TEXT
100
AcDbLine
 10
2.552202623669403
 20
0.8346999756484208
 30
0.0
 11
2.552202623669398
 21
1.011990481079889
 31
0.0
  0
LWPOLYLINE
  5
7DE1B343D9D2551
330
7DE1B343D9D257C
100
AcDbEntity
  8
TEXT
100
AcDbPolyline
 90
        2
 70
     0
 43
0.0
 10
2.493847409834067
 20
0.8346999756484208
 10
2.552202623669401
 20
0.8346999756484208
  0
LWPOLYLINE
  5
7DE1B343D9D2555
330
7DE1B343D9D257C
100
AcDbEntity
  8
TEXT
100
AcDbPolyline
 90
        2
 70
     0
 43
0.0
 10
2.493847409834067
 20
0.878190920598859
 10
2.493847409834067
 20
0.8346999756484208
  0
LINE
  5
7DE1B343D9D2559
330
7DE1B343D9D257C
100
AcDbEntity
  8
TEXT
100
AcDbLine
 10
2.870616570150916
 20
0.8346999756484208
 30
0.0
 11
2.775124346787306
 21
0.9912797656959583
 31
0.0
  0
LINE
  5
7DE1B343D9D255A
330
7DE1B343D9D257C
100
AcDbEntity
  8
TEXT
100
AcDbLine
 10
2.79403819777471
 20
0.8346999756484208
 30
0.0
 11
2.870616570150916
 21
0.8346999756484208
 31
0.0
  0
LINE
  5
7DE1B343D9D255B
330
7DE1B343D9D257C
100
AcDbEntity
  8
TEXT
100
AcDbLine
 10
2.718134664563246
 20
0.9662795441246011
 30
0.0
 11
2.79403819777471
 21
0.8346999756484208
 31
0.0
  0
LINE
  5
7DE1B343D9D255C
330
7DE1B343D9D257C
100
AcDbEntity
  8
TEXT
100
AcDbLine
 10
2.718134664563246
 20
0.8346999756484208
 30
0.0
 11
2.718134664563246
 21
0.9662795441246011
 31
0.0
  0
LINE
  5
7DE1B343D9D255D
330
7DE1B343D9D257C
100
AcDbEntity
  8
TEXT
100
AcDbLine
 10
2.717591471467398
 20
1.166637214404532
 30
0.0
 11
2.649276592918125
 21
1.166637214404532
 31
0.0
  0
ARC
  5
7DE1B343D9D255E
330
7DE1B343D9D257C
100
AcDbEntity
  8
TEXT
100
AcDbCircle
 10
2.408920853876919
 20
1.059589441516029
 30
0.0
 40
0.0416329381542859
100
AcDbArc
 50
26.56974201007528
 51
87.20939649401342
  0
LINE
  5
7DE1B343D9D255F
330
7DE1B343D9D257C
100
AcDbEntity
  8
TEXT
100
AcDbLine
 10
2.55380463882853
 20
1.101173008636931
 30
0.0
 11
2.489907732529029
 21
1.101173008636931
 31
0.0
  0
LINE
  5
7DE1B343D9D2560
330
7DE1B343D9D257C
100
AcDbEntity
  8
TEXT
100
AcDbLine
 10
2.55380463882853
 20
1.073625358776057
 30
0.0
 11
2.55380463882853
 21
1.101173008636931
 31
0.0
  0
ARC
  5
7DE1B343D9D2561
330
7DE1B343D9D257C
100
AcDbEntity
  8
TEXT
100
AcDbCircle
 10
2.584997455891638
 20
1.069927281354666
 30
0.0
 40
0.0314112657011332
100
AcDbArc
 50
95.88484768694724
 51
173.2388340632136
  0
LINE
  5
7DE1B343D9D2562
330
7DE1B343D9D257C
100
AcDbEntity
  8
TEXT
100
AcDbLine
 10
2.64927659291812
 20
1.101173008636931
 30
0.0
 11
2.581776875268603
 21
1.101173008636931
 31
0.0
  0
LINE
  5
7DE1B343D9D2563
330
7DE1B343D9D257C
100
AcDbEntity
  8
TEXT
100
AcDbLine
 10
2.649276592918125
 20
1.166637214404532
 30
0.0
 11
2.64927659291812
 21
1.101173008636931
 31
0.0
  0
LINE
  5
7DE1B343D9D2564
330
7DE1B343D9D257C
100
AcDbEntity
  8
TEXT
100
AcDbLine
 10
2.839681462753011
 20
1.101173008636931
 30
0.0
 11
2.764689630023385
 21
1.101173008636931
 31
0.0
  0
ENDSEC
  0
SECTION
  2
OBJECTS
  0
DICTIONARY
  5
7DE1B343D9D2570
330
0
100
AcDbDictionary
  3
ACAD_GROUP
350
7DE1B343D9D2571
  3
ACAD_LAYOUT
350
7DE1B343D9D2596
  3
ACAD_MLINESTYLE
350
7DE1B343D9D2572
  3
ACAD_PLOTSETTINGS
350
7DE1B343D9D2597
  3
ACAD_PLOTSTYLENAME
350
7DE1B343D9D2594
  3
ACDBHEADERROUNDTRIPXREC
350
7DE1B343D9D25A1
  3
ACDBVARIABLEDICTIONARY
350
7DE1B343D9D259E
  0
DICTIONARY
  5
7DE1B343D9D25C3
330
7DE1B343D9D257C
100
AcDbDictionary
280
     1
  3
ACAD_LAYOUTSELFREF
360
7DE1B343D9D25C4
  0
DICTIONARY
  5
7DE1B343D9D25C1
330
7DE1B343D9D2579
100
AcDbDictionary
280
     1
  3
ACAD_LAYOUTSELFREF
360
7DE1B343D9D25C2
  0
DICTIONARY
  5
7DE1B343D9D2571
102
{ACAD_REACTORS
330
7DE1B343D9D2570
102
}
330
7DE1B343D9D2570
100
AcDbDictionary
  0
DICTIONARY
  5
7DE1B343D9D2596
102
{ACAD_REACTORS
330
7DE1B343D9D2570
102
}
330
7DE1B343D9D2570
100
AcDbDictionary
  0
DICTIONARY
  5
7DE1B343D9D2572
102
{ACAD_REACTORS
330
7DE1B343D9D2570
102
}
330
7DE1B343D9D2570
100
AcDbDictionary
  3
STANDARD
350
7DE1B343D9D257F
  0
DICTIONARY
  5
7DE1B343D9D2597
102
{ACAD_REACTORS
330
7DE1B343D9D2570
102
}
330
7DE1B343D9D2570
100
AcDbDictionary
  0
ACDBDICTIONARYWDFLT
  5
7DE1B343D9D2594
102
{ACAD_REACTORS
330
7DE1B343D9D2570
102
}
330
7DE1B343D9D2570
100
AcDbDictionary
281
     1
  3
Normal
350
7DE1B343D9D2595
100
AcDbDictionaryWithDefault
340
7DE1B343D9D2595
  0
DICTIONARY
  5
7DE1B343D9D25A1
102
{ACAD_REACTORS
330
7DE1B343D9D2570
102
}
330
7DE1B343D9D2570
100
AcDbDictionary
  3
CEPSNTYPE
350
7DE1B343D9D25AB
  3
FINGERPRINTGUID
350
7DE1B343D9D25AC
  3
HYPERLINKBASE
350
7DE1B343D9D25A4
  3
INSUNITS
350
7DE1B343D9D25AA
  3
LAYOUTDICT
350
7DE1B343D9D25A6
  3
LWETCUNION
350
7DE1B343D9D25A9
  3
PLOTSETDICT
350
7DE1B343D9D25A7
  3
PLOTSTYLNAMDICT
350
7DE1B343D9D25A8
  3
PSVPSCALE
350
7DE1B343D9D25AE
  3
PUCSBASE
350
7DE1B343D9D25B1
  3
PUCSORGBACK
350
7DE1B343D9D25B7
  3
PUCSORGBOTTOM
350
7DE1B343D9D25B3
  3
PUCSORGFRONT
350
7DE1B343D9D25B6
  3
PUCSORGLEFT
350
7DE1B343D9D25B4
  3
PUCSORGRIGHT
350
7DE1B343D9D25B5
  3
PUCSORGTOP
350
7DE1B343D9D25B2
  3
PUCSORTHOREF
350
7DE1B343D9D25AF
  3
PUCSORTHOVIEW
350
7DE1B343D9D25B0
  3
STYLESHEET
350
7DE1B343D9D25A5
  3
TSTACKALIGN
350
7DE1B343D9D25A2
  3
TSTACKSIZE
350
7DE1B343D9D25A3
  3
UCSBASE
350
7DE1B343D9D25BA
  3
UCSORGBACK
350
7DE1B343D9D25C0
  3
UCSORGBOTTOM
350
7DE1B343D9D25BC
  3
UCSORGFRONT
350
7DE1B343D9D25BF
  3
UCSORGLEFT
350
7DE1B343D9D25BD
  3
UCSORGRIGHT
350
7DE1B343D9D25BE
  3
UCSORGTOP
350
7DE1B343D9D25BB
  3
UCSORTHOREF
350
7DE1B343D9D25B8
  3
UCSORTHOVIEW
350
7DE1B343D9D25B9
  3
VERSIONGUID
350
7DE1B343D9D25AD
  0
DICTIONARY
  5
7DE1B343D9D259E
102
{ACAD_REACTORS
330
7DE1B343D9D2570
102
}
330
7DE1B343D9D2570
100
AcDbDictionary
  3
DIMASSOC
350
7DE1B343D9D259F
  0
XRECORD
  5
7DE1B343D9D25C4
102
{ACAD_REACTORS
330
7DE1B343D9D25C3
102
}
330
7DE1B343D9D25C3
100
AcDbXrecord
340
7DE1B343D9D257C
  0
XRECORD
  5
7DE1B343D9D25C2
102
{ACAD_REACTORS
330
7DE1B343D9D25C1
102
}
330
7DE1B343D9D25C1
100
AcDbXrecord
340
7DE1B343D9D2579
  0
MLINESTYLE
  5
7DE1B343D9D257F
102
{ACAD_REACTORS
330
7DE1B343D9D2572
102
}
330
7DE1B343D9D2572
100
AcDbMlineStyle
  2
STANDARD
 70
     0
  3

 62
     0
 51
90.0
 52
90.0
 71
     2
 49
0.5
 62
   256
  6
BYLAYER
 49
-0.5
 62
   256
  6
BYLAYER
  0
ACDBPLACEHOLDER
  5
7DE1B343D9D2595
102
{ACAD_REACTORS
330
7DE1B343D9D2594
102
}
330
7DE1B343D9D2594
100
AcDbPlaceHolder
280
     0
  0
XRECORD
  5
7DE1B343D9D25AB
102
{ACAD_REACTORS
330
7DE1B343D9D25A1
102
}
330
7DE1B343D9D25A1
100
AcDbXrecord
 90
        0
  0
XRECORD
  5
7DE1B343D9D25AC
102
{ACAD_REACTORS
330
7DE1B343D9D25A1
102
}
330
7DE1B343D9D25A1
100
AcDbXrecord
  1
{91F097C0-8DB4-11D6-88E6-0090279574E7}
  0
XRECORD
  5
7DE1B343D9D25A4
102
{ACAD_REACTORS
330
7DE1B343D9D25A1
102
}
330
7DE1B343D9D25A1
100
AcDbXrecord
  1

  0
XRECORD
  5
7DE1B343D9D25AA
102
{ACAD_REACTORS
330
7DE1B343D9D25A1
102
}
330
7DE1B343D9D25A1
100
AcDbXrecord
 90
        0
  0
XRECORD
  5
7DE1B343D9D25A6
102
{ACAD_REACTORS
330
7DE1B343D9D25A1
102
}
330
7DE1B343D9D25A1
100
AcDbXrecord
340
7DE1B343D9D2596
  0
XRECORD
  5
7DE1B343D9D25A9
102
{ACAD_REACTORS
330
7DE1B343D9D25A1
102
}
330
7DE1B343D9D25A1
100
AcDbXrecord
 90
    14877
  0
XRECORD
  5
7DE1B343D9D25A7
102
{ACAD_REACTORS
330
7DE1B343D9D25A1
102
}
330
7DE1B343D9D25A1
100
AcDbXrecord
340
7DE1B343D9D2597
  0
XRECORD
  5
7DE1B343D9D25A8
102
{ACAD_REACTORS
330
7DE1B343D9D25A1
102
}
330
7DE1B343D9D25A1
100
AcDbXrecord
340
7DE1B343D9D2594
  0
XRECORD
  5
7DE1B343D9D25AE
102
{ACAD_REACTORS
330
7DE1B343D9D25A1
102
}
330
7DE1B343D9D25A1
100
AcDbXrecord
 40
0.0
  0
XRECORD
  5
7DE1B343D9D25B1
102
{ACAD_REACTORS
330
7DE1B343D9D25A1
102
}
330
7DE1B343D9D25A1
100
AcDbXrecord
340
0
  0
XRECORD
  5
7DE1B343D9D25B7
102
{ACAD_REACTORS
330
7DE1B343D9D25A1
102
}
330
7DE1B343D9D25A1
100
AcDbXrecord
 10
0.0
 20
0.0
 30
0.0
  0
XRECORD
  5
7DE1B343D9D25B3
102
{ACAD_REACTORS
330
7DE1B343D9D25A1
102
}
330
7DE1B343D9D25A1
100
AcDbXrecord
 10
0.0
 20
0.0
 30
0.0
  0
XRECORD
  5
7DE1B343D9D25B6
102
{ACAD_REACTORS
330
7DE1B343D9D25A1
102
}
330
7DE1B343D9D25A1
100
AcDbXrecord
 10
0.0
 20
0.0
 30
0.0
  0
XRECORD
  5
7DE1B343D9D25B4
102
{ACAD_REACTORS
330
7DE1B343D9D25A1
102
}
330
7DE1B343D9D25A1
100
AcDbXrecord
 10
0.0
 20
0.0
 30
0.0
  0
XRECORD
  5
7DE1B343D9D25B5
102
{ACAD_REACTORS
330
7DE1B343D9D25A1
102
}
330
7DE1B343D9D25A1
100
AcDbXrecord
 10
0.0
 20
0.0
 30
0.0
  0
XRECORD
  5
7DE1B343D9D25B2
102
{ACAD_REACTORS
330
7DE1B343D9D25A1
102
}
330
7DE1B343D9D25A1
100
AcDbXrecord
 10
0.0
 20
0.0
 30
0.0
  0
XRECORD
  5
7DE1B343D9D25AF
102
{ACAD_REACTORS
330
7DE1B343D9D25A1
102
}
330
7DE1B343D9D25A1
100
AcDbXrecord
340
0
  0
XRECORD
  5
7DE1B343D9D25B0
102
{ACAD_REACTORS
330
7DE1B343D9D25A1
102
}
330
7DE1B343D9D25A1
100
AcDbXrecord
 70
     0
  0
XRECORD
  5
7DE1B343D9D25A5
102
{ACAD_REACTORS
330
7DE1B343D9D25A1
102
}
330
7DE1B343D9D25A1
100
AcDbXrecord
  1

  0
XRECORD
  5
7DE1B343D9D25A2
102
{ACAD_REACTORS
330
7DE1B343D9D25A1
102
}
330
7DE1B343D9D25A1
100
AcDbXrecord
 90
        1
  0
XRECORD
  5
7DE1B343D9D25A3
102
{ACAD_REACTORS
330
7DE1B343D9D25A1
102
}
330
7DE1B343D9D25A1
100
AcDbXrecord
 90
       70
  0
XRECORD
  5
7DE1B343D9D25BA
102
{ACAD_REACTORS
330
7DE1B343D9D25A1
102
}
330
7DE1B343D9D25A1
100
AcDbXrecord
340
0
  0
XRECORD
  5
7DE1B343D9D25C0
102
{ACAD_REACTORS
330
7DE1B343D9D25A1
102
}
330
7DE1B343D9D25A1
100
AcDbXrecord
 10
0.0
 20
0.0
 30
0.0
  0
XRECORD
  5
7DE1B343D9D25BC
102
{ACAD_REACTORS
330
7DE1B343D9D25A1
102
}
330
7DE1B343D9D25A1
100
AcDbXrecord
 10
0.0
 20
0.0
 30
0.0
  0
XRECORD
  5
7DE1B343D9D25BF
102
{ACAD_REACTORS
330
7DE1B343D9D25A1
102
}
330
7DE1B343D9D25A1
100
AcDbXrecord
 10
0.0
 20
0.0
 30
0.0
  0
XRECORD
  5
7DE1B343D9D25BD
102
{ACAD_REACTORS
330
7DE1B343D9D25A1
102
}
330
7DE1B343D9D25A1
100
AcDbXrecord
 10
0.0
 20
0.0
 30
0.0
  0
XRECORD
  5
7DE1B343D9D25BE
102
{ACAD_REACTORS
330
7DE1B343D9D25A1
102
}
330
7DE1B343D9D25A1
100
AcDbXrecord
 10
0.0
 20
0.0
 30
0.0
  0
XRECORD
  5
7DE1B343D9D25BB
102
{ACAD_REACTORS
330
7DE1B343D9D25A1
102
}
330
7DE1B343D9D25A1
100
AcDbXrecord
 10
0.0
 20
0.0
 30
0.0
  0
XRECORD
  5
7DE1B343D9D25B8
102
{ACAD_REACTORS
330
7DE1B343D9D25A1
102
}
330
7DE1B343D9D25A1
100
AcDbXrecord
340
0
  0
XRECORD
  5
7DE1B343D9D25B9
102
{ACAD_REACTORS
330
7DE1B343D9D25A1
102
}
330
7DE1B343D9D25A1
100
AcDbXrecord
 70
     0
  0
XRECORD
  5
7DE1B343D9D25AD
102
{ACAD_REACTORS
330
7DE1B343D9D25A1
102
}
330
7DE1B343D9D25A1
100
AcDbXrecord
  1
{91F097C2-8DB4-11D6-88E6-0090279574E7}
  0
DICTIONARYVAR
  5
7DE1B343D9D259F
102
{ACAD_REACTORS
330
7DE1B343D9D259E
102
}
330
7DE1B343D9D259E
100
DictionaryVariables
280
     0
  1
1
  0
ENDSEC
  0
EOF
