  0
SECTION
  2
HEADER
  9
$ACADVER
  1
AC1014
  9
$ACADMAINTVER
 70
     9
  9
$DWGCODEPAGE
  3
ANSI_1252
  9
$INSBASE
 10
0.0
 20
0.0
 30
0.0
  9
$EXTMIN
 10
-0.3727993304981569
 20
0.1051102670907664
 30
0.0
  9
$EXTMAX
 10
3.112419991248971
 20
1.644123016155911
 30
0.0
  9
$LIMMIN
 10
0.0
 20
0.0
  9
$LIMMAX
 10
8.5
 20
11.0
  9
$ORTHOMODE
 70
     1
  9
$REGENMODE
 70
     1
  9
$FILLMODE
 70
     1
  9
$QTEXTMODE
 70
     0
  9
$MIRRTEXT
 70
     0
  9
$DRAGMODE
 70
     2
  9
$LTSCALE
 40
0.5
  9
$OSMODE
 70
    39
  9
$ATTMODE
 70
     1
  9
$TEXTSIZE
 40
0.125
  9
$TRACEWID
 40
0.05
  9
$TEXTSTYLE
  7
ROMANS
  9
$CLAYER
  8
0
  9
$CELTYPE
  6
BYLAYER
  9
$CECOLOR
 62
   256
  9
$CELTSCALE
 40
1.0
  9
$DELOBJ
 70
     1
  9
$DISPSILH
 70
     1
  9
$DIMSCALE
 40
1.0
  9
$DIMASZ
 40
0.125
  9
$DIMEXO
 40
0.125
  9
$DIMDLI
 40
0.375
  9
$DIMRND
 40
0.0
  9
$DIMDLE
 40
0.0
  9
$DIMEXE
 40
0.125
  9
$DIMTP
 40
0.0
  9
$DIMTM
 40
0.0
  9
$DIMTXT
 40
0.125
  9
$DIMCEN
 40
-0.125
  9
$DIMTSZ
 40
0.0
  9
$DIMTOL
 70
     0
  9
$DIMLIM
 70
     0
  9
$DIMTIH
 70
     1
  9
$DIMTOH
 70
     1
  9
$DIMSE1
 70
     0
  9
$DIMSE2
 70
     0
  9
$DIMTAD
 70
     0
  9
$DIMZIN
 70
     4
  9
$DIMBLK
  1

  9
$DIMASO
 70
     1
  9
$DIMSHO
 70
     1
  9
$DIMPOST
  1

  9
$DIMAPOST
  1

  9
$DIMALT
 70
     0
  9
$DIMALTD
 70
     2
  9
$DIMALTF
 40
25.4
  9
$DIMLFAC
 40
0.25
  9
$DIMTOFL
 70
     0
  9
$DIMTVP
 40
0.0
  9
$DIMTIX
 70
     1
  9
$DIMSOXD
 70
     0
  9
$DIMSAH
 70
     0
  9
$DIMBLK1
  1

  9
$DIMBLK2
  1

  9
$DIMSTYLE
  2
STANDARD
  9
$DIMCLRD
 70
     0
  9
$DIMCLRE
 70
     0
  9
$DIMCLRT
 70
     0
  9
$DIMTFAC
 40
1.0
  9
$DIMGAP
 40
0.09
  9
$DIMJUST
 70
     0
  9
$DIMSD1
 70
     0
  9
$DIMSD2
 70
     0
  9
$DIMTOLJ
 70
     1
  9
$DIMTZIN
 70
     0
  9
$DIMALTZ
 70
     0
  9
$DIMALTTZ
 70
     0
  9
$DIMFIT
 70
     3
  9
$DIMUPT
 70
     0
  9
$DIMUNIT
 70
     2
  9
$DIMDEC
 70
     3
  9
$DIMTDEC
 70
     4
  9
$DIMALTU
 70
     2
  9
$DIMALTTD
 70
     2
  9
$DIMTXSTY
  7
ROMANS
  9
$DIMAUNIT
 70
     0
  9
$LUNITS
 70
     2
  9
$LUPREC
 70
     3
  9
$SKETCHINC
 40
0.1
  9
$FILLETRAD
 40
0.0
  9
$AUNITS
 70
     0
  9
$AUPREC
 70
     0
  9
$MENU
  1
automstr
  9
$ELEVATION
 40
0.0
  9
$PELEVATION
 40
0.0
  9
$THICKNESS
 40
0.0
  9
$LIMCHECK
 70
     0
  9
$BLIPMODE
 70
     0
  9
$CHAMFERA
 40
0.0
  9
$CHAMFERB
 40
0.0
  9
$CHAMFERC
 40
0.0
  9
$CHAMFERD
 40
0.0
  9
$SKPOLY
 70
     0
  9
$TDCREATE
 40
2448170.530782986
  9
$TDUPDATE
 40
2452458.298252685
  9
$TDINDWG
 40
0.0900920023
  9
$TDUSRTIMER
 40
0.0900920023
  9
$USRTIMER
 70
     1
  9
$ANGBASE
 50
0.0
  9
$ANGDIR
 70
     0
  9
$PDMODE
 70
     0
  9
$PDSIZE
 40
0.0
  9
$PLINEWID
 40
0.0
  9
$COORDS
 70
     2
  9
$SPLFRAME
 70
     0
  9
$SPLINETYPE
 70
     6
  9
$SPLINESEGS
 70
     8
  9
$ATTDIA
 70
     0
  9
$ATTREQ
 70
     1
  9
$HANDLING
 70
 22529
  9
$HANDSEED
  5
56B
  9
$SURFTAB1
 70
     6
  9
$SURFTAB2
 70
     6
  9
$SURFTYPE
 70
     6
  9
$SURFU
 70
     6
  9
$SURFV
 70
     6
  9
$UCSNAME
  2

  9
$UCSORG
 10
0.0
 20
0.0
 30
0.0
  9
$UCSXDIR
 10
1.0
 20
0.0
 30
0.0
  9
$UCSYDIR
 10
0.0
 20
1.0
 30
0.0
  9
$PUCSNAME
  2

  9
$PUCSORG
 10
0.0
 20
0.0
 30
0.0
  9
$PUCSXDIR
 10
1.0
 20
0.0
 30
0.0
  9
$PUCSYDIR
 10
0.0
 20
1.0
 30
0.0
  9
$USERI1
 70
     0
  9
$USERI2
 70
     0
  9
$USERI3
 70
     0
  9
$USERI4
 70
     0
  9
$USERI5
 70
     0
  9
$USERR1
 40
0.0
  9
$USERR2
 40
0.0
  9
$USERR3
 40
0.0
  9
$USERR4
 40
0.0
  9
$USERR5
 40
0.0
  9
$WORLDVIEW
 70
     1
  9
$SHADEDGE
 70
     3
  9
$SHADEDIF
 70
    70
  9
$TILEMODE
 70
     1
  9
$MAXACTVP
 70
    16
  9
$PINSBASE
 10
0.0
 20
0.0
 30
0.0
  9
$PLIMCHECK
 70
     0
  9
$PEXTMIN
 10
1.000000000000000E+20
 20
1.000000000000000E+20
 30
1.000000000000000E+20
  9
$PEXTMAX
 10
-1.000000000000000E+20
 20
-1.000000000000000E+20
 30
-1.000000000000000E+20
  9
$PLIMMIN
 10
0.0
 20
0.0
  9
$PLIMMAX
 10
12.0
 20
9.0
  9
$UNITMODE
 70
     0
  9
$VISRETAIN
 70
     0
  9
$PLINEGEN
 70
     1
  9
$PSLTSCALE
 70
     0
  9
$TREEDEPTH
 70
  3020
  9
$PICKSTYLE
 70
     1
  9
$CMLSTYLE
  2
STANDARD
  9
$CMLJUST
 70
     0
  9
$CMLSCALE
 40
1.0
  9
$PROXYGRAPHICS
 70
     1
  9
$MEASUREMENT
 70
     0
  0
ENDSEC
  0
SECTION
  2
CLASSES
  0
CLASS
  1
LWPOLYLINE
  2
AcDbPolyline
  3
AutoCAD 2000
 90
        0
280
     0
281
     1
  0
CLASS
  1
ACDBDICTIONARYWDFLT
  2
AcDbDictionaryWithDefault
  3
AutoCAD 2000
 90
        0
280
     0
281
     0
  0
CLASS
  1
ACDBPLACEHOLDER
  2
AcDbPlaceHolder
  3
AutoCAD 2000
 90
        0
280
     0
281
     0
  0
CLASS
  1
LAYOUT
  2
AcDbLayout
  3
AutoCAD 2000
 90
        0
280
     0
281
     0
  0
CLASS
  1
DICTIONARYVAR
  2
AcDbDictionaryVar
  3
AutoCAD 2000
 90
        0
280
     0
281
     0
  0
CLASS
  1
LONG_TRANSACTION
  2
AcDbLongTransaction
  3
AutoCAD 2000
 90
        0
280
     0
281
     0
  0
CLASS
  1
LWPOLYLINE
  2
AcDbPolyline
  3
AutoCAD 2000
 90
        0
280
     0
281
     1
  0
CLASS
  1
HATCH
  2
AcDbHatch
  3
AutoCAD 2000
 90
        0
280
     0
281
     1
  0
CLASS
  1
XRECORD
  2
AcDbXrecord
  3
AutoCAD 2000
 90
        0
280
     0
281
     0
  0
ENDSEC
  0
SECTION
  2
TABLES
  0
TABLE
  2
VPORT
  5
8
330
0
100
AcDbSymbolTable
 70
     2
  0
VPORT
  5
546
330
8
100
AcDbSymbolTableRecord
100
AcDbViewportTableRecord
  2
*ACTIVE
 70
     0
 10
0.0
 20
0.0
 11
1.0
 21
1.0
 12
4.292107199361392
 22
0.8746810767945216
 13
0.0
 23
0.0
 14
0.25
 24
0.25
 15
0.0
 25
0.0
 16
0.0
 26
0.0
 36
1.0
 17
0.0
 27
0.0
 37
0.0
 40
2.163804503463297
 41
4.320930232558139
 42
50.0
 43
0.0
 44
0.0
 50
0.0
 51
0.0
 71
     0
 72
  2000
 73
     1
 74
     1
 75
     0
 76
     0
 77
     0
 78
     0
  0
ENDTAB
  0
TABLE
  2
LTYPE
  5
5
330
0
100
AcDbSymbolTable
 70
     1
  0
LTYPE
  5
12
330
5
100
AcDbSymbolTableRecord
100
AcDbLinetypeTableRecord
  2
BYBLOCK
 70
     0
  3

 72
    65
 73
     0
 40
0.0
  0
LTYPE
  5
13
330
5
100
AcDbSymbolTableRecord
100
AcDbLinetypeTableRecord
  2
BYLAYER
 70
     0
  3

 72
    65
 73
     0
 40
0.0
  0
LTYPE
  5
14
330
5
100
AcDbSymbolTableRecord
100
AcDbLinetypeTableRecord
  2
CONTINUOUS
 70
     0
  3
Solid line
 72
    65
 73
     0
 40
0.0
  0
ENDTAB
  0
TABLE
  2
LAYER
  5
2
330
0
100
AcDbSymbolTable
 70
     2
  0
LAYER
  5
F
330
2
100
AcDbSymbolTableRecord
100
AcDbLayerTableRecord
  2
0
 70
     0
 62
     7
  6
CONTINUOUS
  0
LAYER
  5
35
330
2
100
AcDbSymbolTableRecord
100
AcDbLayerTableRecord
  2
TEXT
 70
     0
 62
     3
  6
CONTINUOUS
  0
ENDTAB
  0
TABLE
  2
STYLE
  5
3
330
0
100
AcDbSymbolTable
 70
     3
  0
STYLE
  5
10
330
3
100
AcDbSymbolTableRecord
100
AcDbTextStyleTableRecord
  2
STANDARD
 70
     0
 40
0.0
 41
1.0
 50
0.0
 71
     0
 42
0.125
  3
txt
  4

  0
STYLE
  5
432
330
3
100
AcDbSymbolTableRecord
100
AcDbTextStyleTableRecord
  2
ITALICC
 70
     0
 40
0.0
 41
1.0
 50
0.0
 71
     0
 42
0.125
  3
italicc
  4

  0
STYLE
  5
542
330
3
100
AcDbSymbolTableRecord
100
AcDbTextStyleTableRecord
  2
ROMANS
 70
     0
 40
0.0
 41
1.0
 50
0.0
 71
     0
 42
0.125
  3
romans.shx
  4

  0
ENDTAB
  0
TABLE
  2
VIEW
  5
6
330
0
100
AcDbSymbolTable
 70
     0
  0
ENDTAB
  0
TABLE
  2
UCS
  5
7
330
0
100
AcDbSymbolTable
 70
     0
  0
ENDTAB
  0
TABLE
  2
APPID
  5
9
330
0
100
AcDbSymbolTable
 70
     1
  0
APPID
  5
11
330
9
100
AcDbSymbolTableRecord
100
AcDbRegAppTableRecord
  2
ACAD
 70
     0
  0
ENDTAB
  0
TABLE
  2
DIMSTYLE
  5
A
330
0
100
AcDbSymbolTable
 70
     1
  0
DIMSTYLE
105
426
330
A
100
AcDbSymbolTableRecord
100
AcDbDimStyleTableRecord
  2
STANDARD
 70
     0
  3

  4

  5

  6

  7

 40
1.0
 41
0.18
 42
0.0625
 43
0.38
 44
0.18
 45
0.0
 46
0.0
 47
0.0
 48
0.0
140
0.18
141
0.09
142
0.0
143
25.4
144
1.0
145
0.0
146
1.0
147
0.09
 71
     0
 72
     0
 73
     1
 74
     1
 75
     0
 76
     0
 77
     0
 78
     0
170
     0
171
     2
172
     0
173
     0
174
     0
175
     0
176
     0
177
     0
178
     0
270
     2
271
     4
272
     4
273
     2
274
     2
340
10
275
     0
280
     0
281
     0
282
     0
283
     1
284
     0
285
     0
286
     0
287
     3
288
     0
  0
ENDTAB
  0
TABLE
  2
BLOCK_RECORD
  5
1
330
0
100
AcDbSymbolTable
 70
     0
  0
BLOCK_RECORD
  5
18
102
{ACAD_XDICTIONARY
360
569
102
}
330
1
100
AcDbSymbolTableRecord
100
AcDbBlockTableRecord
  2
*MODEL_SPACE
  0
BLOCK_RECORD
  5
15
102
{ACAD_XDICTIONARY
360
567
102
}
330
1
100
AcDbSymbolTableRecord
100
AcDbBlockTableRecord
  2
*PAPER_SPACE
  0
ENDTAB
  0
ENDSEC
  0
SECTION
  2
BLOCKS
  0
BLOCK
  5
3D
330
18
100
AcDbEntity
  8
0
100
AcDbBlockBegin
  2
*MODEL_SPACE
 70
     0
 10
0.0
 20
0.0
 30
0.0
  3
*MODEL_SPACE
  1

  0
ENDBLK
  5
3E
330
18
100
AcDbEntity
  8
0
100
AcDbBlockEnd
  0
BLOCK
  5
3B
330
15
100
AcDbEntity
 67
     1
  8
0
100
AcDbBlockBegin
  2
*PAPER_SPACE
 70
     0
 10
0.0
 20
0.0
 30
0.0
  3
*PAPER_SPACE
  1

  0
ENDBLK
  5
3C
330
15
100
AcDbEntity
 67
     1
  8
0
100
AcDbBlockEnd
  0
ENDSEC
  0
SECTION
  2
ENTITIES
  0
LWPOLYLINE
  5
3E5
330
18
100
AcDbEntity
  8
0
100
AcDbPolyline
 90
       24
 70
     1
 43
0.0
 10
1.253642440855361
 20
1.554414935141697
 10
1.19863489028525
 20
1.609422485711808
 10
1.19863489028525
 20
1.521741244844676
 10
1.324146343945862
 20
1.396229791184064
 10
1.324146343945862
 20
1.382087655560333
 10
1.338288479569594
 20
1.382087655560333
 10
1.463799933230205
 20
1.256576201899721
 10
1.551481174097337
 20
1.256576201899721
 10
1.507640553663771
 20
1.300416822333287
 10
1.588846747486395
 20
1.381623016155911
 10
1.811142440855361
 20
1.381623016155911
 42
-1.0
 10
1.811142440855361
 20
1.331623016155911
 10
1.611142440855361
 20
1.331623016155911
 42
0.4142135623730951
 10
1.586142440855361
 20
1.306623016155911
 10
1.586142440855361
 20
0.9816230161559115
 42
-0.4142135623730951
 10
1.561142440855361
 20
0.9566230161559117
 10
1.273642440855361
 20
0.9566230161559124
 10
1.273642440855361
 20
1.006623016155911
 10
1.536142440855361
 20
1.006623016155911
 10
1.536142440855361
 20
1.206583752469832
 10
1.443081704541439
 20
1.206583752469832
 10
1.148642440855361
 20
1.501023016155911
 10
1.148642440855361
 20
1.644123016155911
 10
1.253642440855362
 20
1.644123016155911
  0
TEXT
  5
4B8
330
18
100
AcDbEntity
  8
TEXT
100
AcDbText
 10
0.617206058252796
 20
0.563128871173348
 30
0.0
 40
0.125
  1
PART #110158
  7
ITALICC
 72
     1
 11
1.370182248728986
 21
0.563128871173348
 31
0.0
100
AcDbText
  0
LINE
  5
4B9
330
18
100
AcDbEntity
  8
TEXT
100
AcDbLine
 10
1.525496878752369
 20
0.3830518798102798
 30
0.0
 11
1.478398720196385
 21
0.3071865533987417
 31
0.0
  0
LINE
  5
4BA
330
18
100
AcDbEntity
  8
TEXT
100
AcDbLine
 10
1.478398720196385
 20
0.3071865533987417
 30
0.0
 11
1.478398720196385
 21
0.4485160855778805
 31
0.0
  0
LINE
  5
4BB
330
18
100
AcDbEntity
  8
TEXT
100
AcDbLine
 10
1.478398720196385
 20
0.4485160855778805
 30
0.0
 11
1.410083841647112
 21
0.4485160855778805
 31
0.0
  0
LINE
  5
4BC
330
18
100
AcDbEntity
  8
TEXT
100
AcDbLine
 10
1.410083841647112
 20
0.4485160855778805
 30
0.0
 11
1.410083841647106
 21
0.3830518798102798
 31
0.0
  0
LINE
  5
4BD
330
18
100
AcDbEntity
  8
TEXT
100
AcDbLine
 10
1.535931595516292
 20
0.2731586368693062
 30
0.0
 11
1.600488711481998
 21
0.3830518798102798
 31
0.0
  0
LINE
  5
4BE
330
18
100
AcDbEntity
  8
TEXT
100
AcDbLine
 10
1.600488711481998
 20
0.3830518798102798
 30
0.0
 11
1.525496878752371
 21
0.3830518798102798
 31
0.0
  0
LINE
  5
4BF
330
18
100
AcDbEntity
  8
TEXT
100
AcDbLine
 10
1.414563728973612
 20
0.1165788468217688
 30
0.0
 11
1.478941913292232
 21
0.1165788468217688
 31
0.0
  0
LINE
  5
4C0
330
18
100
AcDbEntity
  8
TEXT
100
AcDbLine
 10
1.478941913292232
 20
0.1165788468217688
 30
0.0
 11
1.478941913292232
 21
0.248158415297949
 31
0.0
  0
LINE
  5
4C1
330
18
100
AcDbEntity
  8
TEXT
100
AcDbLine
 10
1.478941913292232
 20
0.248158415297949
 30
0.0
 11
1.554845446503697
 21
0.1165788468217688
 31
0.0
  0
LINE
  5
4C2
330
18
100
AcDbEntity
  8
TEXT
100
AcDbLine
 10
1.554845446503697
 20
0.1165788468217688
 30
0.0
 11
1.631423818879903
 21
0.1165788468217688
 31
0.0
  0
LINE
  5
4C3
330
18
100
AcDbEntity
  8
TEXT
100
AcDbLine
 10
1.414563728973607
 20
0.3187751851535143
 30
0.0
 11
1.414563728973612
 21
0.1165788468217688
 31
0.0
  0
LINE
  5
4C4
330
18
100
AcDbEntity
  8
TEXT
100
AcDbLine
 10
1.631423818879903
 20
0.1165788468217688
 30
0.0
 11
1.535931595516292
 21
0.2731586368693062
 31
0.0
  0
ARC
  5
4C5
330
18
100
AcDbEntity
  8
TEXT
100
AcDbCircle
 10
1.337915747681048
 20
0.2938693098708516
 30
0.0
 40
0.0249058752826653
100
AcDbArc
 50
89.99971217465335
 51
179.9999999999985
  0
ARC
  5
4C6
330
18
100
AcDbEntity
  8
TEXT
100
AcDbCircle
 10
1.345804704620626
 20
0.3518061525280149
 30
0.0
 40
0.0314112657011332
100
AcDbArc
 50
95.88484768694724
 51
173.2388340632136
  0
LINE
  5
4C7
330
18
100
AcDbEntity
  8
TEXT
100
AcDbLine
 10
1.314611887557517
 20
0.3555042299494051
 30
0.0
 11
1.314611887557517
 21
0.3830518798102798
 31
0.0
  0
LINE
  5
4C8
330
18
100
AcDbEntity
  8
TEXT
100
AcDbLine
 10
1.314611887557517
 20
0.3830518798102798
 30
0.0
 11
1.250714981258016
 21
0.3830518798102798
 31
0.0
  0
LINE
  5
4C9
330
18
100
AcDbEntity
  8
TEXT
100
AcDbLine
 10
1.250714981258016
 20
0.3830518798102798
 30
0.0
 11
1.250714981258016
 21
0.2778399012568524
 31
0.0
  0
LINE
  5
4CA
330
18
100
AcDbEntity
  8
TEXT
100
AcDbLine
 10
1.171755042382975
 20
0.3830518798102798
 30
0.0
 11
1.036923133165916
 21
0.3830518798102798
 31
0.0
  0
LINE
  5
4CB
330
18
100
AcDbEntity
  8
TEXT
100
AcDbLine
 10
1.036923133165916
 20
0.3830518798102798
 30
0.0
 11
1.036923133165916
 21
0.3547293340406359
 31
0.0
  0
LINE
  5
4CC
330
18
100
AcDbEntity
  8
TEXT
100
AcDbLine
 10
1.096237229559235
 20
0.281500211691382
 30
0.0
 11
1.178525219342618
 21
0.281500211691382
 31
0.0
  0
LINE
  5
4CD
330
18
100
AcDbEntity
  8
TEXT
100
AcDbLine
 10
1.178525219342618
 20
0.281500211691382
 30
0.0
 11
1.168260458929053
 21
0.3027507512640764
 31
0.0
  0
LINE
  5
4CE
330
18
100
AcDbEntity
  8
TEXT
100
AcDbLine
 10
1.142724144038496
 20
0.3187751851535143
 30
0.0
 11
1.035517870651207
 21
0.3187751851535143
 31
0.0
  0
ARC
  5
4CF
330
18
100
AcDbEntity
  8
TEXT
100
AcDbCircle
 10
1.142724144038496
 20
0.290415810153517
 30
0.0
 40
0.028359375
100
AcDbArc
 50
25.78218179591245
 51
90.0
  0
LINE
  5
4D0
330
18
100
AcDbEntity
  8
TEXT
100
AcDbLine
 10
1.250714981258016
 20
0.2778399012568524
 30
0.0
 11
1.206964210076114
 21
0.3600901772529976
 31
0.0
  0
ARC
  5
4D1
330
18
100
AcDbEntity
  8
TEXT
100
AcDbCircle
 10
1.169728102605906
 20
0.3414683126893774
 30
0.0
 40
0.0416329381542859
100
AcDbArc
 50
26.56974201007528
 51
87.20939649401342
  0
LWPOLYLINE
  5
4D2
330
18
100
AcDbEntity
  8
TEXT
100
AcDbPolyline
 90
        2
 70
     0
 43
0.0
 10
1.254654658563055
 20
0.1600697917722069
 42
-0.2901071551932486
 10
1.21157872569541
 20
0.1165788468217688
 42
-5.328517124445184
  0
LWPOLYLINE
  5
4D3
330
18
100
AcDbEntity
  8
TEXT
100
AcDbPolyline
 90
        2
 70
     0
 43
0.0
 10
1.254654658563055
 20
0.1600697917722069
 10
1.254654658563055
 20
0.1165788468217688
  0
LWPOLYLINE
  5
4D4
330
18
100
AcDbEntity
  8
TEXT
100
AcDbPolyline
 90
        2
 70
     0
 43
0.0
 10
1.254654658563055
 20
0.1165788468217688
 10
1.313009872398389
 20
0.1165788468217688
  0
LWPOLYLINE
  5
4D5
330
18
100
AcDbEntity
  8
TEXT
100
AcDbPolyline
 90
        2
 70
     0
 43
0.0
 10
1.034485375196398
 20
0.1600697917722069
 42
0.2901071551932823
 10
1.077561308064034
 20
0.1165788468217688
 42
5.328517124445801
  0
LWPOLYLINE
  5
4D6
330
18
100
AcDbEntity
  8
TEXT
100
AcDbPolyline
 90
        2
 70
     0
 43
0.0
 10
1.077561308064034
 20
0.1165788468217688
 10
1.21157872569541
 20
0.1165788468217688
 42
0.9999999999999998
  0
LWPOLYLINE
  5
4D7
330
18
100
AcDbEntity
  8
TEXT
100
AcDbPolyline
 90
        4
 70
     1
 43
0.0
 10
1.191456260625518
 20
0.219542824805794
 10
1.102795941965659
 20
0.219542824805794
 42
0.9999999999999998
 10
1.102795941965659
 20
0.1771442843019333
 10
1.191456260625518
 20
0.1771442843019333
 42
1.0
  0
ARC
  5
4D8
330
18
100
AcDbEntity
  8
TEXT
100
AcDbCircle
 10
1.096237229559234
 20
0.2138146305472635
 30
0.0
 40
0.0676855811441166
100
AcDbArc
 50
90.0
 51
153.7768192527749
  0
LINE
  5
4D9
330
18
100
AcDbEntity
  8
TEXT
100
AcDbLine
 10
1.31300987239839
 20
0.1165788468217688
 30
0.0
 11
1.313009872398384
 21
0.2938693522532372
 31
0.0
  0
LINE
  5
4DA
330
18
100
AcDbEntity
  8
TEXT
100
AcDbLine
 10
1.035517870651207
 20
0.3187751851535143
 30
0.0
 11
1.035517870651207
 21
0.2437227790793077
 31
0.0
  0
LINE
  5
4DB
330
18
100
AcDbEntity
  8
TEXT
100
AcDbLine
 10
1.337915747681049
 20
0.3187751851535143
 30
0.0
 11
1.414563728973607
 21
0.3187751851535143
 31
0.0
  0
LINE
  5
4DC
330
18
100
AcDbEntity
  8
TEXT
100
AcDbLine
 10
1.410083841647106
 20
0.3830518798102798
 30
0.0
 11
1.34258412399759
 21
0.3830518798102798
 31
0.0
  0
LWPOLYLINE
  5
4DD
330
18
100
AcDbEntity
  8
TEXT
100
AcDbPolyline
 90
        2
 70
     0
 43
0.0
 10
0.8297078698735234
 20
0.3187751851535143
 42
-0.4142135623731017
 10
0.8372616590396368
 20
0.3112213959874044
 42
-0.9999999999999998
  0
LWPOLYLINE
  5
4DE
330
18
100
AcDbEntity
  8
TEXT
100
AcDbPolyline
 90
        2
 70
     0
 43
0.0
 10
0.9584533027424271
 20
0.3187751851535143
 42
-0.4142135623731017
 10
0.9660070919085406
 20
0.3112213959874044
 42
-0.9999999999999998
  0
LWPOLYLINE
  5
4DF
330
18
100
AcDbEntity
  8
TEXT
100
AcDbPolyline
 90
        2
 70
     0
 43
0.0
 10
0.8470595929235447
 20
0.3830518798102833
 42
-0.3328679258950098
 10
0.8828412836367061
 20
0.3558843830493874
 42
6.772930709997214
  0
LWPOLYLINE
  5
4E0
330
18
100
AcDbEntity
  8
TEXT
100
AcDbPolyline
 90
        3
 70
     0
 43
0.0
 10
1.00114144245275
 20
0.3830518798102833
 10
0.8828412836367061
 20
0.3830518798102833
 10
0.8828412836367061
 20
0.3558843830493874
 42
-1.960274751411753
  0
LINE
  5
4E1
330
18
100
AcDbEntity
  8
TEXT
100
AcDbLine
 10
0.9043197058214778
 20
0.3187751851535143
 30
0.0
 11
0.958453302742428
 21
0.3187751851535143
 31
0.0
  0
LINE
  5
4E2
330
18
100
AcDbEntity
  8
TEXT
100
AcDbLine
 10
0.7798725900503767
 20
0.3187751851535143
 30
0.0
 11
0.8297078698735242
 21
0.3187751851535143
 31
0.0
  0
LINE
  5
4E3
330
18
100
AcDbEntity
  8
TEXT
100
AcDbLine
 10
0.8470595929235438
 20
0.3830518798102798
 30
0.0
 11
0.7130415369924075
 21
0.3830518798102798
 31
0.0
  0
LINE
  5
4E4
330
18
100
AcDbEntity
  8
TEXT
100
AcDbLine
 10
0.8372616590396377
 20
0.1165788468217688
 30
0.0
 11
0.9043197058214778
 21
0.1165788468217688
 31
0.0
  0
LINE
  5
4E5
330
18
100
AcDbEntity
  8
TEXT
100
AcDbLine
 10
0.6818692563509421
 20
0.1165788468217688
 30
0.0
 11
0.7798725900503767
 21
0.1165788468217688
 31
0.0
  0
LINE
  5
4E6
330
18
100
AcDbEntity
  8
TEXT
100
AcDbLine
 10
0.7130415369924075
 20
0.1821876730778715
 30
0.0
 11
0.6960479001078062
 21
0.1821876730778715
 31
0.0
  0
ARC
  5
4E7
330
18
100
AcDbEntity
  8
TEXT
100
AcDbCircle
 10
0.6960479001078053
 20
0.197569479321297
 30
0.0
 40
0.0153818062434269
100
AcDbArc
 50
174.7883570302258
 51
270.0
  0
LINE
  5
4E8
330
18
100
AcDbEntity
  8
TEXT
100
AcDbLine
 10
0.7798725900503767
 20
0.1165788468217688
 30
0.0
 11
0.7798725900503767
 21
0.3187751851535143
 31
0.0
  0
LINE
  5
4E9
330
18
100
AcDbEntity
  8
TEXT
100
AcDbLine
 10
0.8372616590396377
 20
0.3112213959874044
 30
0.0
 11
0.8372616590396377
 21
0.1165788468217688
 31
0.0
  0
LINE
  5
4EA
330
18
100
AcDbEntity
  8
TEXT
100
AcDbLine
 10
0.9043197058214778
 20
0.1165788468217688
 30
0.0
 11
0.9043197058214778
 21
0.3187751851535143
 31
0.0
  0
LINE
  5
4EB
330
18
100
AcDbEntity
  8
TEXT
100
AcDbLine
 10
0.7130415369924075
 20
0.3830518798102798
 30
0.0
 11
0.7130415369924075
 21
0.1821876730778715
 31
0.0
  0
LINE
  5
4EC
330
18
100
AcDbEntity
  8
TEXT
100
AcDbLine
 10
0.6807296828547474
 20
0.198966684924768
 30
0.0
 11
0.6807296828547474
 21
0.4510633575490904
 31
0.0
  0
LINE
  5
4ED
330
18
100
AcDbEntity
  8
TEXT
100
AcDbLine
 10
0.6139209702883824
 20
0.4510633575490904
 30
0.0
 11
0.6139209702883824
 21
0.3830518798102798
 31
0.0
  0
LINE
  5
4EE
330
18
100
AcDbEntity
  8
TEXT
100
AcDbLine
 10
0.6139209702883824
 20
0.3830518798102798
 30
0.0
 11
0.5837990574950061
 21
0.3830518798102798
 31
0.0
  0
LINE
  5
4EF
330
18
100
AcDbEntity
  8
TEXT
100
AcDbLine
 10
0.5837990574950061
 20
0.3830518798102798
 30
0.0
 11
0.5250504946891406
 21
0.2821798836971592
 31
0.0
  0
LINE
  5
4F0
330
18
100
AcDbEntity
  8
TEXT
100
AcDbLine
 10
0.5250504946891406
 20
0.2821798836971592
 30
0.0
 11
0.4664201736572027
 21
0.3830518798102798
 31
0.0
  0
LINE
  5
4F1
330
18
100
AcDbEntity
  8
TEXT
100
AcDbLine
 10
0.3946212075132953
 20
0.3830518798102798
 30
0.0
 11
0.3946212075132953
 21
0.417439797404418
 31
0.0
  0
LINE
  5
4F2
330
18
100
AcDbEntity
  8
TEXT
100
AcDbLine
 10
0.3946212075132953
 20
0.417439797404418
 30
0.0
 11
0.3345786026692883
 21
0.417439797404418
 31
0.0
  0
LINE
  5
4F3
330
18
100
AcDbEntity
  8
TEXT
100
AcDbLine
 10
0.3345786026692883
 20
0.417439797404418
 30
0.0
 11
0.3345786026692883
 21
0.3830518798102798
 31
0.0
  0
LINE
  5
4F4
330
18
100
AcDbEntity
  8
TEXT
100
AcDbLine
 10
0.4664201736572027
 20
0.3830518798102798
 30
0.0
 11
0.3946212075132953
 21
0.3830518798102798
 31
0.0
  0
ARC
  5
4F5
330
18
100
AcDbEntity
  8
TEXT
100
AcDbCircle
 10
0.4814066977799723
 20
0.1561265690954645
 30
0.0
 40
0.0392772371940762
100
AcDbArc
 50
270.1604552698595
 51
330.0831797321295
  0
ARC
  5
4F6
330
18
100
AcDbEntity
  8
TEXT
100
AcDbCircle
 10
0.3911058518877475
 20
0.1763712381598186
 30
0.0
 40
0.0601160179737537
100
AcDbArc
 50
180.0000000000003
 51
264.0521544866073
  0
LINE
  5
4F7
330
18
100
AcDbEntity
  8
TEXT
100
AcDbLine
 10
0.384876441394101
 20
0.1165788468217688
 30
0.0
 11
0.4815166924690955
 21
0.1168494859200511
 31
0.0
  0
LWPOLYLINE
  5
4F8
330
18
100
AcDbEntity
  8
TEXT
100
AcDbPolyline
 90
        6
 70
     1
 43
0.0
 10
0.4274002449692507
 20
0.3187751851535143
 10
0.3970836507490425
 20
0.3187751851535143
 10
0.3970836507490425
 20
0.19566418709862
 42
0.407328721240804
 10
0.4086273019105189
 20
0.1838452724222339
 10
0.4692490009552497
 20
0.1838452724222339
 10
0.4867143413625677
 20
0.216657501465713
  0
LINE
  5
4F9
330
18
100
AcDbEntity
  8
TEXT
100
AcDbLine
 10
0.3309898339139954
 20
0.3187751851535143
 30
0.0
 11
0.3309898339139954
 21
0.1763712381598186
 31
0.0
  0
LINE
  5
4FA
330
18
100
AcDbEntity
  8
TEXT
100
AcDbLine
 10
0.5154502576921863
 20
0.1365373529267817
 30
0.0
 11
0.6127499637856309
 21
0.3008875638620498
 31
0.0
  0
LINE
  5
4FB
330
18
100
AcDbEntity
  8
TEXT
100
AcDbLine
 10
0.6127499637856309
 20
0.3008875638620498
 30
0.0
 11
0.6127499637856309
 21
0.1681301890366935
 31
0.0
  0
LWPOLYLINE
  5
4FC
330
18
100
AcDbEntity
  8
TEXT
100
AcDbPolyline
 90
        2
 70
     0
 43
0.0
 10
0.61274996378563
 20
0.1681301890366971
 42
0.3318488747599744
 10
0.681869256350943
 20
0.1165788468217688
 42
-6.868794160588311
  0
LINE
  5
4FD
330
18
100
AcDbEntity
  8
TEXT
100
AcDbLine
 10
0.6807296828547474
 20
0.4510633575490904
 30
0.0
 11
0.6139209702883824
 21
0.4510633575490904
 31
0.0
  0
LWPOLYLINE
  5
4FE
330
18
100
AcDbEntity
  8
TEXT
100
AcDbPolyline
 90
        4
 70
     0
 43
0.0
 10
0.9660070919085406
 20
0.3112213959874044
 10
0.9660070919085406
 20
0.1165788468217688
 10
1.034485375196398
 20
0.1165788468217688
 10
1.034485375196398
 20
0.1600697917722069
 42
-1.714843617202739
  0
LWPOLYLINE
  5
4FF
330
18
100
AcDbEntity
  8
TEXT
100
AcDbPolyline
 90
        2
 70
     0
 43
0.0
 10
1.00114144245275
 20
0.3830518798102833
 42
-0.3277054968067132
 10
1.036923133165915
 20
0.3547293340406394
 42
6.667889725900311
  0
TEXT
  5
500
330
18
100
AcDbEntity
  8
TEXT
100
AcDbText
 10
1.783487406979308
 20
0.209464655467265
 30
0.0
 40
0.0522247191011236
  1
Minneapolis, MN 55432-0008
 41
1.11444212721585
 72
     5
 11
3.112419991248971
 21
0.209464655467265
 31
0.0
100
AcDbText
  0
TEXT
  5
501
330
18
100
AcDbEntity
  8
TEXT
100
AcDbText
 10
1.783487406979308
 20
0.3027230824335572
 30
0.0
 40
0.0522247191011236
  1
6536 Main St. N.E. * P.O. Box 32008
 41
0.8388932496075353
 72
     5
 11
3.112419991248971
 21
0.3027230824335572
 31
0.0
100
AcDbText
  0
TEXT
  5
502
330
18
100
AcDbEntity
  8
TEXT
100
AcDbText
 10
1.783487406979308
 20
0.3959815093998493
 30
0.0
 40
0.0522247191011236
  1
Stylmark  Incorporated
 41
1.221428571428571
 72
     5
 11
3.112419991248971
 21
0.3959815093998493
 31
0.0
100
AcDbText
  0
TEXT
  5
503
330
18
100
AcDbEntity
  8
TEXT
100
AcDbText
 10
1.783487406979308
 20
0.1162062285009728
 30
0.0
 40
0.0522247191011236
  1
Phone  1-800-328-2495
 41
1.272321428571429
 72
     5
 11
3.112419991248971
 21
0.1162062285009728
 31
0.0
100
AcDbText
  0
LINE
  5
504
330
18
100
AcDbEntity
  8
TEXT
100
AcDbLine
 10
0.229684316129326
 20
0.2829704635428864
 30
0.0
 11
0.164084179885025
 21
0.2829704635428864
 31
0.0
  0
ARC
  5
505
330
18
100
AcDbEntity
  8
TEXT
100
AcDbCircle
 10
0.164084179885025
 20
0.3008728243482022
 30
0.0
 40
0.017902360805315
100
AcDbArc
 50
90.0
 51
270.0
  0
LINE
  5
506
330
18
100
AcDbEntity
  8
TEXT
100
AcDbLine
 10
0.1588468497707769
 20
0.2188769609172727
 30
0.0
 11
0.2346246900356057
 21
0.2188769609172727
 31
0.0
  0
LINE
  5
507
330
18
100
AcDbEntity
  8
TEXT
100
AcDbLine
 10
0.2346246900356057
 20
0.1849358531552081
 30
0.0
 11
0.0767593903242716
 21
0.1849358531552081
 31
0.0
  0
LINE
  5
508
330
18
100
AcDbEntity
  8
TEXT
100
AcDbLine
 10
0.0767593903242734
 20
0.1165788468217688
 30
0.0
 11
0.229684316129326
 21
0.1165788468217688
 31
0.0
  0
ARC
  5
509
330
18
100
AcDbEntity
  8
TEXT
100
AcDbCircle
 10
0.1588468497707769
 20
0.300964420363778
 30
0.0
 40
0.0820874594465043
100
AcDbArc
 50
90.0
 51
270.0
  0
LINE
  5
50A
330
18
100
AcDbEntity
  8
TEXT
100
AcDbLine
 10
0.3345786026692883
 20
0.3830518798102798
 30
0.0
 11
0.1588468497707769
 21
0.3830518798102798
 31
0.0
  0
ARC
  5
50B
330
18
100
AcDbEntity
  8
TEXT
100
AcDbCircle
 10
0.2346246900356057
 20
0.2019064070362422
 30
0.0
 40
0.0169705538810321
100
AcDbArc
 50
270.0
 51
90.0
  0
ARC
  5
50C
330
18
100
AcDbEntity
  8
TEXT
100
AcDbCircle
 10
0.229684316129326
 20
0.1997746551823258
 30
0.0
 40
0.0831958083605586
100
AcDbArc
 50
270.0
 51
90.0
  0
LINE
  5
50D
330
18
100
AcDbEntity
  8
TEXT
100
AcDbLine
 10
0.164084179885025
 20
0.3187751851535143
 30
0.0
 11
0.3309898339139954
 21
0.3187751851535143
 31
0.0
  0
LWPOLYLINE
  5
50E
330
18
100
AcDbEntity
  8
TEXT
100
AcDbPolyline
 90
        2
 70
     0
 43
0.0006660908203125
 10
-0.1326735897755018
 20
0.2698164403571557
 10
-0.1060299569630008
 20
0.2698164403571557
  0
LINE
  5
50F
330
18
100
AcDbEntity
  8
TEXT
100
AcDbLine
 10
0.0767593903242716
 20
0.1849358531552081
 30
0.0
 11
0.0767593903242734
 21
0.1165788468217688
 31
0.0
  0
LWPOLYLINE
  5
510
330
18
100
AcDbEntity
  8
TEXT
100
AcDbPolyline
 90
        2
 70
     0
 43
0.0006660908203125
 10
-0.1326735897755018
 20
0.2298509911384077
 10
-0.1060299569630008
 20
0.2298509911384077
  0
LWPOLYLINE
  5
511
330
18
100
AcDbEntity
  8
TEXT
100
AcDbPolyline
 90
        2
 70
     0
 43
0.0001332181640625
 10
-0.2192653964161266
 20
0.3830518798102833
 10
-0.2292567587208154
 20
0.3097818895759037
  0
LWPOLYLINE
  5
512
330
18
100
AcDbEntity
  8
TEXT
100
AcDbPolyline
 90
        2
 70
     0
 43
0.0001332181640625
 10
-0.2192653964161266
 20
0.3564082469977823
 10
-0.2292567587208154
 20
0.2964600731696567
  0
LWPOLYLINE
  5
513
330
18
100
AcDbEntity
  8
TEXT
100
AcDbPolyline
 90
        2
 70
     0
 43
0.0006660908203125
 10
-0.2192653964161266
 20
0.3564082469977823
 10
-0.2192653964161266
 20
0.3830518798102833
  0
LWPOLYLINE
  5
514
330
18
100
AcDbEntity
  8
TEXT
100
AcDbPolyline
 90
        5
 70
     0
 43
0.0001332181640625
 10
-0.2292567587208154
 20
0.3097818895759037
 10
-0.2292567587208154
 20
0.2964600731696567
 10
-0.1926217636036256
 20
0.2964600731696567
 10
-0.1926217636036256
 20
0.2598250780524669
 10
-0.1792999471973768
 20
0.2598250780524669
  0
LWPOLYLINE
  5
515
330
18
100
AcDbEntity
  8
TEXT
100
AcDbPolyline
 90
        2
 70
     0
 43
0.0001332181640625
 10
-0.2592308456348782
 20
0.3564082469977823
 10
-0.2492394833301876
 20
0.2964600731696567
  0
LWPOLYLINE
  5
516
330
18
100
AcDbEntity
  8
TEXT
100
AcDbPolyline
 90
        2
 70
     0
 43
0.0001332181640625
 10
-0.2492394833301876
 20
0.3097818895759037
 10
-0.2592308456348782
 20
0.3830518798102833
  0
LWPOLYLINE
  5
517
330
18
100
AcDbEntity
  8
TEXT
100
AcDbPolyline
 90
        2
 70
     0
 43
0.0006660908203125
 10
-0.2592308456348782
 20
0.3564082469977823
 10
-0.2592308456348782
 20
0.3830518798102833
  0
LWPOLYLINE
  5
518
330
18
100
AcDbEntity
  8
TEXT
100
AcDbPolyline
 90
        5
 70
     0
 43
0.0001332181640625
 10
-0.2991962948536262
 20
0.2598250780524669
 10
-0.2858744784473774
 20
0.2598250780524669
 10
-0.2858744784473774
 20
0.2964600731696567
 10
-0.2492394833301876
 20
0.2964600731696567
 10
-0.2492394833301876
 20
0.3097818895759037
  0
LWPOLYLINE
  5
519
330
18
100
AcDbEntity
  8
TEXT
100
AcDbPolyline
 90
        2
 70
     0
 43
0.0006660908203125
 10
-0.345822652275503
 20
0.2698164403571557
 10
-0.3724662850880005
 20
0.2698164403571557
  0
LWPOLYLINE
  5
51A
330
18
100
AcDbEntity
  8
TEXT
100
AcDbPolyline
 90
        2
 70
     0
 43
0.0001332181640625
 10
-0.3724662850880005
 20
0.2698164403571557
 10
-0.2991962948536262
 20
0.2598250780524669
  0
LWPOLYLINE
  5
51B
330
18
100
AcDbEntity
  8
TEXT
100
AcDbPolyline
 90
        2
 70
     0
 43
0.0001332181640625
 10
-0.345822652275503
 20
0.2698164403571557
 10
-0.2858744784473774
 20
0.2598250780524669
  0
LWPOLYLINE
  5
51C
330
18
100
AcDbEntity
  8
TEXT
100
AcDbPolyline
 90
        2
 70
     0
 43
0.0001332181640625
 10
-0.345822652275503
 20
0.3564082469977823
 10
-0.2858744784473774
 20
0.2964600731696567
  0
LWPOLYLINE
  5
51D
330
18
100
AcDbEntity
  8
TEXT
100
AcDbPolyline
 90
        3
 70
     0
 43
0.0006660908203125
 10
-0.2592308456348782
 20
0.3564082469977823
 10
-0.345822652275503
 20
0.3564082469977823
 10
-0.345822652275503
 20
0.2698164403571557
  0
LWPOLYLINE
  5
51E
330
18
100
AcDbEntity
  8
TEXT
100
AcDbPolyline
 90
        3
 70
     0
 43
0.0006660908203125
 10
-0.2592308456348782
 20
0.3830518798102833
 10
-0.3724662850880005
 20
0.3830518798102833
 10
-0.3724662850880005
 20
0.2698164403571557
  0
LWPOLYLINE
  5
51F
330
18
100
AcDbEntity
  8
TEXT
100
AcDbPolyline
 90
        5
 70
     0
 43
0.0001332181640625
 10
-0.1792999471973768
 20
0.2398423534430929
 10
-0.1926217636036256
 20
0.2398423534430929
 10
-0.1926217636036256
 20
0.2032073583259066
 10
-0.2292567587208154
 20
0.2032073583259066
 10
-0.2292567587208154
 20
0.1898855419196561
  0
LWPOLYLINE
  5
520
330
18
100
AcDbEntity
  8
TEXT
100
AcDbPolyline
 90
        2
 70
     0
 43
0.0006660908203125
 10
-0.2192653964161266
 20
0.1432591844977811
 10
-0.2192653964161266
 20
0.11661555168528
  0
LWPOLYLINE
  5
521
330
18
100
AcDbEntity
  8
TEXT
100
AcDbPolyline
 90
        2
 70
     0
 43
0.0001332181640625
 10
-0.2292567587208154
 20
0.1898855419196561
 10
-0.2192653964161266
 20
0.11661555168528
  0
LWPOLYLINE
  5
522
330
18
100
AcDbEntity
  8
TEXT
100
AcDbPolyline
 90
        2
 70
     0
 43
0.0001332181640625
 10
-0.2192653964161266
 20
0.1432591844977811
 10
-0.2292567587208154
 20
0.2032073583259066
  0
LWPOLYLINE
  5
523
330
18
100
AcDbEntity
  8
TEXT
100
AcDbPolyline
 90
        2
 70
     0
 43
0.0001332181640625
 10
-0.2592308456348782
 20
0.11661555168528
 10
-0.2492394833301876
 20
0.1898855419196561
  0
LWPOLYLINE
  5
524
330
18
100
AcDbEntity
  8
TEXT
100
AcDbPolyline
 90
        2
 70
     0
 43
0.0001332181640625
 10
-0.2592308456348782
 20
0.1432591844977811
 10
-0.2492394833301876
 20
0.2032073583259066
  0
LWPOLYLINE
  5
525
330
18
100
AcDbEntity
  8
TEXT
100
AcDbPolyline
 90
        2
 70
     0
 43
0.0006660908203125
 10
-0.2592308456348782
 20
0.1432591844977811
 10
-0.2592308456348782
 20
0.11661555168528
  0
LWPOLYLINE
  5
526
330
18
100
AcDbEntity
  8
TEXT
100
AcDbPolyline
 90
        5
 70
     0
 43
0.0001332181640625
 10
-0.2492394833301876
 20
0.1898855419196561
 10
-0.2492394833301876
 20
0.2032073583259066
 10
-0.2858744784473757
 20
0.2032073583259066
 10
-0.2858744784473757
 20
0.2398423534430929
 10
-0.2991962948536262
 20
0.2398423534430929
  0
LWPOLYLINE
  5
527
330
18
100
AcDbEntity
  8
TEXT
100
AcDbPolyline
 90
        2
 70
     0
 43
0.0006660908203125
 10
-0.345822652275503
 20
0.2298509911384077
 10
-0.3724662850880005
 20
0.2298509911384077
  0
LWPOLYLINE
  5
528
330
18
100
AcDbEntity
  8
TEXT
100
AcDbPolyline
 90
        2
 70
     0
 43
0.0001332181640625
 10
-0.345822652275503
 20
0.1432591844977811
 10
-0.2858744784473757
 20
0.2032073583259066
  0
LWPOLYLINE
  5
529
330
18
100
AcDbEntity
  8
TEXT
100
AcDbPolyline
 90
        2
 70
     0
 43
0.0001332181640625
 10
-0.345822652275503
 20
0.2298509911384077
 10
-0.2858744784473757
 20
0.2398423534430929
  0
LWPOLYLINE
  5
52A
330
18
100
AcDbEntity
  8
TEXT
100
AcDbPolyline
 90
        2
 70
     0
 43
0.0001332181640625
 10
-0.2991962948536262
 20
0.2398423534430929
 10
-0.3724662850880005
 20
0.2298509911384077
  0
LWPOLYLINE
  5
52B
330
18
100
AcDbEntity
  8
TEXT
100
AcDbPolyline
 90
        3
 70
     0
 43
0.0006660908203125
 10
-0.345822652275503
 20
0.2298509911384077
 10
-0.345822652275503
 20
0.1432591844977811
 10
-0.2592308456348782
 20
0.1432591844977811
  0
LWPOLYLINE
  5
52C
330
18
100
AcDbEntity
  8
TEXT
100
AcDbPolyline
 90
        3
 70
     0
 43
0.0006660908203125
 10
-0.3724662850880005
 20
0.2298509911384077
 10
-0.3724662850880005
 20
0.11661555168528
 10
-0.2592308456348782
 20
0.11661555168528
  0
LWPOLYLINE
  5
52D
330
18
100
AcDbEntity
  8
TEXT
100
AcDbPolyline
 90
        3
 70
     0
 43
0.0006660908203125
 10
-0.2192653964161266
 20
0.11661555168528
 10
-0.1060299569630008
 20
0.11661555168528
 10
-0.1060299569630008
 20
0.2298509911384077
  0
LWPOLYLINE
  5
52E
330
18
100
AcDbEntity
  8
TEXT
100
AcDbPolyline
 90
        3
 70
     0
 43
0.0006660908203125
 10
-0.2192653964161266
 20
0.1432591844977811
 10
-0.1326735897755018
 20
0.1432591844977811
 10
-0.1326735897755018
 20
0.2298509911384077
  0
LWPOLYLINE
  5
52F
330
18
100
AcDbEntity
  8
TEXT
100
AcDbPolyline
 90
        2
 70
     0
 43
0.0001332181640625
 10
-0.1326735897755018
 20
0.1432591844977811
 10
-0.1926217636036256
 20
0.2032073583259066
  0
LWPOLYLINE
  5
530
330
18
100
AcDbEntity
  8
TEXT
100
AcDbPolyline
 90
        2
 70
     0
 43
0.0001332181640625
 10
-0.1326735897755018
 20
0.2298509911384077
 10
-0.1926217636036256
 20
0.2398423534430929
  0
LWPOLYLINE
  5
531
330
18
100
AcDbEntity
  8
TEXT
100
AcDbPolyline
 90
        2
 70
     0
 43
0.0001332181640625
 10
-0.1060299569630008
 20
0.2298509911384077
 10
-0.1792999471973768
 20
0.2398423534430929
  0
LWPOLYLINE
  5
532
330
18
100
AcDbEntity
  8
TEXT
100
AcDbPolyline
 90
        2
 70
     0
 43
0.0001332181640625
 10
-0.1326735897755018
 20
0.3564082469977823
 10
-0.1926217636036256
 20
0.2964600731696567
  0
LWPOLYLINE
  5
533
330
18
100
AcDbEntity
  8
TEXT
100
AcDbPolyline
 90
        2
 70
     0
 43
0.0001332181640625
 10
-0.1326735897755018
 20
0.2698164403571557
 10
-0.1926217636036256
 20
0.2598250780524669
  0
LWPOLYLINE
  5
534
330
18
100
AcDbEntity
  8
TEXT
100
AcDbPolyline
 90
        2
 70
     0
 43
0.0001332181640625
 10
-0.1792999471973768
 20
0.2598250780524669
 10
-0.1060299569630008
 20
0.2698164403571557
  0
LWPOLYLINE
  5
535
330
18
100
AcDbEntity
  8
TEXT
100
AcDbPolyline
 90
        3
 70
     0
 43
0.0006660908203125
 10
-0.1326735897755018
 20
0.2698164403571557
 10
-0.1326735897755018
 20
0.3564082469977823
 10
-0.2192653964161266
 20
0.3564082469977823
  0
LWPOLYLINE
  5
536
330
18
100
AcDbEntity
  8
TEXT
100
AcDbPolyline
 90
        3
 70
     0
 43
0.0006660908203125
 10
-0.1060299569630008
 20
0.2698164403571557
 10
-0.1060299569630008
 20
0.3830518798102833
 10
-0.2192653964161266
 20
0.3830518798102833
  0
ENDSEC
  0
SECTION
  2
OBJECTS
  0
DICTIONARY
  5
C
330
0
100
AcDbDictionary
  3
ACAD_GROUP
350
D
  3
ACAD_LAYOUT
350
53B
  3
ACAD_MLINESTYLE
350
E
  3
ACAD_PLOTSETTINGS
350
53C
  3
ACAD_PLOTSTYLENAME
350
539
  3
ACDBHEADERROUNDTRIPXREC
350
547
  3
ACDBVARIABLEDICTIONARY
350
544
  0
DICTIONARY
  5
569
330
18
100
AcDbDictionary
280
     1
  3
ACAD_LAYOUTSELFREF
360
56A
  0
DICTIONARY
  5
567
330
15
100
AcDbDictionary
280
     1
  3
ACAD_LAYOUTSELFREF
360
568
  0
DICTIONARY
  5
D
102
{ACAD_REACTORS
330
C
102
}
330
C
100
AcDbDictionary
  0
DICTIONARY
  5
53B
102
{ACAD_REACTORS
330
C
102
}
330
C
100
AcDbDictionary
  0
DICTIONARY
  5
E
102
{ACAD_REACTORS
330
C
102
}
330
C
100
AcDbDictionary
  3
STANDARD
350
1B
  0
DICTIONARY
  5
53C
102
{ACAD_REACTORS
330
C
102
}
330
C
100
AcDbDictionary
  0
ACDBDICTIONARYWDFLT
  5
539
102
{ACAD_REACTORS
330
C
102
}
330
C
100
AcDbDictionary
281
     1
  3
Normal
350
53A
100
AcDbDictionaryWithDefault
340
53A
  0
DICTIONARY
  5
547
102
{ACAD_REACTORS
330
C
102
}
330
C
100
AcDbDictionary
  3
CEPSNTYPE
350
551
  3
FINGERPRINTGUID
350
552
  3
HYPERLINKBASE
350
54A
  3
INSUNITS
350
550
  3
LAYOUTDICT
350
54C
  3
LWETCUNION
350
54F
  3
PLOTSETDICT
350
54D
  3
PLOTSTYLNAMDICT
350
54E
  3
PSVPSCALE
350
554
  3
PUCSBASE
350
557
  3
PUCSORGBACK
350
55D
  3
PUCSORGBOTTOM
350
559
  3
PUCSORGFRONT
350
55C
  3
PUCSORGLEFT
350
55A
  3
PUCSORGRIGHT
350
55B
  3
PUCSORGTOP
350
558
  3
PUCSORTHOREF
350
555
  3
PUCSORTHOVIEW
350
556
  3
STYLESHEET
350
54B
  3
TSTACKALIGN
350
548
  3
TSTACKSIZE
350
549
  3
UCSBASE
350
560
  3
UCSORGBACK
350
566
  3
UCSORGBOTTOM
350
562
  3
UCSORGFRONT
350
565
  3
UCSORGLEFT
350
563
  3
UCSORGRIGHT
350
564
  3
UCSORGTOP
350
561
  3
UCSORTHOREF
350
55E
  3
UCSORTHOVIEW
350
55F
  3
VERSIONGUID
350
553
  0
DICTIONARY
  5
544
102
{ACAD_REACTORS
330
C
102
}
330
C
100
AcDbDictionary
  3
DIMASSOC
350
545
  0
XRECORD
  5
56A
102
{ACAD_REACTORS
330
569
102
}
330
569
100
AcDbXrecord
340
18
  0
XRECORD
  5
568
102
{ACAD_REACTORS
330
567
102
}
330
567
100
AcDbXrecord
340
15
  0
MLINESTYLE
  5
1B
102
{ACAD_REACTORS
330
E
102
}
330
E
100
AcDbMlineStyle
  2
STANDARD
 70
     0
  3

 62
     0
 51
90.0
 52
90.0
 71
     2
 49
0.5
 62
   256
  6
BYLAYER
 49
-0.5
 62
   256
  6
BYLAYER
  0
ACDBPLACEHOLDER
  5
53A
102
{ACAD_REACTORS
330
539
102
}
330
539
100
AcDbPlaceHolder
280
     0
  0
XRECORD
  5
551
102
{ACAD_REACTORS
330
547
102
}
330
547
100
AcDbXrecord
 90
        0
  0
XRECORD
  5
552
102
{ACAD_REACTORS
330
547
102
}
330
547
100
AcDbXrecord
  1
{8DA5E7F0-8DB4-11D6-88E6-0090279574E7}
  0
XRECORD
  5
54A
102
{ACAD_REACTORS
330
547
102
}
330
547
100
AcDbXrecord
  1

  0
XRECORD
  5
550
102
{ACAD_REACTORS
330
547
102
}
330
547
100
AcDbXrecord
 90
        0
  0
XRECORD
  5
54C
102
{ACAD_REACTORS
330
547
102
}
330
547
100
AcDbXrecord
340
53B
  0
XRECORD
  5
54F
102
{ACAD_REACTORS
330
547
102
}
330
547
100
AcDbXrecord
 90
    14877
  0
XRECORD
  5
54D
102
{ACAD_REACTORS
330
547
102
}
330
547
100
AcDbXrecord
340
53C
  0
XRECORD
  5
54E
102
{ACAD_REACTORS
330
547
102
}
330
547
100
AcDbXrecord
340
539
  0
XRECORD
  5
554
102
{ACAD_REACTORS
330
547
102
}
330
547
100
AcDbXrecord
 40
0.0
  0
XRECORD
  5
557
102
{ACAD_REACTORS
330
547
102
}
330
547
100
AcDbXrecord
340
0
  0
XRECORD
  5
55D
102
{ACAD_REACTORS
330
547
102
}
330
547
100
AcDbXrecord
 10
0.0
 20
0.0
 30
0.0
  0
XRECORD
  5
559
102
{ACAD_REACTORS
330
547
102
}
330
547
100
AcDbXrecord
 10
0.0
 20
0.0
 30
0.0
  0
XRECORD
  5
55C
102
{ACAD_REACTORS
330
547
102
}
330
547
100
AcDbXrecord
 10
0.0
 20
0.0
 30
0.0
  0
XRECORD
  5
55A
102
{ACAD_REACTORS
330
547
102
}
330
547
100
AcDbXrecord
 10
0.0
 20
0.0
 30
0.0
  0
XRECORD
  5
55B
102
{ACAD_REACTORS
330
547
102
}
330
547
100
AcDbXrecord
 10
0.0
 20
0.0
 30
0.0
  0
XRECORD
  5
558
102
{ACAD_REACTORS
330
547
102
}
330
547
100
AcDbXrecord
 10
0.0
 20
0.0
 30
0.0
  0
XRECORD
  5
555
102
{ACAD_REACTORS
330
547
102
}
330
547
100
AcDbXrecord
340
0
  0
XRECORD
  5
556
102
{ACAD_REACTORS
330
547
102
}
330
547
100
AcDbXrecord
 70
     0
  0
XRECORD
  5
54B
102
{ACAD_REACTORS
330
547
102
}
330
547
100
AcDbXrecord
  1

  0
XRECORD
  5
548
102
{ACAD_REACTORS
330
547
102
}
330
547
100
AcDbXrecord
 90
        1
  0
XRECORD
  5
549
102
{ACAD_REACTORS
330
547
102
}
330
547
100
AcDbXrecord
 90
       70
  0
XRECORD
  5
560
102
{ACAD_REACTORS
330
547
102
}
330
547
100
AcDbXrecord
340
0
  0
XRECORD
  5
566
102
{ACAD_REACTORS
330
547
102
}
330
547
100
AcDbXrecord
 10
0.0
 20
0.0
 30
0.0
  0
XRECORD
  5
562
102
{ACAD_REACTORS
330
547
102
}
330
547
100
AcDbXrecord
 10
0.0
 20
0.0
 30
0.0
  0
XRECORD
  5
565
102
{ACAD_REACTORS
330
547
102
}
330
547
100
AcDbXrecord
 10
0.0
 20
0.0
 30
0.0
  0
XRECORD
  5
563
102
{ACAD_REACTORS
330
547
102
}
330
547
100
AcDbXrecord
 10
0.0
 20
0.0
 30
0.0
  0
XRECORD
  5
564
102
{ACAD_REACTORS
330
547
102
}
330
547
100
AcDbXrecord
 10
0.0
 20
0.0
 30
0.0
  0
XRECORD
  5
561
102
{ACAD_REACTORS
330
547
102
}
330
547
100
AcDbXrecord
 10
0.0
 20
0.0
 30
0.0
  0
XRECORD
  5
55E
102
{ACAD_REACTORS
330
547
102
}
330
547
100
AcDbXrecord
340
0
  0
XRECORD
  5
55F
102
{ACAD_REACTORS
330
547
102
}
330
547
100
AcDbXrecord
 70
     0
  0
XRECORD
  5
553
102
{ACAD_REACTORS
330
547
102
}
330
547
100
AcDbXrecord
  1
{8DA5E7F2-8DB4-11D6-88E6-0090279574E7}
  0
DICTIONARYVAR
  5
545
102
{ACAD_REACTORS
330
544
102
}
330
544
100
DictionaryVariables
280
     0
  1
1
  0
ENDSEC
  0
EOF
