  0
SECTION
  2
HEADER
  9
$ACADVER
  1
AC1014
  9
$ACADMAINTVER
 70
     9
  9
$DWGCODEPAGE
  3
ANSI_1252
  9
$INSBASE
 10
0.0
 20
0.0
 30
0.0
  9
$EXTMIN
 10
2.300859806972376
 20
1.708617725282536
 30
0.0
  9
$EXTMAX
 10
5.786079128719512
 20
3.054194981940108
 30
0.0
  9
$LIMMIN
 10
0.0
 20
0.0
  9
$LIMMAX
 10
8.5
 20
11.0
  9
$ORTHOMODE
 70
     0
  9
$REGENMODE
 70
     1
  9
$FILLMODE
 70
     1
  9
$QTEXTMODE
 70
     0
  9
$MIRRTEXT
 70
     0
  9
$DRAGMODE
 70
     2
  9
$LTSCALE
 40
0.5
  9
$OSMODE
 70
    39
  9
$ATTMODE
 70
     1
  9
$TEXTSIZE
 40
0.125
  9
$TRACEWID
 40
0.05
  9
$TEXTSTYLE
  7
ROMANS
  9
$CLAYER
  8
DIMENSIONS
  9
$CELTYPE
  6
BYLAYER
  9
$CECOLOR
 62
   256
  9
$CELTSCALE
 40
1.0
  9
$DELOBJ
 70
     1
  9
$DISPSILH
 70
     1
  9
$DIMSCALE
 40
1.0
  9
$DIMASZ
 40
0.125
  9
$DIMEXO
 40
0.125
  9
$DIMDLI
 40
0.375
  9
$DIMRND
 40
0.0
  9
$DIMDLE
 40
0.0
  9
$DIMEXE
 40
0.125
  9
$DIMTP
 40
0.0
  9
$DIMTM
 40
0.0
  9
$DIMTXT
 40
0.125
  9
$DIMCEN
 40
-0.125
  9
$DIMTSZ
 40
0.0
  9
$DIMTOL
 70
     0
  9
$DIMLIM
 70
     0
  9
$DIMTIH
 70
     1
  9
$DIMTOH
 70
     1
  9
$DIMSE1
 70
     0
  9
$DIMSE2
 70
     1
  9
$DIMTAD
 70
     0
  9
$DIMZIN
 70
     4
  9
$DIMBLK
  1

  9
$DIMASO
 70
     1
  9
$DIMSHO
 70
     1
  9
$DIMPOST
  1

  9
$DIMAPOST
  1

  9
$DIMALT
 70
     0
  9
$DIMALTD
 70
     2
  9
$DIMALTF
 40
25.4
  9
$DIMLFAC
 40
0.25
  9
$DIMTOFL
 70
     0
  9
$DIMTVP
 40
0.0
  9
$DIMTIX
 70
     0
  9
$DIMSOXD
 70
     0
  9
$DIMSAH
 70
     0
  9
$DIMBLK1
  1

  9
$DIMBLK2
  1

  9
$DIMSTYLE
  2
STANDARD
  9
$DIMCLRD
 70
     0
  9
$DIMCLRE
 70
     0
  9
$DIMCLRT
 70
     0
  9
$DIMTFAC
 40
1.0
  9
$DIMGAP
 40
0.09
  9
$DIMJUST
 70
     0
  9
$DIMSD1
 70
     0
  9
$DIMSD2
 70
     0
  9
$DIMTOLJ
 70
     1
  9
$DIMTZIN
 70
     4
  9
$DIMALTZ
 70
     0
  9
$DIMALTTZ
 70
     0
  9
$DIMFIT
 70
     3
  9
$DIMUPT
 70
     0
  9
$DIMUNIT
 70
     2
  9
$DIMDEC
 70
     3
  9
$DIMTDEC
 70
     3
  9
$DIMALTU
 70
     2
  9
$DIMALTTD
 70
     2
  9
$DIMTXSTY
  7
ROMANS
  9
$DIMAUNIT
 70
     0
  9
$LUNITS
 70
     2
  9
$LUPREC
 70
     3
  9
$SKETCHINC
 40
0.1
  9
$FILLETRAD
 40
1.0
  9
$AUNITS
 70
     0
  9
$AUPREC
 70
     0
  9
$MENU
  1
acad
  9
$ELEVATION
 40
0.0
  9
$PELEVATION
 40
0.0
  9
$THICKNESS
 40
0.0
  9
$LIMCHECK
 70
     0
  9
$BLIPMODE
 70
     0
  9
$CHAMFERA
 40
0.0
  9
$CHAMFERB
 40
0.0
  9
$CHAMFERC
 40
0.0
  9
$CHAMFERD
 40
0.0
  9
$SKPOLY
 70
     0
  9
$TDCREATE
 40
2448475.298063541
  9
$TDUPDATE
 40
2452458.298172476
  9
$TDINDWG
 40
0.0399752894
  9
$TDUSRTIMER
 40
0.0399752894
  9
$USRTIMER
 70
     1
  9
$ANGBASE
 50
0.0
  9
$ANGDIR
 70
     0
  9
$PDMODE
 70
    35
  9
$PDSIZE
 40
0.0
  9
$PLINEWID
 40
0.0
  9
$COORDS
 70
     2
  9
$SPLFRAME
 70
     0
  9
$SPLINETYPE
 70
     6
  9
$SPLINESEGS
 70
     8
  9
$ATTDIA
 70
     0
  9
$ATTREQ
 70
     1
  9
$HANDLING
 70
 22529
  9
$HANDSEED
  5
91D
  9
$SURFTAB1
 70
     6
  9
$SURFTAB2
 70
     6
  9
$SURFTYPE
 70
     6
  9
$SURFU
 70
     6
  9
$SURFV
 70
     6
  9
$UCSNAME
  2

  9
$UCSORG
 10
0.0
 20
0.0
 30
0.0
  9
$UCSXDIR
 10
1.0
 20
0.0
 30
0.0
  9
$UCSYDIR
 10
0.0
 20
1.0
 30
0.0
  9
$PUCSNAME
  2

  9
$PUCSORG
 10
0.0
 20
0.0
 30
0.0
  9
$PUCSXDIR
 10
1.0
 20
0.0
 30
0.0
  9
$PUCSYDIR
 10
0.0
 20
1.0
 30
0.0
  9
$USERI1
 70
     0
  9
$USERI2
 70
     0
  9
$USERI3
 70
     0
  9
$USERI4
 70
     0
  9
$USERI5
 70
     0
  9
$USERR1
 40
0.0
  9
$USERR2
 40
0.0
  9
$USERR3
 40
0.0
  9
$USERR4
 40
0.0
  9
$USERR5
 40
0.0
  9
$WORLDVIEW
 70
     1
  9
$SHADEDGE
 70
     3
  9
$SHADEDIF
 70
    70
  9
$TILEMODE
 70
     1
  9
$MAXACTVP
 70
    16
  9
$PINSBASE
 10
0.0
 20
0.0
 30
0.0
  9
$PLIMCHECK
 70
     0
  9
$PEXTMIN
 10
1.000000000000000E+20
 20
1.000000000000000E+20
 30
1.000000000000000E+20
  9
$PEXTMAX
 10
-1.000000000000000E+20
 20
-1.000000000000000E+20
 30
-1.000000000000000E+20
  9
$PLIMMIN
 10
0.0
 20
0.0
  9
$PLIMMAX
 10
12.0
 20
9.0
  9
$UNITMODE
 70
     0
  9
$VISRETAIN
 70
     0
  9
$PLINEGEN
 70
     1
  9
$PSLTSCALE
 70
     0
  9
$TREEDEPTH
 70
  3020
  9
$PICKSTYLE
 70
     1
  9
$CMLSTYLE
  2
STANDARD
  9
$CMLJUST
 70
     0
  9
$CMLSCALE
 40
1.0
  9
$PROXYGRAPHICS
 70
     1
  9
$MEASUREMENT
 70
     0
  0
ENDSEC
  0
SECTION
  2
CLASSES
  0
CLASS
  1
LWPOLYLINE
  2
AcDbPolyline
  3
AutoCAD 2000
 90
        0
280
     0
281
     1
  0
CLASS
  1
ACDBDICTIONARYWDFLT
  2
AcDbDictionaryWithDefault
  3
AutoCAD 2000
 90
        0
280
     0
281
     0
  0
CLASS
  1
ACDBPLACEHOLDER
  2
AcDbPlaceHolder
  3
AutoCAD 2000
 90
        0
280
     0
281
     0
  0
CLASS
  1
LAYOUT
  2
AcDbLayout
  3
AutoCAD 2000
 90
        0
280
     0
281
     0
  0
CLASS
  1
DICTIONARYVAR
  2
AcDbDictionaryVar
  3
AutoCAD 2000
 90
        0
280
     0
281
     0
  0
CLASS
  1
LONG_TRANSACTION
  2
AcDbLongTransaction
  3
AutoCAD 2000
 90
        0
280
     0
281
     0
  0
CLASS
  1
LWPOLYLINE
  2
AcDbPolyline
  3
AutoCAD 2000
 90
        0
280
     0
281
     1
  0
CLASS
  1
HATCH
  2
AcDbHatch
  3
AutoCAD 2000
 90
        0
280
     0
281
     1
  0
CLASS
  1
XRECORD
  2
AcDbXrecord
  3
AutoCAD 2000
 90
        0
280
     0
281
     0
  0
ENDSEC
  0
SECTION
  2
TABLES
  0
TABLE
  2
VPORT
  5
8
330
0
100
AcDbSymbolTable
 70
     2
  0
VPORT
  5
8F8
330
8
100
AcDbSymbolTableRecord
100
AcDbViewportTableRecord
  2
*ACTIVE
 70
     0
 10
0.0
 20
0.0
 11
1.0
 21
1.0
 12
6.965987665185437
 22
2.381553595618521
 13
0.0
 23
0.0
 14
0.25
 24
0.25
 15
0.0
 25
0.0
 16
0.0
 26
0.0
 36
1.0
 17
0.0
 27
0.0
 37
0.0
 40
2.164028377730512
 41
4.320930232558139
 42
50.0
 43
0.0
 44
0.0
 50
0.0
 51
0.0
 71
     0
 72
  2000
 73
     1
 74
     1
 75
     0
 76
     0
 77
     0
 78
     0
  0
ENDTAB
  0
TABLE
  2
LTYPE
  5
5
330
0
100
AcDbSymbolTable
 70
     1
  0
LTYPE
  5
12
330
5
100
AcDbSymbolTableRecord
100
AcDbLinetypeTableRecord
  2
BYBLOCK
 70
     0
  3

 72
    65
 73
     0
 40
0.0
  0
LTYPE
  5
13
330
5
100
AcDbSymbolTableRecord
100
AcDbLinetypeTableRecord
  2
BYLAYER
 70
     0
  3

 72
    65
 73
     0
 40
0.0
  0
LTYPE
  5
14
330
5
100
AcDbSymbolTableRecord
100
AcDbLinetypeTableRecord
  2
CONTINUOUS
 70
     0
  3
Solid line
 72
    65
 73
     0
 40
0.0
  0
ENDTAB
  0
TABLE
  2
LAYER
  5
2
330
0
100
AcDbSymbolTable
 70
     3
  0
LAYER
  5
F
330
2
100
AcDbSymbolTableRecord
100
AcDbLayerTableRecord
  2
0
 70
     0
 62
     7
  6
CONTINUOUS
  0
LAYER
  5
2E
330
2
100
AcDbSymbolTableRecord
100
AcDbLayerTableRecord
  2
DIMENSIONS
 70
     0
 62
     4
  6
CONTINUOUS
  0
LAYER
  5
2F
330
2
100
AcDbSymbolTableRecord
100
AcDbLayerTableRecord
  2
TEXT
 70
     0
 62
     3
  6
CONTINUOUS
  0
ENDTAB
  0
TABLE
  2
STYLE
  5
3
330
0
100
AcDbSymbolTable
 70
     3
  0
STYLE
  5
10
330
3
100
AcDbSymbolTableRecord
100
AcDbTextStyleTableRecord
  2
STANDARD
 70
     0
 40
0.0
 41
1.0
 50
0.0
 71
     0
 42
0.125
  3
txt
  4

  0
STYLE
  5
3ED
330
3
100
AcDbSymbolTableRecord
100
AcDbTextStyleTableRecord
  2
ROMANS
 70
     0
 40
0.0
 41
1.0
 50
0.0
 71
     0
 42
0.125
  3
romans.shx
  4

  0
STYLE
  5
7E6
330
3
100
AcDbSymbolTableRecord
100
AcDbTextStyleTableRecord
  2
ITALICC
 70
     0
 40
0.0
 41
1.0
 50
0.0
 71
     0
 42
0.125
  3
italicc
  4

  0
ENDTAB
  0
TABLE
  2
VIEW
  5
6
330
0
100
AcDbSymbolTable
 70
     0
  0
ENDTAB
  0
TABLE
  2
UCS
  5
7
330
0
100
AcDbSymbolTable
 70
     0
  0
ENDTAB
  0
TABLE
  2
APPID
  5
9
330
0
100
AcDbSymbolTable
 70
     1
  0
APPID
  5
11
330
9
100
AcDbSymbolTableRecord
100
AcDbRegAppTableRecord
  2
ACAD
 70
     0
  0
ENDTAB
  0
TABLE
  2
DIMSTYLE
  5
A
330
0
100
AcDbSymbolTable
 70
     1
  0
DIMSTYLE
105
3E2
330
A
100
AcDbSymbolTableRecord
100
AcDbDimStyleTableRecord
  2
STANDARD
 70
     0
  3

  4

  5

  6

  7

 40
1.0
 41
0.125
 42
0.125
 43
0.375
 44
0.125
 45
0.0
 46
0.0
 47
0.0
 48
0.0
140
0.125
141
-0.125
142
0.0
143
25.4
144
0.25
145
0.0
146
1.0
147
0.09
 71
     0
 72
     0
 73
     1
 74
     1
 75
     0
 76
     1
 77
     0
 78
     4
170
     0
171
     2
172
     0
173
     0
174
     0
175
     0
176
     0
177
     0
178
     0
270
     2
271
     3
272
     3
273
     2
274
     2
340
3ED
275
     0
280
     0
281
     0
282
     0
283
     1
284
     4
285
     0
286
     0
287
     3
288
     0
  0
ENDTAB
  0
TABLE
  2
BLOCK_RECORD
  5
1
330
0
100
AcDbSymbolTable
 70
     0
  0
BLOCK_RECORD
  5
18
102
{ACAD_XDICTIONARY
360
91B
102
}
330
1
100
AcDbSymbolTableRecord
100
AcDbBlockTableRecord
  2
*MODEL_SPACE
  0
BLOCK_RECORD
  5
15
102
{ACAD_XDICTIONARY
360
919
102
}
330
1
100
AcDbSymbolTableRecord
100
AcDbBlockTableRecord
  2
*PAPER_SPACE
  0
ENDTAB
  0
ENDSEC
  0
SECTION
  2
BLOCKS
  0
BLOCK
  5
37
330
18
100
AcDbEntity
  8
0
100
AcDbBlockBegin
  2
*MODEL_SPACE
 70
     0
 10
0.0
 20
0.0
 30
0.0
  3
*MODEL_SPACE
  1

  0
ENDBLK
  5
38
330
18
100
AcDbEntity
  8
0
100
AcDbBlockEnd
  0
BLOCK
  5
35
330
15
100
AcDbEntity
 67
     1
  8
0
100
AcDbBlockBegin
  2
*PAPER_SPACE
 70
     0
 10
0.0
 20
0.0
 30
0.0
  3
*PAPER_SPACE
  1

  0
ENDBLK
  5
36
330
15
100
AcDbEntity
 67
     1
  8
0
100
AcDbBlockEnd
  0
ENDSEC
  0
SECTION
  2
ENTITIES
  0
LWPOLYLINE
  5
37E
330
18
100
AcDbEntity
  8
0
100
AcDbPolyline
 90
       21
 70
     1
 43
0.0
 10
4.418524549013167
 20
2.61665571825403
 10
4.275424549013166
 20
2.61665571825403
 10
3.980985285327088
 20
2.911094981940108
 10
3.980985285327088
 20
3.044194981940108
 10
3.980985285327088
 20
3.054194981940108
 10
3.990985285327088
 20
3.054194981940108
 10
4.085985285327089
 20
3.054194981940108
 10
4.085985285327089
 20
2.988629036549625
 42
-0.6681786379192988
 10
4.068914217515223
 20
2.981557968737759
 10
4.048048802568843
 20
3.00242338368414
 42
0.6681786379192988
 10
4.030977734756977
 20
2.995352315872274
 10
4.030977734756977
 20
2.931813210628874
 10
4.156489188417589
 20
2.806301756968261
 10
4.156489188417589
 20
2.792159621344531
 10
4.170631324041321
 20
2.792159621344531
 10
4.296142777701932
 20
2.666648167683918
 10
4.359681882945333
 20
2.666648167683918
 42
0.6681786379192988
 10
4.366752950757199
 20
2.683719235495784
 10
4.345887535810818
 20
2.704584650442164
 42
-0.6681786379193026
 10
4.352958603622683
 20
2.72165571825403
 10
4.418524549013167
 20
2.721655718254029
  0
TEXT
  5
86B
330
18
100
AcDbEntity
  8
TEXT
100
AcDbText
 10
3.287889005247138
 20
2.166636329365117
 30
0.0
 40
0.125
  1
PART #110157
  7
ITALICC
 72
     1
 11
4.043841386199519
 21
2.166636329365117
 31
0.0
100
AcDbText
  0
LINE
  5
86C
330
18
100
AcDbEntity
  8
TEXT
100
AcDbLine
 10
4.199156016222903
 20
1.986559338002049
 30
0.0
 11
4.152057857666918
 21
1.910694011590511
 31
0.0
  0
LINE
  5
86D
330
18
100
AcDbEntity
  8
TEXT
100
AcDbLine
 10
4.152057857666918
 20
1.910694011590511
 30
0.0
 11
4.152057857666918
 21
2.052023543769649
 31
0.0
  0
LINE
  5
86E
330
18
100
AcDbEntity
  8
TEXT
100
AcDbLine
 10
4.152057857666918
 20
2.052023543769649
 30
0.0
 11
4.083742979117645
 21
2.052023543769649
 31
0.0
  0
LINE
  5
86F
330
18
100
AcDbEntity
  8
TEXT
100
AcDbLine
 10
4.083742979117645
 20
2.052023543769649
 30
0.0
 11
4.08374297911764
 21
1.986559338002049
 31
0.0
  0
LINE
  5
870
330
18
100
AcDbEntity
  8
TEXT
100
AcDbLine
 10
4.209590732986826
 20
1.876666095061075
 30
0.0
 11
4.274147848952531
 21
1.986559338002049
 31
0.0
  0
LINE
  5
871
330
18
100
AcDbEntity
  8
TEXT
100
AcDbLine
 10
4.274147848952531
 20
1.986559338002049
 30
0.0
 11
4.199156016222905
 21
1.986559338002049
 31
0.0
  0
LINE
  5
872
330
18
100
AcDbEntity
  8
TEXT
100
AcDbLine
 10
4.088222866444145
 20
1.720086305013538
 30
0.0
 11
4.152601050762766
 21
1.720086305013538
 31
0.0
  0
LINE
  5
873
330
18
100
AcDbEntity
  8
TEXT
100
AcDbLine
 10
4.152601050762766
 20
1.720086305013538
 30
0.0
 11
4.152601050762766
 21
1.851665873489718
 31
0.0
  0
LINE
  5
874
330
18
100
AcDbEntity
  8
TEXT
100
AcDbLine
 10
4.152601050762766
 20
1.851665873489718
 30
0.0
 11
4.22850458397423
 21
1.720086305013538
 31
0.0
  0
LINE
  5
875
330
18
100
AcDbEntity
  8
TEXT
100
AcDbLine
 10
4.22850458397423
 20
1.720086305013538
 30
0.0
 11
4.305082956350436
 21
1.720086305013538
 31
0.0
  0
LINE
  5
876
330
18
100
AcDbEntity
  8
TEXT
100
AcDbLine
 10
4.08822286644414
 20
1.922282643345283
 30
0.0
 11
4.088222866444145
 21
1.720086305013538
 31
0.0
  0
LINE
  5
877
330
18
100
AcDbEntity
  8
TEXT
100
AcDbLine
 10
4.305082956350436
 20
1.720086305013538
 30
0.0
 11
4.209590732986826
 21
1.876666095061075
 31
0.0
  0
ARC
  5
878
330
18
100
AcDbEntity
  8
TEXT
100
AcDbCircle
 10
4.011574885151581
 20
1.897376768062621
 30
0.0
 40
0.0249058752826653
100
AcDbArc
 50
89.99971217465335
 51
179.9999999999985
  0
ARC
  5
879
330
18
100
AcDbEntity
  8
TEXT
100
AcDbCircle
 10
4.019463842091159
 20
1.955313610719784
 30
0.0
 40
0.0314112657011332
100
AcDbArc
 50
95.88484768694724
 51
173.2388340632136
  0
LINE
  5
87A
330
18
100
AcDbEntity
  8
TEXT
100
AcDbLine
 10
3.98827102502805
 20
1.959011688141174
 30
0.0
 11
3.98827102502805
 21
1.986559338002049
 31
0.0
  0
LINE
  5
87B
330
18
100
AcDbEntity
  8
TEXT
100
AcDbLine
 10
3.98827102502805
 20
1.986559338002049
 30
0.0
 11
3.924374118728549
 21
1.986559338002049
 31
0.0
  0
LINE
  5
87C
330
18
100
AcDbEntity
  8
TEXT
100
AcDbLine
 10
3.924374118728549
 20
1.986559338002049
 30
0.0
 11
3.924374118728549
 21
1.881347359448621
 31
0.0
  0
LINE
  5
87D
330
18
100
AcDbEntity
  8
TEXT
100
AcDbLine
 10
3.845414179853508
 20
1.986559338002049
 30
0.0
 11
3.710582270636449
 21
1.986559338002049
 31
0.0
  0
LINE
  5
87E
330
18
100
AcDbEntity
  8
TEXT
100
AcDbLine
 10
3.710582270636449
 20
1.986559338002049
 30
0.0
 11
3.710582270636449
 21
1.958236792232405
 31
0.0
  0
LINE
  5
87F
330
18
100
AcDbEntity
  8
TEXT
100
AcDbLine
 10
3.769896367029768
 20
1.885007669883151
 30
0.0
 11
3.852184356813151
 21
1.885007669883151
 31
0.0
  0
LINE
  5
880
330
18
100
AcDbEntity
  8
TEXT
100
AcDbLine
 10
3.852184356813151
 20
1.885007669883151
 30
0.0
 11
3.841919596399587
 21
1.906258209455845
 31
0.0
  0
LINE
  5
881
330
18
100
AcDbEntity
  8
TEXT
100
AcDbLine
 10
3.81638328150903
 20
1.922282643345283
 30
0.0
 11
3.709177008121741
 21
1.922282643345283
 31
0.0
  0
ARC
  5
882
330
18
100
AcDbEntity
  8
TEXT
100
AcDbCircle
 10
3.816383281509029
 20
1.893923268345286
 30
0.0
 40
0.028359375
100
AcDbArc
 50
25.78218179591245
 51
90.0
  0
LINE
  5
883
330
18
100
AcDbEntity
  8
TEXT
100
AcDbLine
 10
3.924374118728549
 20
1.881347359448621
 30
0.0
 11
3.880623347546648
 21
1.963597635444767
 31
0.0
  0
ARC
  5
884
330
18
100
AcDbEntity
  8
TEXT
100
AcDbCircle
 10
3.84338724007644
 20
1.944975770881146
 30
0.0
 40
0.0416329381542859
100
AcDbArc
 50
26.56974201007528
 51
87.20939649401342
  0
LWPOLYLINE
  5
885
330
18
100
AcDbEntity
  8
TEXT
100
AcDbPolyline
 90
        2
 70
     0
 43
0.0
 10
3.928313796033588
 20
1.763577249963976
 42
-0.2901071551932486
 10
3.885237863165944
 20
1.720086305013538
 42
-5.328517124445184
  0
LWPOLYLINE
  5
886
330
18
100
AcDbEntity
  8
TEXT
100
AcDbPolyline
 90
        2
 70
     0
 43
0.0
 10
3.928313796033588
 20
1.763577249963976
 10
3.928313796033588
 20
1.720086305013538
  0
LWPOLYLINE
  5
887
330
18
100
AcDbEntity
  8
TEXT
100
AcDbPolyline
 90
        2
 70
     0
 43
0.0
 10
3.928313796033588
 20
1.720086305013538
 10
3.986669009868922
 20
1.720086305013538
  0
LWPOLYLINE
  5
888
330
18
100
AcDbEntity
  8
TEXT
100
AcDbPolyline
 90
        2
 70
     0
 43
0.0
 10
3.708144512666931
 20
1.763577249963976
 42
0.2901071551932823
 10
3.751220445534567
 20
1.720086305013538
 42
5.328517124445801
  0
LWPOLYLINE
  5
889
330
18
100
AcDbEntity
  8
TEXT
100
AcDbPolyline
 90
        2
 70
     0
 43
0.0
 10
3.751220445534567
 20
1.720086305013538
 10
3.885237863165944
 20
1.720086305013538
 42
0.9999999999999998
  0
LWPOLYLINE
  5
88A
330
18
100
AcDbEntity
  8
TEXT
100
AcDbPolyline
 90
        4
 70
     1
 43
0.0
 10
3.865115398096051
 20
1.823050282997563
 10
3.776455079436193
 20
1.823050282997563
 42
0.9999999999999998
 10
3.776455079436193
 20
1.780651742493702
 10
3.865115398096051
 20
1.780651742493702
 42
1.0
  0
ARC
  5
88B
330
18
100
AcDbEntity
  8
TEXT
100
AcDbCircle
 10
3.769896367029767
 20
1.817322088739032
 30
0.0
 40
0.0676855811441166
100
AcDbArc
 50
90.0
 51
153.7768192527749
  0
LINE
  5
88C
330
18
100
AcDbEntity
  8
TEXT
100
AcDbLine
 10
3.986669009868923
 20
1.720086305013538
 30
0.0
 11
3.986669009868918
 21
1.897376810445006
 31
0.0
  0
LINE
  5
88D
330
18
100
AcDbEntity
  8
TEXT
100
AcDbLine
 10
3.709177008121741
 20
1.922282643345283
 30
0.0
 11
3.709177008121741
 21
1.847230237271077
 31
0.0
  0
LINE
  5
88E
330
18
100
AcDbEntity
  8
TEXT
100
AcDbLine
 10
4.011574885151582
 20
1.922282643345283
 30
0.0
 11
4.08822286644414
 21
1.922282643345283
 31
0.0
  0
LINE
  5
88F
330
18
100
AcDbEntity
  8
TEXT
100
AcDbLine
 10
4.08374297911764
 20
1.986559338002049
 30
0.0
 11
4.016243261468123
 21
1.986559338002049
 31
0.0
  0
LWPOLYLINE
  5
890
330
18
100
AcDbEntity
  8
TEXT
100
AcDbPolyline
 90
        2
 70
     0
 43
0.0
 10
3.503367007344056
 20
1.922282643345283
 42
-0.4142135623731017
 10
3.51092079651017
 20
1.914728854179173
 42
-0.9999999999999998
  0
LWPOLYLINE
  5
891
330
18
100
AcDbEntity
  8
TEXT
100
AcDbPolyline
 90
        2
 70
     0
 43
0.0
 10
3.63211244021296
 20
1.922282643345283
 42
-0.4142135623731017
 10
3.639666229379074
 20
1.914728854179173
 42
-0.9999999999999998
  0
LWPOLYLINE
  5
892
330
18
100
AcDbEntity
  8
TEXT
100
AcDbPolyline
 90
        2
 70
     0
 43
0.0
 10
3.520718730394078
 20
1.986559338002052
 42
-0.3328679258950098
 10
3.556500421107239
 20
1.959391841241156
 42
6.772930709997214
  0
LWPOLYLINE
  5
893
330
18
100
AcDbEntity
  8
TEXT
100
AcDbPolyline
 90
        3
 70
     0
 43
0.0
 10
3.674800579923283
 20
1.986559338002052
 10
3.556500421107239
 20
1.986559338002052
 10
3.556500421107239
 20
1.959391841241156
 42
-1.960274751411753
  0
LINE
  5
894
330
18
100
AcDbEntity
  8
TEXT
100
AcDbLine
 10
3.577978843292011
 20
1.922282643345283
 30
0.0
 11
3.632112440212961
 21
1.922282643345283
 31
0.0
  0
LINE
  5
895
330
18
100
AcDbEntity
  8
TEXT
100
AcDbLine
 10
3.45353172752091
 20
1.922282643345283
 30
0.0
 11
3.503367007344057
 21
1.922282643345283
 31
0.0
  0
LINE
  5
896
330
18
100
AcDbEntity
  8
TEXT
100
AcDbLine
 10
3.520718730394077
 20
1.986559338002049
 30
0.0
 11
3.38670067446294
 21
1.986559338002049
 31
0.0
  0
LINE
  5
897
330
18
100
AcDbEntity
  8
TEXT
100
AcDbLine
 10
3.510920796510171
 20
1.720086305013538
 30
0.0
 11
3.577978843292011
 21
1.720086305013538
 31
0.0
  0
LINE
  5
898
330
18
100
AcDbEntity
  8
TEXT
100
AcDbLine
 10
3.355528393821475
 20
1.720086305013538
 30
0.0
 11
3.45353172752091
 21
1.720086305013538
 31
0.0
  0
LINE
  5
899
330
18
100
AcDbEntity
  8
TEXT
100
AcDbLine
 10
3.38670067446294
 20
1.78569513126964
 30
0.0
 11
3.369707037578339
 21
1.78569513126964
 31
0.0
  0
ARC
  5
89A
330
18
100
AcDbEntity
  8
TEXT
100
AcDbCircle
 10
3.369707037578338
 20
1.801076937513066
 30
0.0
 40
0.0153818062434269
100
AcDbArc
 50
174.7883570302258
 51
270.0
  0
LINE
  5
89B
330
18
100
AcDbEntity
  8
TEXT
100
AcDbLine
 10
3.45353172752091
 20
1.720086305013538
 30
0.0
 11
3.45353172752091
 21
1.922282643345283
 31
0.0
  0
LINE
  5
89C
330
18
100
AcDbEntity
  8
TEXT
100
AcDbLine
 10
3.510920796510171
 20
1.914728854179173
 30
0.0
 11
3.510920796510171
 21
1.720086305013538
 31
0.0
  0
LINE
  5
89D
330
18
100
AcDbEntity
  8
TEXT
100
AcDbLine
 10
3.577978843292011
 20
1.720086305013538
 30
0.0
 11
3.577978843292011
 21
1.922282643345283
 31
0.0
  0
LINE
  5
89E
330
18
100
AcDbEntity
  8
TEXT
100
AcDbLine
 10
3.38670067446294
 20
1.986559338002049
 30
0.0
 11
3.38670067446294
 21
1.78569513126964
 31
0.0
  0
LINE
  5
89F
330
18
100
AcDbEntity
  8
TEXT
100
AcDbLine
 10
3.35438882032528
 20
1.802474143116537
 30
0.0
 11
3.35438882032528
 21
2.054570815740859
 31
0.0
  0
LINE
  5
8A0
330
18
100
AcDbEntity
  8
TEXT
100
AcDbLine
 10
3.287580107758915
 20
2.054570815740859
 30
0.0
 11
3.287580107758915
 21
1.986559338002049
 31
0.0
  0
LINE
  5
8A1
330
18
100
AcDbEntity
  8
TEXT
100
AcDbLine
 10
3.287580107758915
 20
1.986559338002049
 30
0.0
 11
3.257458194965539
 21
1.986559338002049
 31
0.0
  0
LINE
  5
8A2
330
18
100
AcDbEntity
  8
TEXT
100
AcDbLine
 10
3.257458194965539
 20
1.986559338002049
 30
0.0
 11
3.198709632159673
 21
1.885687341888928
 31
0.0
  0
LINE
  5
8A3
330
18
100
AcDbEntity
  8
TEXT
100
AcDbLine
 10
3.198709632159673
 20
1.885687341888928
 30
0.0
 11
3.140079311127736
 21
1.986559338002049
 31
0.0
  0
LINE
  5
8A4
330
18
100
AcDbEntity
  8
TEXT
100
AcDbLine
 10
3.068280344983828
 20
1.986559338002049
 30
0.0
 11
3.068280344983828
 21
2.020947255596187
 31
0.0
  0
LINE
  5
8A5
330
18
100
AcDbEntity
  8
TEXT
100
AcDbLine
 10
3.068280344983828
 20
2.020947255596187
 30
0.0
 11
3.008237740139821
 21
2.020947255596187
 31
0.0
  0
LINE
  5
8A6
330
18
100
AcDbEntity
  8
TEXT
100
AcDbLine
 10
3.008237740139821
 20
2.020947255596187
 30
0.0
 11
3.008237740139821
 21
1.986559338002049
 31
0.0
  0
LINE
  5
8A7
330
18
100
AcDbEntity
  8
TEXT
100
AcDbLine
 10
3.140079311127736
 20
1.986559338002049
 30
0.0
 11
3.068280344983828
 21
1.986559338002049
 31
0.0
  0
ARC
  5
8A8
330
18
100
AcDbEntity
  8
TEXT
100
AcDbCircle
 10
3.155065835250505
 20
1.759634027287233
 30
0.0
 40
0.0392772371940762
100
AcDbArc
 50
270.1604552698595
 51
330.0831797321295
  0
ARC
  5
8A9
330
18
100
AcDbEntity
  8
TEXT
100
AcDbCircle
 10
3.06476498935828
 20
1.779878696351588
 30
0.0
 40
0.0601160179737537
100
AcDbArc
 50
180.0000000000003
 51
264.0521544866073
  0
LINE
  5
8AA
330
18
100
AcDbEntity
  8
TEXT
100
AcDbLine
 10
3.058535578864634
 20
1.720086305013538
 30
0.0
 11
3.155175829939628
 21
1.72035694411182
 31
0.0
  0
LWPOLYLINE
  5
8AB
330
18
100
AcDbEntity
  8
TEXT
100
AcDbPolyline
 90
        6
 70
     1
 43
0.0
 10
3.101059382439784
 20
1.922282643345283
 10
3.070742788219575
 20
1.922282643345283
 10
3.070742788219575
 20
1.799171645290389
 42
0.407328721240804
 10
3.082286439381052
 20
1.787352730614003
 10
3.142908138425783
 20
1.787352730614003
 10
3.160373478833101
 20
1.820164959657482
  0
LINE
  5
8AC
330
18
100
AcDbEntity
  8
TEXT
100
AcDbLine
 10
3.004648971384528
 20
1.922282643345283
 30
0.0
 11
3.004648971384528
 21
1.779878696351588
 31
0.0
  0
LINE
  5
8AD
330
18
100
AcDbEntity
  8
TEXT
100
AcDbLine
 10
3.189109395162719
 20
1.740044811118551
 30
0.0
 11
3.286409101256164
 21
1.904395022053819
 31
0.0
  0
LINE
  5
8AE
330
18
100
AcDbEntity
  8
TEXT
100
AcDbLine
 10
3.286409101256164
 20
1.904395022053819
 30
0.0
 11
3.286409101256164
 21
1.771637647228462
 31
0.0
  0
LWPOLYLINE
  5
8AF
330
18
100
AcDbEntity
  8
TEXT
100
AcDbPolyline
 90
        2
 70
     0
 43
0.0
 10
3.286409101256163
 20
1.771637647228466
 42
0.3318488747599744
 10
3.355528393821476
 20
1.720086305013538
 42
-6.868794160588311
  0
LINE
  5
8B0
330
18
100
AcDbEntity
  8
TEXT
100
AcDbLine
 10
3.35438882032528
 20
2.054570815740859
 30
0.0
 11
3.287580107758915
 21
2.054570815740859
 31
0.0
  0
LWPOLYLINE
  5
8B1
330
18
100
AcDbEntity
  8
TEXT
100
AcDbPolyline
 90
        4
 70
     0
 43
0.0
 10
3.639666229379074
 20
1.914728854179173
 10
3.639666229379074
 20
1.720086305013538
 10
3.708144512666931
 20
1.720086305013538
 10
3.708144512666931
 20
1.763577249963976
 42
-1.714843617202739
  0
LWPOLYLINE
  5
8B2
330
18
100
AcDbEntity
  8
TEXT
100
AcDbPolyline
 90
        2
 70
     0
 43
0.0
 10
3.674800579923283
 20
1.986559338002052
 42
-0.3277054968067132
 10
3.710582270636448
 20
1.958236792232408
 42
6.667889725900311
  0
TEXT
  5
8B3
330
18
100
AcDbEntity
  8
TEXT
100
AcDbText
 10
4.457146544449841
 20
1.812972113659034
 30
0.0
 40
0.0522247191011236
  1
Minneapolis, MN 55432-0008
 41
1.11444212721585
 72
     5
 11
5.786079128719505
 21
1.812972113659034
 31
0.0
100
AcDbText
  0
TEXT
  5
8B4
330
18
100
AcDbEntity
  8
TEXT
100
AcDbText
 10
4.457146544449841
 20
1.906230540625326
 30
0.0
 40
0.0522247191011236
  1
6536 Main St. N.E. * P.O. Box 32008
 41
0.8388932496075353
 72
     5
 11
5.786079128719505
 21
1.906230540625326
 31
0.0
100
AcDbText
  0
TEXT
  5
8B5
330
18
100
AcDbEntity
  8
TEXT
100
AcDbText
 10
4.457146544449841
 20
1.999488967591618
 30
0.0
 40
0.0522247191011236
  1
Stylmark  Incorporated
 41
1.221428571428571
 72
     5
 11
5.786079128719505
 21
1.999488967591618
 31
0.0
100
AcDbText
  0
TEXT
  5
8B6
330
18
100
AcDbEntity
  8
TEXT
100
AcDbText
 10
4.457146544449841
 20
1.719713686692742
 30
0.0
 40
0.0522247191011236
  1
Phone  1-800-328-2495
 41
1.272321428571429
 72
     5
 11
5.786079128719505
 21
1.719713686692742
 31
0.0
100
AcDbText
  0
LINE
  5
8B7
330
18
100
AcDbEntity
  8
TEXT
100
AcDbLine
 10
2.903343453599859
 20
1.886477921734655
 30
0.0
 11
2.837743317355558
 21
1.886477921734655
 31
0.0
  0
ARC
  5
8B8
330
18
100
AcDbEntity
  8
TEXT
100
AcDbCircle
 10
2.837743317355558
 20
1.904380282539971
 30
0.0
 40
0.017902360805315
100
AcDbArc
 50
90.0
 51
270.0
  0
LINE
  5
8B9
330
18
100
AcDbEntity
  8
TEXT
100
AcDbLine
 10
2.83250598724131
 20
1.822384419109042
 30
0.0
 11
2.908283827506139
 21
1.822384419109042
 31
0.0
  0
LINE
  5
8BA
330
18
100
AcDbEntity
  8
TEXT
100
AcDbLine
 10
2.908283827506139
 20
1.788443311346977
 30
0.0
 11
2.750418527794805
 21
1.788443311346977
 31
0.0
  0
LINE
  5
8BB
330
18
100
AcDbEntity
  8
TEXT
100
AcDbLine
 10
2.750418527794806
 20
1.720086305013538
 30
0.0
 11
2.903343453599859
 21
1.720086305013538
 31
0.0
  0
ARC
  5
8BC
330
18
100
AcDbEntity
  8
TEXT
100
AcDbCircle
 10
2.83250598724131
 20
1.904471878555547
 30
0.0
 40
0.0820874594465043
100
AcDbArc
 50
90.0
 51
270.0
  0
LINE
  5
8BD
330
18
100
AcDbEntity
  8
TEXT
100
AcDbLine
 10
3.008237740139821
 20
1.986559338002049
 30
0.0
 11
2.83250598724131
 21
1.986559338002049
 31
0.0
  0
ARC
  5
8BE
330
18
100
AcDbEntity
  8
TEXT
100
AcDbCircle
 10
2.908283827506139
 20
1.805413865228011
 30
0.0
 40
0.0169705538810321
100
AcDbArc
 50
270.0
 51
90.0
  0
ARC
  5
8BF
330
18
100
AcDbEntity
  8
TEXT
100
AcDbCircle
 10
2.903343453599859
 20
1.803282113374095
 30
0.0
 40
0.0831958083605586
100
AcDbArc
 50
270.0
 51
90.0
  0
LINE
  5
8C0
330
18
100
AcDbEntity
  8
TEXT
100
AcDbLine
 10
2.837743317355558
 20
1.922282643345283
 30
0.0
 11
3.004648971384528
 21
1.922282643345283
 31
0.0
  0
LWPOLYLINE
  5
8C1
330
18
100
AcDbEntity
  8
TEXT
100
AcDbPolyline
 90
        2
 70
     0
 43
0.0006660908203125
 10
2.540985547695031
 20
1.873323898548925
 10
2.567629180507532
 20
1.873323898548925
  0
LINE
  5
8C2
330
18
100
AcDbEntity
  8
TEXT
100
AcDbLine
 10
2.750418527794805
 20
1.788443311346977
 30
0.0
 11
2.750418527794806
 21
1.720086305013538
 31
0.0
  0
LWPOLYLINE
  5
8C3
330
18
100
AcDbEntity
  8
TEXT
100
AcDbPolyline
 90
        2
 70
     0
 43
0.0006660908203125
 10
2.540985547695031
 20
1.833358449330177
 10
2.567629180507532
 20
1.833358449330177
  0
LWPOLYLINE
  5
8C4
330
18
100
AcDbEntity
  8
TEXT
100
AcDbPolyline
 90
        2
 70
     0
 43
0.0001332181640625
 10
2.454393741054406
 20
1.986559338002052
 10
2.444402378749717
 20
1.913289347767673
  0
LWPOLYLINE
  5
8C5
330
18
100
AcDbEntity
  8
TEXT
100
AcDbPolyline
 90
        2
 70
     0
 43
0.0001332181640625
 10
2.454393741054406
 20
1.959915705189551
 10
2.444402378749717
 20
1.899967531361426
  0
LWPOLYLINE
  5
8C6
330
18
100
AcDbEntity
  8
TEXT
100
AcDbPolyline
 90
        2
 70
     0
 43
0.0006660908203125
 10
2.454393741054406
 20
1.959915705189551
 10
2.454393741054406
 20
1.986559338002052
  0
LWPOLYLINE
  5
8C7
330
18
100
AcDbEntity
  8
TEXT
100
AcDbPolyline
 90
        5
 70
     0
 43
0.0001332181640625
 10
2.444402378749717
 20
1.913289347767673
 10
2.444402378749717
 20
1.899967531361426
 10
2.481037373866907
 20
1.899967531361426
 10
2.481037373866907
 20
1.863332536244236
 10
2.494359190273156
 20
1.863332536244236
  0
LWPOLYLINE
  5
8C8
330
18
100
AcDbEntity
  8
TEXT
100
AcDbPolyline
 90
        2
 70
     0
 43
0.0001332181640625
 10
2.414428291835655
 20
1.959915705189551
 10
2.424419654140345
 20
1.899967531361426
  0
LWPOLYLINE
  5
8C9
330
18
100
AcDbEntity
  8
TEXT
100
AcDbPolyline
 90
        2
 70
     0
 43
0.0001332181640625
 10
2.424419654140345
 20
1.913289347767673
 10
2.414428291835655
 20
1.986559338002052
  0
LWPOLYLINE
  5
8CA
330
18
100
AcDbEntity
  8
TEXT
100
AcDbPolyline
 90
        2
 70
     0
 43
0.0006660908203125
 10
2.414428291835655
 20
1.959915705189551
 10
2.414428291835655
 20
1.986559338002052
  0
LWPOLYLINE
  5
8CB
330
18
100
AcDbEntity
  8
TEXT
100
AcDbPolyline
 90
        5
 70
     0
 43
0.0001332181640625
 10
2.374462842616907
 20
1.863332536244236
 10
2.387784659023155
 20
1.863332536244236
 10
2.387784659023155
 20
1.899967531361426
 10
2.424419654140345
 20
1.899967531361426
 10
2.424419654140345
 20
1.913289347767673
  0
LWPOLYLINE
  5
8CC
330
18
100
AcDbEntity
  8
TEXT
100
AcDbPolyline
 90
        2
 70
     0
 43
0.0006660908203125
 10
2.32783648519503
 20
1.873323898548925
 10
2.301192852382532
 20
1.873323898548925
  0
LWPOLYLINE
  5
8CD
330
18
100
AcDbEntity
  8
TEXT
100
AcDbPolyline
 90
        2
 70
     0
 43
0.0001332181640625
 10
2.301192852382532
 20
1.873323898548925
 10
2.374462842616907
 20
1.863332536244236
  0
LWPOLYLINE
  5
8CE
330
18
100
AcDbEntity
  8
TEXT
100
AcDbPolyline
 90
        2
 70
     0
 43
0.0001332181640625
 10
2.32783648519503
 20
1.873323898548925
 10
2.387784659023155
 20
1.863332536244236
  0
LWPOLYLINE
  5
8CF
330
18
100
AcDbEntity
  8
TEXT
100
AcDbPolyline
 90
        2
 70
     0
 43
0.0001332181640625
 10
2.32783648519503
 20
1.959915705189551
 10
2.387784659023155
 20
1.899967531361426
  0
LWPOLYLINE
  5
8D0
330
18
100
AcDbEntity
  8
TEXT
100
AcDbPolyline
 90
        3
 70
     0
 43
0.0006660908203125
 10
2.414428291835655
 20
1.959915705189551
 10
2.32783648519503
 20
1.959915705189551
 10
2.32783648519503
 20
1.873323898548925
  0
LWPOLYLINE
  5
8D1
330
18
100
AcDbEntity
  8
TEXT
100
AcDbPolyline
 90
        3
 70
     0
 43
0.0006660908203125
 10
2.414428291835655
 20
1.986559338002052
 10
2.301192852382532
 20
1.986559338002052
 10
2.301192852382532
 20
1.873323898548925
  0
LWPOLYLINE
  5
8D2
330
18
100
AcDbEntity
  8
TEXT
100
AcDbPolyline
 90
        5
 70
     0
 43
0.0001332181640625
 10
2.494359190273156
 20
1.843349811634862
 10
2.481037373866907
 20
1.843349811634862
 10
2.481037373866907
 20
1.806714816517676
 10
2.444402378749717
 20
1.806714816517676
 10
2.444402378749717
 20
1.793393000111425
  0
LWPOLYLINE
  5
8D3
330
18
100
AcDbEntity
  8
TEXT
100
AcDbPolyline
 90
        2
 70
     0
 43
0.0006660908203125
 10
2.454393741054406
 20
1.74676664268955
 10
2.454393741054406
 20
1.720123009877049
  0
LWPOLYLINE
  5
8D4
330
18
100
AcDbEntity
  8
TEXT
100
AcDbPolyline
 90
        2
 70
     0
 43
0.0001332181640625
 10
2.444402378749717
 20
1.793393000111425
 10
2.454393741054406
 20
1.720123009877049
  0
LWPOLYLINE
  5
8D5
330
18
100
AcDbEntity
  8
TEXT
100
AcDbPolyline
 90
        2
 70
     0
 43
0.0001332181640625
 10
2.454393741054406
 20
1.74676664268955
 10
2.444402378749717
 20
1.806714816517676
  0
LWPOLYLINE
  5
8D6
330
18
100
AcDbEntity
  8
TEXT
100
AcDbPolyline
 90
        2
 70
     0
 43
0.0001332181640625
 10
2.414428291835655
 20
1.720123009877049
 10
2.424419654140345
 20
1.793393000111425
  0
LWPOLYLINE
  5
8D7
330
18
100
AcDbEntity
  8
TEXT
100
AcDbPolyline
 90
        2
 70
     0
 43
0.0001332181640625
 10
2.414428291835655
 20
1.74676664268955
 10
2.424419654140345
 20
1.806714816517676
  0
LWPOLYLINE
  5
8D8
330
18
100
AcDbEntity
  8
TEXT
100
AcDbPolyline
 90
        2
 70
     0
 43
0.0006660908203125
 10
2.414428291835655
 20
1.74676664268955
 10
2.414428291835655
 20
1.720123009877049
  0
LWPOLYLINE
  5
8D9
330
18
100
AcDbEntity
  8
TEXT
100
AcDbPolyline
 90
        5
 70
     0
 43
0.0001332181640625
 10
2.424419654140345
 20
1.793393000111425
 10
2.424419654140345
 20
1.806714816517676
 10
2.387784659023157
 20
1.806714816517676
 10
2.387784659023157
 20
1.843349811634862
 10
2.374462842616907
 20
1.843349811634862
  0
LWPOLYLINE
  5
8DA
330
18
100
AcDbEntity
  8
TEXT
100
AcDbPolyline
 90
        2
 70
     0
 43
0.0006660908203125
 10
2.32783648519503
 20
1.833358449330177
 10
2.301192852382532
 20
1.833358449330177
  0
LWPOLYLINE
  5
8DB
330
18
100
AcDbEntity
  8
TEXT
100
AcDbPolyline
 90
        2
 70
     0
 43
0.0001332181640625
 10
2.32783648519503
 20
1.74676664268955
 10
2.387784659023157
 20
1.806714816517676
  0
LWPOLYLINE
  5
8DC
330
18
100
AcDbEntity
  8
TEXT
100
AcDbPolyline
 90
        2
 70
     0
 43
0.0001332181640625
 10
2.32783648519503
 20
1.833358449330177
 10
2.387784659023157
 20
1.843349811634862
  0
LWPOLYLINE
  5
8DD
330
18
100
AcDbEntity
  8
TEXT
100
AcDbPolyline
 90
        2
 70
     0
 43
0.0001332181640625
 10
2.374462842616907
 20
1.843349811634862
 10
2.301192852382532
 20
1.833358449330177
  0
LWPOLYLINE
  5
8DE
330
18
100
AcDbEntity
  8
TEXT
100
AcDbPolyline
 90
        3
 70
     0
 43
0.0006660908203125
 10
2.32783648519503
 20
1.833358449330177
 10
2.32783648519503
 20
1.74676664268955
 10
2.414428291835655
 20
1.74676664268955
  0
LWPOLYLINE
  5
8DF
330
18
100
AcDbEntity
  8
TEXT
100
AcDbPolyline
 90
        3
 70
     0
 43
0.0006660908203125
 10
2.301192852382532
 20
1.833358449330177
 10
2.301192852382532
 20
1.720123009877049
 10
2.414428291835655
 20
1.720123009877049
  0
LWPOLYLINE
  5
8E0
330
18
100
AcDbEntity
  8
TEXT
100
AcDbPolyline
 90
        3
 70
     0
 43
0.0006660908203125
 10
2.454393741054406
 20
1.720123009877049
 10
2.567629180507532
 20
1.720123009877049
 10
2.567629180507532
 20
1.833358449330177
  0
LWPOLYLINE
  5
8E1
330
18
100
AcDbEntity
  8
TEXT
100
AcDbPolyline
 90
        3
 70
     0
 43
0.0006660908203125
 10
2.454393741054406
 20
1.74676664268955
 10
2.540985547695031
 20
1.74676664268955
 10
2.540985547695031
 20
1.833358449330177
  0
LWPOLYLINE
  5
8E2
330
18
100
AcDbEntity
  8
TEXT
100
AcDbPolyline
 90
        2
 70
     0
 43
0.0001332181640625
 10
2.540985547695031
 20
1.74676664268955
 10
2.481037373866907
 20
1.806714816517676
  0
LWPOLYLINE
  5
8E3
330
18
100
AcDbEntity
  8
TEXT
100
AcDbPolyline
 90
        2
 70
     0
 43
0.0001332181640625
 10
2.540985547695031
 20
1.833358449330177
 10
2.481037373866907
 20
1.843349811634862
  0
LWPOLYLINE
  5
8E4
330
18
100
AcDbEntity
  8
TEXT
100
AcDbPolyline
 90
        2
 70
     0
 43
0.0001332181640625
 10
2.567629180507532
 20
1.833358449330177
 10
2.494359190273156
 20
1.843349811634862
  0
LWPOLYLINE
  5
8E5
330
18
100
AcDbEntity
  8
TEXT
100
AcDbPolyline
 90
        2
 70
     0
 43
0.0001332181640625
 10
2.540985547695031
 20
1.959915705189551
 10
2.481037373866907
 20
1.899967531361426
  0
LWPOLYLINE
  5
8E6
330
18
100
AcDbEntity
  8
TEXT
100
AcDbPolyline
 90
        2
 70
     0
 43
0.0001332181640625
 10
2.540985547695031
 20
1.873323898548925
 10
2.481037373866907
 20
1.863332536244236
  0
LWPOLYLINE
  5
8E7
330
18
100
AcDbEntity
  8
TEXT
100
AcDbPolyline
 90
        2
 70
     0
 43
0.0001332181640625
 10
2.494359190273156
 20
1.863332536244236
 10
2.567629180507532
 20
1.873323898548925
  0
LWPOLYLINE
  5
8E8
330
18
100
AcDbEntity
  8
TEXT
100
AcDbPolyline
 90
        3
 70
     0
 43
0.0006660908203125
 10
2.540985547695031
 20
1.873323898548925
 10
2.540985547695031
 20
1.959915705189551
 10
2.454393741054406
 20
1.959915705189551
  0
LWPOLYLINE
  5
8E9
330
18
100
AcDbEntity
  8
TEXT
100
AcDbPolyline
 90
        3
 70
     0
 43
0.0006660908203125
 10
2.567629180507532
 20
1.873323898548925
 10
2.567629180507532
 20
1.986559338002052
 10
2.454393741054406
 20
1.986559338002052
  0
ENDSEC
  0
SECTION
  2
OBJECTS
  0
DICTIONARY
  5
C
330
0
100
AcDbDictionary
  3
ACAD_GROUP
350
D
  3
ACAD_LAYOUT
350
8EE
  3
ACAD_MLINESTYLE
350
E
  3
ACAD_PLOTSETTINGS
350
8EF
  3
ACAD_PLOTSTYLENAME
350
8EC
  3
ACDBHEADERROUNDTRIPXREC
350
8F9
  3
ACDBVARIABLEDICTIONARY
350
8F6
  0
DICTIONARY
  5
91B
330
18
100
AcDbDictionary
280
     1
  3
ACAD_LAYOUTSELFREF
360
91C
  0
DICTIONARY
  5
919
330
15
100
AcDbDictionary
280
     1
  3
ACAD_LAYOUTSELFREF
360
91A
  0
DICTIONARY
  5
D
102
{ACAD_REACTORS
330
C
102
}
330
C
100
AcDbDictionary
  3
*A1
350
5AA
  3
*A2
350
763
  0
DICTIONARY
  5
8EE
102
{ACAD_REACTORS
330
C
102
}
330
C
100
AcDbDictionary
  0
DICTIONARY
  5
E
102
{ACAD_REACTORS
330
C
102
}
330
C
100
AcDbDictionary
  3
STANDARD
350
1B
  0
DICTIONARY
  5
8EF
102
{ACAD_REACTORS
330
C
102
}
330
C
100
AcDbDictionary
  0
ACDBDICTIONARYWDFLT
  5
8EC
102
{ACAD_REACTORS
330
C
102
}
330
C
100
AcDbDictionary
281
     1
  3
Normal
350
8ED
100
AcDbDictionaryWithDefault
340
8ED
  0
DICTIONARY
  5
8F9
102
{ACAD_REACTORS
330
C
102
}
330
C
100
AcDbDictionary
  3
CEPSNTYPE
350
903
  3
FINGERPRINTGUID
350
904
  3
HYPERLINKBASE
350
8FC
  3
INSUNITS
350
902
  3
LAYOUTDICT
350
8FE
  3
LWETCUNION
350
901
  3
PLOTSETDICT
350
8FF
  3
PLOTSTYLNAMDICT
350
900
  3
PSVPSCALE
350
906
  3
PUCSBASE
350
909
  3
PUCSORGBACK
350
90F
  3
PUCSORGBOTTOM
350
90B
  3
PUCSORGFRONT
350
90E
  3
PUCSORGLEFT
350
90C
  3
PUCSORGRIGHT
350
90D
  3
PUCSORGTOP
350
90A
  3
PUCSORTHOREF
350
907
  3
PUCSORTHOVIEW
350
908
  3
STYLESHEET
350
8FD
  3
TSTACKALIGN
350
8FA
  3
TSTACKSIZE
350
8FB
  3
UCSBASE
350
912
  3
UCSORGBACK
350
918
  3
UCSORGBOTTOM
350
914
  3
UCSORGFRONT
350
917
  3
UCSORGLEFT
350
915
  3
UCSORGRIGHT
350
916
  3
UCSORGTOP
350
913
  3
UCSORTHOREF
350
910
  3
UCSORTHOVIEW
350
911
  3
VERSIONGUID
350
905
  0
DICTIONARY
  5
8F6
102
{ACAD_REACTORS
330
C
102
}
330
C
100
AcDbDictionary
  3
DIMASSOC
350
8F7
  0
XRECORD
  5
91C
102
{ACAD_REACTORS
330
91B
102
}
330
91B
100
AcDbXrecord
340
18
  0
XRECORD
  5
91A
102
{ACAD_REACTORS
330
919
102
}
330
919
100
AcDbXrecord
340
15
  0
GROUP
  5
5AA
102
{ACAD_REACTORS
330
D
102
}
330
D
100
AcDbGroup
300
BORDER FRAME 10-1-95
 70
     3
 71
     1
  0
GROUP
  5
763
102
{ACAD_REACTORS
330
D
102
}
330
D
100
AcDbGroup
300

 70
     1
 71
     1
  0
MLINESTYLE
  5
1B
102
{ACAD_REACTORS
330
E
102
}
330
E
100
AcDbMlineStyle
  2
STANDARD
 70
     0
  3

 62
     0
 51
90.0
 52
90.0
 71
     2
 49
0.5
 62
   256
  6
BYLAYER
 49
-0.5
 62
   256
  6
BYLAYER
  0
ACDBPLACEHOLDER
  5
8ED
102
{ACAD_REACTORS
330
8EC
102
}
330
8EC
100
AcDbPlaceHolder
280
     0
  0
XRECORD
  5
903
102
{ACAD_REACTORS
330
8F9
102
}
330
8F9
100
AcDbXrecord
 90
        0
  0
XRECORD
  5
904
102
{ACAD_REACTORS
330
8F9
102
}
330
8F9
100
AcDbXrecord
  1
{8990B3B0-8DB4-11D6-88E6-0090279574E7}
  0
XRECORD
  5
8FC
102
{ACAD_REACTORS
330
8F9
102
}
330
8F9
100
AcDbXrecord
  1

  0
XRECORD
  5
902
102
{ACAD_REACTORS
330
8F9
102
}
330
8F9
100
AcDbXrecord
 90
        0
  0
XRECORD
  5
8FE
102
{ACAD_REACTORS
330
8F9
102
}
330
8F9
100
AcDbXrecord
340
8EE
  0
XRECORD
  5
901
102
{ACAD_REACTORS
330
8F9
102
}
330
8F9
100
AcDbXrecord
 90
    14877
  0
XRECORD
  5
8FF
102
{ACAD_REACTORS
330
8F9
102
}
330
8F9
100
AcDbXrecord
340
8EF
  0
XRECORD
  5
900
102
{ACAD_REACTORS
330
8F9
102
}
330
8F9
100
AcDbXrecord
340
8EC
  0
XRECORD
  5
906
102
{ACAD_REACTORS
330
8F9
102
}
330
8F9
100
AcDbXrecord
 40
0.0
  0
XRECORD
  5
909
102
{ACAD_REACTORS
330
8F9
102
}
330
8F9
100
AcDbXrecord
340
0
  0
XRECORD
  5
90F
102
{ACAD_REACTORS
330
8F9
102
}
330
8F9
100
AcDbXrecord
 10
0.0
 20
0.0
 30
0.0
  0
XRECORD
  5
90B
102
{ACAD_REACTORS
330
8F9
102
}
330
8F9
100
AcDbXrecord
 10
0.0
 20
0.0
 30
0.0
  0
XRECORD
  5
90E
102
{ACAD_REACTORS
330
8F9
102
}
330
8F9
100
AcDbXrecord
 10
0.0
 20
0.0
 30
0.0
  0
XRECORD
  5
90C
102
{ACAD_REACTORS
330
8F9
102
}
330
8F9
100
AcDbXrecord
 10
0.0
 20
0.0
 30
0.0
  0
XRECORD
  5
90D
102
{ACAD_REACTORS
330
8F9
102
}
330
8F9
100
AcDbXrecord
 10
0.0
 20
0.0
 30
0.0
  0
XRECORD
  5
90A
102
{ACAD_REACTORS
330
8F9
102
}
330
8F9
100
AcDbXrecord
 10
0.0
 20
0.0
 30
0.0
  0
XRECORD
  5
907
102
{ACAD_REACTORS
330
8F9
102
}
330
8F9
100
AcDbXrecord
340
0
  0
XRECORD
  5
908
102
{ACAD_REACTORS
330
8F9
102
}
330
8F9
100
AcDbXrecord
 70
     0
  0
XRECORD
  5
8FD
102
{ACAD_REACTORS
330
8F9
102
}
330
8F9
100
AcDbXrecord
  1

  0
XRECORD
  5
8FA
102
{ACAD_REACTORS
330
8F9
102
}
330
8F9
100
AcDbXrecord
 90
        1
  0
XRECORD
  5
8FB
102
{ACAD_REACTORS
330
8F9
102
}
330
8F9
100
AcDbXrecord
 90
       70
  0
XRECORD
  5
912
102
{ACAD_REACTORS
330
8F9
102
}
330
8F9
100
AcDbXrecord
340
0
  0
XRECORD
  5
918
102
{ACAD_REACTORS
330
8F9
102
}
330
8F9
100
AcDbXrecord
 10
0.0
 20
0.0
 30
0.0
  0
XRECORD
  5
914
102
{ACAD_REACTORS
330
8F9
102
}
330
8F9
100
AcDbXrecord
 10
0.0
 20
0.0
 30
0.0
  0
XRECORD
  5
917
102
{ACAD_REACTORS
330
8F9
102
}
330
8F9
100
AcDbXrecord
 10
0.0
 20
0.0
 30
0.0
  0
XRECORD
  5
915
102
{ACAD_REACTORS
330
8F9
102
}
330
8F9
100
AcDbXrecord
 10
0.0
 20
0.0
 30
0.0
  0
XRECORD
  5
916
102
{ACAD_REACTORS
330
8F9
102
}
330
8F9
100
AcDbXrecord
 10
0.0
 20
0.0
 30
0.0
  0
XRECORD
  5
913
102
{ACAD_REACTORS
330
8F9
102
}
330
8F9
100
AcDbXrecord
 10
0.0
 20
0.0
 30
0.0
  0
XRECORD
  5
910
102
{ACAD_REACTORS
330
8F9
102
}
330
8F9
100
AcDbXrecord
340
0
  0
XRECORD
  5
911
102
{ACAD_REACTORS
330
8F9
102
}
330
8F9
100
AcDbXrecord
 70
     0
  0
XRECORD
  5
905
102
{ACAD_REACTORS
330
8F9
102
}
330
8F9
100
AcDbXrecord
  1
{8990B3B2-8DB4-11D6-88E6-0090279574E7}
  0
DICTIONARYVAR
  5
8F7
102
{ACAD_REACTORS
330
8F6
102
}
330
8F6
100
DictionaryVariables
280
     0
  1
1
  0
ENDSEC
  0
EOF
