  0
SECTION
  2
HEADER
  9
$ACADVER
  1
AC1014
  9
$ACADMAINTVER
 70
     9
  9
$DWGCODEPAGE
  3
ANSI_1252
  9
$INSBASE
 10
2.9375
 20
1.921875
 30
0.0
  9
$EXTMIN
 10
1.225768420772856
 20
0.8544813959174186
 30
0.0
  9
$EXTMAX
 10
4.710987742519987
 20
2.3199
 30
0.0
  9
$LIMMIN
 10
0.0
 20
0.0
  9
$LIMMAX
 10
18.0
 20
12.0
  9
$ORTHOMODE
 70
     1
  9
$REGENMODE
 70
     1
  9
$FILLMODE
 70
     1
  9
$QTEXTMODE
 70
     0
  9
$MIRRTEXT
 70
     0
  9
$DRAGMODE
 70
     2
  9
$LTSCALE
 40
1.0
  9
$OSMODE
 70
    39
  9
$ATTMODE
 70
     1
  9
$TEXTSIZE
 40
0.125
  9
$TRACEWID
 40
0.05
  9
$TEXTSTYLE
  7
ROMANS
  9
$CLAYER
  8
0
  9
$CELTYPE
  6
BYLAYER
  9
$CECOLOR
 62
   256
  9
$CELTSCALE
 40
1.0
  9
$DELOBJ
 70
     1
  9
$DISPSILH
 70
     1
  9
$DIMSCALE
 40
1.0
  9
$DIMASZ
 40
0.125
  9
$DIMEXO
 40
0.125
  9
$DIMDLI
 40
0.375
  9
$DIMRND
 40
0.0
  9
$DIMDLE
 40
0.0
  9
$DIMEXE
 40
0.125
  9
$DIMTP
 40
0.0
  9
$DIMTM
 40
0.0
  9
$DIMTXT
 40
0.125
  9
$DIMCEN
 40
-0.125
  9
$DIMTSZ
 40
0.0
  9
$DIMTOL
 70
     0
  9
$DIMLIM
 70
     0
  9
$DIMTIH
 70
     1
  9
$DIMTOH
 70
     1
  9
$DIMSE1
 70
     0
  9
$DIMSE2
 70
     0
  9
$DIMTAD
 70
     0
  9
$DIMZIN
 70
     4
  9
$DIMBLK
  1

  9
$DIMASO
 70
     1
  9
$DIMSHO
 70
     1
  9
$DIMPOST
  1

  9
$DIMAPOST
  1

  9
$DIMALT
 70
     0
  9
$DIMALTD
 70
     2
  9
$DIMALTF
 40
25.4
  9
$DIMLFAC
 40
1.0
  9
$DIMTOFL
 70
     0
  9
$DIMTVP
 40
0.0
  9
$DIMTIX
 70
     1
  9
$DIMSOXD
 70
     0
  9
$DIMSAH
 70
     0
  9
$DIMBLK1
  1

  9
$DIMBLK2
  1

  9
$DIMSTYLE
  2
STANDARD
  9
$DIMCLRD
 70
     0
  9
$DIMCLRE
 70
     0
  9
$DIMCLRT
 70
     0
  9
$DIMTFAC
 40
1.0
  9
$DIMGAP
 40
0.09
  9
$DIMJUST
 70
     0
  9
$DIMSD1
 70
     0
  9
$DIMSD2
 70
     0
  9
$DIMTOLJ
 70
     1
  9
$DIMTZIN
 70
     4
  9
$DIMALTZ
 70
     0
  9
$DIMALTTZ
 70
     0
  9
$DIMFIT
 70
     3
  9
$DIMUPT
 70
     0
  9
$DIMUNIT
 70
     2
  9
$DIMDEC
 70
     3
  9
$DIMTDEC
 70
     3
  9
$DIMALTU
 70
     2
  9
$DIMALTTD
 70
     2
  9
$DIMTXSTY
  7
ROMANS
  9
$DIMAUNIT
 70
     0
  9
$LUNITS
 70
     2
  9
$LUPREC
 70
     3
  9
$SKETCHINC
 40
0.1
  9
$FILLETRAD
 40
0.03125
  9
$AUNITS
 70
     0
  9
$AUPREC
 70
     0
  9
$MENU
  1
ACAD
  9
$ELEVATION
 40
0.0
  9
$PELEVATION
 40
0.0
  9
$THICKNESS
 40
0.0
  9
$LIMCHECK
 70
     0
  9
$BLIPMODE
 70
     0
  9
$CHAMFERA
 40
0.0
  9
$CHAMFERB
 40
0.0
  9
$CHAMFERC
 40
0.0
  9
$CHAMFERD
 40
0.0
  9
$SKPOLY
 70
     0
  9
$TDCREATE
 40
2448994.348609606
  9
$TDUPDATE
 40
2452458.298089479
  9
$TDINDWG
 40
0.0006600347
  9
$TDUSRTIMER
 40
0.0006600347
  9
$USRTIMER
 70
     1
  9
$ANGBASE
 50
0.0
  9
$ANGDIR
 70
     0
  9
$PDMODE
 70
     0
  9
$PDSIZE
 40
0.0
  9
$PLINEWID
 40
0.0
  9
$COORDS
 70
     2
  9
$SPLFRAME
 70
     0
  9
$SPLINETYPE
 70
     6
  9
$SPLINESEGS
 70
     8
  9
$ATTDIA
 70
     0
  9
$ATTREQ
 70
     1
  9
$HANDLING
 70
 22529
  9
$HANDSEED
  5
7DE1B343D9D197D
  9
$SURFTAB1
 70
     6
  9
$SURFTAB2
 70
     6
  9
$SURFTYPE
 70
     6
  9
$SURFU
 70
     6
  9
$SURFV
 70
     6
  9
$UCSNAME
  2

  9
$UCSORG
 10
0.0
 20
0.0
 30
0.0
  9
$UCSXDIR
 10
1.0
 20
0.0
 30
0.0
  9
$UCSYDIR
 10
0.0
 20
1.0
 30
0.0
  9
$PUCSNAME
  2

  9
$PUCSORG
 10
0.0
 20
0.0
 30
0.0
  9
$PUCSXDIR
 10
1.0
 20
0.0
 30
0.0
  9
$PUCSYDIR
 10
0.0
 20
1.0
 30
0.0
  9
$USERI1
 70
     0
  9
$USERI2
 70
     0
  9
$USERI3
 70
     0
  9
$USERI4
 70
     0
  9
$USERI5
 70
     0
  9
$USERR1
 40
0.0
  9
$USERR2
 40
0.0
  9
$USERR3
 40
0.0
  9
$USERR4
 40
0.0
  9
$USERR5
 40
0.0
  9
$WORLDVIEW
 70
     1
  9
$SHADEDGE
 70
     3
  9
$SHADEDIF
 70
    70
  9
$TILEMODE
 70
     1
  9
$MAXACTVP
 70
    16
  9
$PINSBASE
 10
1.057213274585944
 20
50.00000000000001
 30
1.771341477312778
  9
$PLIMCHECK
 70
     0
  9
$PEXTMIN
 10
1.000000000000000E+20
 20
1.000000000000000E+20
 30
1.000000000000000E+20
  9
$PEXTMAX
 10
-1.000000000000000E+20
 20
-1.000000000000000E+20
 30
-1.000000000000000E+20
  9
$PLIMMIN
 10
0.0
 20
0.0
  9
$PLIMMAX
 10
12.0
 20
9.0
  9
$UNITMODE
 70
     0
  9
$VISRETAIN
 70
     0
  9
$PLINEGEN
 70
     1
  9
$PSLTSCALE
 70
     0
  9
$TREEDEPTH
 70
  3020
  9
$PICKSTYLE
 70
     1
  9
$CMLSTYLE
  2
STANDARD
  9
$CMLJUST
 70
     0
  9
$CMLSCALE
 40
1.0
  9
$PROXYGRAPHICS
 70
     1
  9
$MEASUREMENT
 70
     0
  0
ENDSEC
  0
SECTION
  2
CLASSES
  0
CLASS
  1
LWPOLYLINE
  2
AcDbPolyline
  3
AutoCAD 2000
 90
        0
280
     0
281
     1
  0
CLASS
  1
ACDBDICTIONARYWDFLT
  2
AcDbDictionaryWithDefault
  3
AutoCAD 2000
 90
        0
280
     0
281
     0
  0
CLASS
  1
ACDBPLACEHOLDER
  2
AcDbPlaceHolder
  3
AutoCAD 2000
 90
        0
280
     0
281
     0
  0
CLASS
  1
LAYOUT
  2
AcDbLayout
  3
AutoCAD 2000
 90
        0
280
     0
281
     0
  0
CLASS
  1
DICTIONARYVAR
  2
AcDbDictionaryVar
  3
AutoCAD 2000
 90
        0
280
     0
281
     0
  0
CLASS
  1
LONG_TRANSACTION
  2
AcDbLongTransaction
  3
AutoCAD 2000
 90
        0
280
     0
281
     0
  0
CLASS
  1
LWPOLYLINE
  2
AcDbPolyline
  3
AutoCAD 2000
 90
        0
280
     0
281
     1
  0
CLASS
  1
HATCH
  2
AcDbHatch
  3
AutoCAD 2000
 90
        0
280
     0
281
     1
  0
CLASS
  1
XRECORD
  2
AcDbXrecord
  3
AutoCAD 2000
 90
        0
280
     0
281
     0
  0
ENDSEC
  0
SECTION
  2
TABLES
  0
TABLE
  2
VPORT
  5
7DE1B343D9D1924
330
0
100
AcDbSymbolTable
 70
     2
  0
VPORT
  5
7DE1B343D9D1958
330
7DE1B343D9D1924
100
AcDbSymbolTableRecord
100
AcDbViewportTableRecord
  2
*ACTIVE
 70
     0
 10
0.0
 20
0.0
 11
1.0
 21
1.0
 12
5.944155537792927
 22
1.587158225927453
 13
0.0
 23
0.0
 14
0.015625
 24
0.015625
 15
0.0
 25
0.0
 16
0.0
 26
0.0
 36
1.0
 17
0.0
 27
0.0
 37
0.0
 40
2.282647215150728
 41
4.320930232558139
 42
50.0
 43
0.0
 44
0.0
 50
0.0
 51
0.0
 71
     0
 72
  2000
 73
     1
 74
     0
 75
     1
 76
     0
 77
     0
 78
     0
  0
ENDTAB
  0
TABLE
  2
LTYPE
  5
7DE1B343D9D1921
330
0
100
AcDbSymbolTable
 70
     1
  0
LTYPE
  5
7DE1B343D9D192E
330
7DE1B343D9D1921
100
AcDbSymbolTableRecord
100
AcDbLinetypeTableRecord
  2
BYBLOCK
 70
     0
  3

 72
    65
 73
     0
 40
0.0
  0
LTYPE
  5
7DE1B343D9D192F
330
7DE1B343D9D1921
100
AcDbSymbolTableRecord
100
AcDbLinetypeTableRecord
  2
BYLAYER
 70
     0
  3

 72
    65
 73
     0
 40
0.0
  0
LTYPE
  5
7DE1B343D9D1930
330
7DE1B343D9D1921
100
AcDbSymbolTableRecord
100
AcDbLinetypeTableRecord
  2
CONTINUOUS
 70
     0
  3
Solid line
 72
    65
 73
     0
 40
0.0
  0
ENDTAB
  0
TABLE
  2
LAYER
  5
7DE1B343D9D191E
330
0
100
AcDbSymbolTable
 70
     2
  0
LAYER
  5
7DE1B343D9D192B
330
7DE1B343D9D191E
100
AcDbSymbolTableRecord
100
AcDbLayerTableRecord
  2
0
 70
     0
 62
     7
  6
CONTINUOUS
  0
LAYER
  5
7DE1B343D9D193B
330
7DE1B343D9D191E
100
AcDbSymbolTableRecord
100
AcDbLayerTableRecord
  2
TEXT
 70
     0
 62
     3
  6
CONTINUOUS
  0
ENDTAB
  0
TABLE
  2
STYLE
  5
7DE1B343D9D191F
330
0
100
AcDbSymbolTable
 70
     3
  0
STYLE
  5
7DE1B343D9D192C
330
7DE1B343D9D191F
100
AcDbSymbolTableRecord
100
AcDbTextStyleTableRecord
  2
STANDARD
 70
     0
 40
0.0
 41
1.0
 50
0.0
 71
     0
 42
0.3125
  3
txt
  4

  0
STYLE
  5
7DE1B343D9D1938
330
7DE1B343D9D191F
100
AcDbSymbolTableRecord
100
AcDbTextStyleTableRecord
  2
ITALICC
 70
     0
 40
0.0
 41
1.0
 50
0.0
 71
     0
 42
0.125
  3
italicc
  4

  0
STYLE
  5
7DE1B343D9D1948
330
7DE1B343D9D191F
100
AcDbSymbolTableRecord
100
AcDbTextStyleTableRecord
  2
ROMANS
 70
     0
 40
0.0
 41
1.0
 50
0.0
 71
     0
 42
0.125
  3
romans.shx
  4

  0
ENDTAB
  0
TABLE
  2
VIEW
  5
7DE1B343D9D1922
330
0
100
AcDbSymbolTable
 70
     0
  0
ENDTAB
  0
TABLE
  2
UCS
  5
7DE1B343D9D1923
330
0
100
AcDbSymbolTable
 70
     0
  0
ENDTAB
  0
TABLE
  2
APPID
  5
7DE1B343D9D1925
330
0
100
AcDbSymbolTable
 70
     1
  0
APPID
  5
7DE1B343D9D192D
330
7DE1B343D9D1925
100
AcDbSymbolTableRecord
100
AcDbRegAppTableRecord
  2
ACAD
 70
     0
  0
ENDTAB
  0
TABLE
  2
DIMSTYLE
  5
7DE1B343D9D1926
330
0
100
AcDbSymbolTable
 70
     1
  0
DIMSTYLE
105
7DE1B343D9D1940
330
7DE1B343D9D1926
100
AcDbSymbolTableRecord
100
AcDbDimStyleTableRecord
  2
STANDARD
 70
     0
  3

  4

  5

  6

  7

 40
1.0
 41
0.125
 42
0.125
 43
0.375
 44
0.125
 45
0.0
 46
0.0
 47
0.0
 48
0.0
140
0.125
141
-0.125
142
0.0
143
25.4
144
1.0
145
0.0
146
1.0
147
0.09
 71
     0
 72
     0
 73
     1
 74
     1
 75
     0
 76
     0
 77
     0
 78
     4
170
     0
171
     2
172
     0
173
     0
174
     1
175
     0
176
     0
177
     0
178
     0
270
     2
271
     3
272
     3
273
     2
274
     2
340
7DE1B343D9D1948
275
     0
280
     0
281
     0
282
     0
283
     1
284
     4
285
     0
286
     0
287
     3
288
     0
  0
ENDTAB
  0
TABLE
  2
BLOCK_RECORD
  5
7DE1B343D9D191D
330
0
100
AcDbSymbolTable
 70
     0
  0
BLOCK_RECORD
  5
7DE1B343D9D1934
102
{ACAD_XDICTIONARY
360
7DE1B343D9D197B
102
}
330
7DE1B343D9D191D
100
AcDbSymbolTableRecord
100
AcDbBlockTableRecord
  2
*MODEL_SPACE
  0
BLOCK_RECORD
  5
7DE1B343D9D1931
102
{ACAD_XDICTIONARY
360
7DE1B343D9D1979
102
}
330
7DE1B343D9D191D
100
AcDbSymbolTableRecord
100
AcDbBlockTableRecord
  2
*PAPER_SPACE
  0
ENDTAB
  0
ENDSEC
  0
SECTION
  2
BLOCKS
  0
BLOCK
  5
7DE1B343D9D193E
330
7DE1B343D9D1934
100
AcDbEntity
  8
0
100
AcDbBlockBegin
  2
*MODEL_SPACE
 70
     0
 10
0.0
 20
0.0
 30
0.0
  3
*MODEL_SPACE
  1

  0
ENDBLK
  5
7DE1B343D9D193F
330
7DE1B343D9D1934
100
AcDbEntity
  8
0
100
AcDbBlockEnd
  0
BLOCK
  5
7DE1B343D9D193C
330
7DE1B343D9D1931
100
AcDbEntity
 67
     1
  8
0
100
AcDbBlockBegin
  2
*PAPER_SPACE
 70
     0
 10
0.0
 20
0.0
 30
0.0
  3
*PAPER_SPACE
  1

  0
ENDBLK
  5
7DE1B343D9D193D
330
7DE1B343D9D1931
100
AcDbEntity
 67
     1
  8
0
100
AcDbBlockEnd
  0
ENDSEC
  0
SECTION
  2
ENTITIES
  0
LWPOLYLINE
  5
7DE1B343D9D03EF
330
7DE1B343D9D1934
100
AcDbEntity
  8
0
100
AcDbPolyline
 90
       20
 70
     1
 43
0.0
 10
3.055274999999999
 20
1.7399
 10
3.055274999999999
 20
1.7299
 42
3.574757165414695
 10
3.127967307692307
 20
1.849661226944658
 42
-0.56281832506432
 10
3.040274999999999
 20
1.902888438920061
 10
3.040275
 20
2.2899
 42
1.0
 10
2.980274999999999
 20
2.2899
 10
2.980275
 20
1.9849
 10
2.879349772881118
 20
1.9849
 10
2.859525
 20
1.95056248612139
 42
-3.732050807568867
 10
2.801024999999999
 20
1.95056248612139
 10
2.781200227118881
 20
1.9849
 10
2.680274999999999
 20
1.9849
 10
2.680274999999999
 20
2.2899
 42
1.0
 10
2.620274999999999
 20
2.2899
 10
2.620275
 20
1.7699
 42
0.4142135623730951
 10
2.640275
 20
1.7499
 10
2.820274999999999
 20
1.7499
 10
2.830274999999999
 20
1.7599
 10
2.840274999999999
 20
1.7499
 10
3.045275
 20
1.7499
 42
-0.4142135623730982
  0
CIRCLE
  5
7DE1B343D9D034D
330
7DE1B343D9D1934
100
AcDbEntity
  8
0
100
AcDbCircle
 10
3.190275
 20
1.7299
 30
0.0
 40
0.075
  0
TEXT
  5
7DE1B343D9D17DF
330
7DE1B343D9D1934
100
AcDbEntity
  8
TEXT
100
AcDbText
 10
2.215773809523809
 20
1.3125
 30
0.0
 40
0.125
  1
PART #110156
  7
ITALICC
 72
     1
 11
2.96875
 21
1.3125
 31
0.0
100
AcDbText
  0
TEXT
  5
7DE1B343D9D17E0
330
7DE1B343D9D1934
100
AcDbEntity
  8
TEXT
100
AcDbText
 10
3.38205515825032
 20
0.8655773573276249
 30
0.0
 40
0.0522247191011236
  1
Phone  1-800-328-2495
 41
1.272321428571429
 72
     5
 11
4.710987742519984
 21
0.8655773573276249
 31
0.0
100
AcDbText
  0
TEXT
  5
7DE1B343D9D17E1
330
7DE1B343D9D1934
100
AcDbEntity
  8
TEXT
100
AcDbText
 10
3.38205515825032
 20
1.145352638226501
 30
0.0
 40
0.0522247191011236
  1
Stylmark  Incorporated
 41
1.221428571428573
 72
     5
 11
4.710987742519984
 21
1.145352638226501
 31
0.0
100
AcDbText
  0
TEXT
  5
7DE1B343D9D17E2
330
7DE1B343D9D1934
100
AcDbEntity
  8
TEXT
100
AcDbText
 10
3.38205515825032
 20
1.052094211260209
 30
0.0
 40
0.0522247191011236
  1
6536 Main St. N.E. * P.O. Box 32008
 41
0.8388932496075366
 72
     5
 11
4.710987742519984
 21
1.052094211260209
 31
0.0
100
AcDbText
  0
TEXT
  5
7DE1B343D9D17E3
330
7DE1B343D9D1934
100
AcDbEntity
  8
TEXT
100
AcDbText
 10
3.38205515825032
 20
0.9588357842939171
 30
0.0
 40
0.0522247191011236
  1
Minneapolis, MN 55432-0008
 41
1.11444212721585
 72
     5
 11
4.710987742519984
 21
0.9588357842939171
 31
0.0
100
AcDbText
  0
LWPOLYLINE
  5
7DE1B343D9D17E4
330
7DE1B343D9D1934
100
AcDbEntity
  8
TEXT
100
AcDbPolyline
 90
        3
 70
     0
 43
0.0006660908203125
 10
1.226101466183012
 20
0.9792221199650597
 10
1.226101466183012
 20
0.8659866805119321
 10
1.339336905636135
 20
0.8659866805119321
  0
LWPOLYLINE
  5
7DE1B343D9D17E9
330
7DE1B343D9D1934
100
AcDbEntity
  8
TEXT
100
AcDbPolyline
 90
        3
 70
     0
 43
0.0006660908203125
 10
1.25274509899551
 20
0.9792221199650597
 10
1.25274509899551
 20
0.8926303133244331
 10
1.339336905636135
 20
0.8926303133244331
  0
LWPOLYLINE
  5
7DE1B343D9D17EE
330
7DE1B343D9D1934
100
AcDbEntity
  8
TEXT
100
AcDbPolyline
 90
        2
 70
     0
 43
0.0001332181640625
 10
1.299371456417387
 20
0.989213482269745
 10
1.226101466183012
 20
0.9792221199650597
  0
LWPOLYLINE
  5
7DE1B343D9D17F2
330
7DE1B343D9D1934
100
AcDbEntity
  8
TEXT
100
AcDbPolyline
 90
        2
 70
     0
 43
0.0001332181640625
 10
1.25274509899551
 20
0.9792221199650597
 10
1.312693272823637
 20
0.989213482269745
  0
LWPOLYLINE
  5
7DE1B343D9D17F6
330
7DE1B343D9D1934
100
AcDbEntity
  8
TEXT
100
AcDbPolyline
 90
        2
 70
     0
 43
0.0001332181640625
 10
1.25274509899551
 20
0.8926303133244331
 10
1.312693272823637
 20
0.9525784871525587
  0
LWPOLYLINE
  5
7DE1B343D9D17FA
330
7DE1B343D9D1934
100
AcDbEntity
  8
TEXT
100
AcDbPolyline
 90
        3
 70
     0
 43
0.0006660908203125
 10
1.339336905636135
 20
1.132423008636935
 10
1.226101466183012
 20
1.132423008636935
 10
1.226101466183012
 20
1.019187569183807
  0
LWPOLYLINE
  5
7DE1B343D9D17FF
330
7DE1B343D9D1934
100
AcDbEntity
  8
TEXT
100
AcDbPolyline
 90
        3
 70
     0
 43
0.0006660908203125
 10
1.339336905636135
 20
1.105779375824434
 10
1.25274509899551
 20
1.105779375824434
 10
1.25274509899551
 20
1.019187569183807
  0
LWPOLYLINE
  5
7DE1B343D9D1804
330
7DE1B343D9D1934
100
AcDbEntity
  8
TEXT
100
AcDbPolyline
 90
        2
 70
     0
 43
0.0001332181640625
 10
1.25274509899551
 20
1.105779375824434
 10
1.312693272823636
 20
1.045831201996308
  0
LWPOLYLINE
  5
7DE1B343D9D1808
330
7DE1B343D9D1934
100
AcDbEntity
  8
TEXT
100
AcDbPolyline
 90
        2
 70
     0
 43
0.0001332181640625
 10
1.25274509899551
 20
1.019187569183807
 10
1.312693272823636
 20
1.009196206879118
  0
LWPOLYLINE
  5
7DE1B343D9D180C
330
7DE1B343D9D1934
100
AcDbEntity
  8
TEXT
100
AcDbPolyline
 90
        2
 70
     0
 43
0.0001332181640625
 10
1.226101466183012
 20
1.019187569183807
 10
1.299371456417387
 20
1.009196206879118
  0
LWPOLYLINE
  5
7DE1B343D9D1810
330
7DE1B343D9D1934
100
AcDbEntity
  8
TEXT
100
AcDbPolyline
 90
        2
 70
     0
 43
0.0006660908203125
 10
1.25274509899551
 20
0.9792221199650597
 10
1.226101466183012
 20
0.9792221199650597
  0
LWPOLYLINE
  5
7DE1B343D9D1814
330
7DE1B343D9D1934
100
AcDbEntity
  8
TEXT
100
AcDbPolyline
 90
        2
 70
     0
 43
0.0006660908203125
 10
1.25274509899551
 20
1.019187569183807
 10
1.226101466183012
 20
1.019187569183807
  0
LINE
  5
7DE1B343D9D1818
330
7DE1B343D9D1934
100
AcDbEntity
  8
TEXT
100
AcDbLine
 10
2.74129189530951
 20
1.068146313980166
 30
0.0
 11
2.634085621922221
 21
1.068146313980166
 31
0.0
  0
LINE
  5
7DE1B343D9D1819
330
7DE1B343D9D1934
100
AcDbEntity
  8
TEXT
100
AcDbLine
 10
2.770322793653988
 20
1.132423008636931
 30
0.0
 11
2.635490884436929
 21
1.132423008636931
 31
0.0
  0
ARC
  5
7DE1B343D9D181A
330
7DE1B343D9D1934
100
AcDbEntity
  8
TEXT
100
AcDbCircle
 10
2.694804980830246
 20
0.9631857593739155
 30
0.0
 40
0.0676855811441166
100
AcDbArc
 50
90.0
 51
153.7768192527749
  0
LWPOLYLINE
  5
7DE1B343D9D181B
330
7DE1B343D9D1934
100
AcDbEntity
  8
TEXT
100
AcDbPolyline
 90
        2
 70
     0
 43
0.0
 10
2.633053126467411
 20
0.909440920598859
 42
0.2901071551932823
 10
2.676129059335046
 20
0.8659499756484208
 42
5.328517124445801
  0
ARC
  5
7DE1B343D9D181F
330
7DE1B343D9D1934
100
AcDbEntity
  8
TEXT
100
AcDbCircle
 10
1.98967360315876
 20
0.9257423669864706
 30
0.0
 40
0.0601160179737537
100
AcDbArc
 50
180.0000000000003
 51
264.0521544866073
  0
LINE
  5
7DE1B343D9D1820
330
7DE1B343D9D1934
100
AcDbEntity
  8
TEXT
100
AcDbLine
 10
1.993188958784308
 20
1.166810926231069
 30
0.0
 11
1.933146353940301
 21
1.166810926231069
 31
0.0
  0
ARC
  5
7DE1B343D9D1821
330
7DE1B343D9D1934
100
AcDbEntity
  8
TEXT
100
AcDbCircle
 10
1.75741460104179
 20
1.05033554919043
 30
0.0
 40
0.0820874594465043
100
AcDbArc
 50
90.0
 51
270.0
  0
LWPOLYLINE
  5
7DE1B343D9D1822
330
7DE1B343D9D1934
100
AcDbEntity
  8
TEXT
100
AcDbPolyline
 90
        2
 70
     0
 43
0.0001332181640625
 10
1.349328267940825
 20
1.059153018402555
 10
1.339336905636135
 20
1.132423008636935
  0
LWPOLYLINE
  5
7DE1B343D9D1826
330
7DE1B343D9D1934
100
AcDbEntity
  8
TEXT
100
AcDbPolyline
 90
        2
 70
     0
 43
0.0001332181640625
 10
1.339336905636135
 20
1.105779375824434
 10
1.349328267940825
 20
1.045831201996308
  0
LWPOLYLINE
  5
7DE1B343D9D182A
330
7DE1B343D9D1934
100
AcDbEntity
  8
TEXT
100
AcDbPolyline
 90
        3
 70
     0
 43
0.0006660908203125
 10
1.492537794308012
 20
1.019187569183807
 10
1.492537794308012
 20
1.132423008636935
 10
1.379302354854886
 20
1.132423008636935
  0
LWPOLYLINE
  5
7DE1B343D9D182F
330
7DE1B343D9D1934
100
AcDbEntity
  8
TEXT
100
AcDbPolyline
 90
        3
 70
     0
 43
0.0006660908203125
 10
1.465894161495511
 20
1.019187569183807
 10
1.465894161495511
 20
1.105779375824434
 10
1.379302354854886
 20
1.105779375824434
  0
LWPOLYLINE
  5
7DE1B343D9D1834
330
7DE1B343D9D1934
100
AcDbEntity
  8
TEXT
100
AcDbPolyline
 90
        2
 70
     0
 43
0.0001332181640625
 10
1.465894161495511
 20
1.105779375824434
 10
1.405945987667387
 20
1.045831201996308
  0
LWPOLYLINE
  5
7DE1B343D9D1838
330
7DE1B343D9D1934
100
AcDbEntity
  8
TEXT
100
AcDbPolyline
 90
        2
 70
     0
 43
0.0001332181640625
 10
1.379302354854886
 20
1.105779375824434
 10
1.369310992550198
 20
1.045831201996308
  0
LWPOLYLINE
  5
7DE1B343D9D183C
330
7DE1B343D9D1934
100
AcDbEntity
  8
TEXT
100
AcDbPolyline
 90
        2
 70
     0
 43
0.0001332181640625
 10
1.379302354854886
 20
1.132423008636935
 10
1.369310992550198
 20
1.059153018402555
  0
LWPOLYLINE
  5
7DE1B343D9D1840
330
7DE1B343D9D1934
100
AcDbEntity
  8
TEXT
100
AcDbPolyline
 90
        2
 70
     0
 43
0.0001332181640625
 10
1.419267804073636
 20
1.009196206879118
 10
1.492537794308012
 20
1.019187569183807
  0
LWPOLYLINE
  5
7DE1B343D9D1844
330
7DE1B343D9D1934
100
AcDbEntity
  8
TEXT
100
AcDbPolyline
 90
        2
 70
     0
 43
0.0001332181640625
 10
1.465894161495511
 20
1.019187569183807
 10
1.405945987667387
 20
1.009196206879118
  0
LWPOLYLINE
  5
7DE1B343D9D1848
330
7DE1B343D9D1934
100
AcDbEntity
  8
TEXT
100
AcDbPolyline
 90
        2
 70
     0
 43
0.0001332181640625
 10
1.492537794308012
 20
0.9792221199650597
 10
1.419267804073636
 20
0.989213482269745
  0
LWPOLYLINE
  5
7DE1B343D9D184C
330
7DE1B343D9D1934
100
AcDbEntity
  8
TEXT
100
AcDbPolyline
 90
        2
 70
     0
 43
0.0001332181640625
 10
1.465894161495511
 20
0.9792221199650597
 10
1.405945987667387
 20
0.989213482269745
  0
LWPOLYLINE
  5
7DE1B343D9D1850
330
7DE1B343D9D1934
100
AcDbEntity
  8
TEXT
100
AcDbPolyline
 90
        2
 70
     0
 43
0.0001332181640625
 10
1.465894161495511
 20
0.8926303133244331
 10
1.405945987667387
 20
0.9525784871525587
  0
LWPOLYLINE
  5
7DE1B343D9D1854
330
7DE1B343D9D1934
100
AcDbEntity
  8
TEXT
100
AcDbPolyline
 90
        3
 70
     0
 43
0.0006660908203125
 10
1.379302354854886
 20
0.8926303133244331
 10
1.465894161495511
 20
0.8926303133244331
 10
1.465894161495511
 20
0.9792221199650597
  0
LWPOLYLINE
  5
7DE1B343D9D1859
330
7DE1B343D9D1934
100
AcDbEntity
  8
TEXT
100
AcDbPolyline
 90
        3
 70
     0
 43
0.0006660908203125
 10
1.379302354854886
 20
0.8659866805119321
 10
1.492537794308012
 20
0.8659866805119321
 10
1.492537794308012
 20
0.9792221199650597
  0
LWPOLYLINE
  5
7DE1B343D9D185E
330
7DE1B343D9D1934
100
AcDbEntity
  8
TEXT
100
AcDbPolyline
 90
        5
 70
     0
 43
0.0001332181640625
 10
1.349328267940825
 20
0.9392566707463082
 10
1.349328267940825
 20
0.9525784871525587
 10
1.312693272823637
 20
0.9525784871525587
 10
1.312693272823637
 20
0.989213482269745
 10
1.299371456417387
 20
0.989213482269745
  0
LWPOLYLINE
  5
7DE1B343D9D1865
330
7DE1B343D9D1934
100
AcDbEntity
  8
TEXT
100
AcDbPolyline
 90
        2
 70
     0
 43
0.0006660908203125
 10
1.339336905636135
 20
0.8926303133244331
 10
1.339336905636135
 20
0.8659866805119321
  0
LWPOLYLINE
  5
7DE1B343D9D1869
330
7DE1B343D9D1934
100
AcDbEntity
  8
TEXT
100
AcDbPolyline
 90
        2
 70
     0
 43
0.0001332181640625
 10
1.339336905636135
 20
0.8926303133244331
 10
1.349328267940825
 20
0.9525784871525587
  0
LWPOLYLINE
  5
7DE1B343D9D186D
330
7DE1B343D9D1934
100
AcDbEntity
  8
TEXT
100
AcDbPolyline
 90
        2
 70
     0
 43
0.0001332181640625
 10
1.339336905636135
 20
0.8659866805119321
 10
1.349328267940825
 20
0.9392566707463082
  0
LWPOLYLINE
  5
7DE1B343D9D1871
330
7DE1B343D9D1934
100
AcDbEntity
  8
TEXT
100
AcDbPolyline
 90
        5
 70
     0
 43
0.0001332181640625
 10
1.299371456417387
 20
1.009196206879118
 10
1.312693272823636
 20
1.009196206879118
 10
1.312693272823636
 20
1.045831201996308
 10
1.349328267940825
 20
1.045831201996308
 10
1.349328267940825
 20
1.059153018402555
  0
LWPOLYLINE
  5
7DE1B343D9D1878
330
7DE1B343D9D1934
100
AcDbEntity
  8
TEXT
100
AcDbPolyline
 90
        5
 70
     0
 43
0.0001332181640625
 10
1.369310992550198
 20
1.059153018402555
 10
1.369310992550198
 20
1.045831201996308
 10
1.405945987667387
 20
1.045831201996308
 10
1.405945987667387
 20
1.009196206879118
 10
1.419267804073636
 20
1.009196206879118
  0
LWPOLYLINE
  5
7DE1B343D9D187F
330
7DE1B343D9D1934
100
AcDbEntity
  8
TEXT
100
AcDbPolyline
 90
        2
 70
     0
 43
0.0001332181640625
 10
1.379302354854886
 20
0.8926303133244331
 10
1.369310992550198
 20
0.9525784871525587
  0
LWPOLYLINE
  5
7DE1B343D9D1883
330
7DE1B343D9D1934
100
AcDbEntity
  8
TEXT
100
AcDbPolyline
 90
        2
 70
     0
 43
0.0001332181640625
 10
1.369310992550198
 20
0.9392566707463082
 10
1.379302354854886
 20
0.8659866805119321
  0
LWPOLYLINE
  5
7DE1B343D9D1887
330
7DE1B343D9D1934
100
AcDbEntity
  8
TEXT
100
AcDbPolyline
 90
        2
 70
     0
 43
0.0006660908203125
 10
1.379302354854886
 20
0.8926303133244331
 10
1.379302354854886
 20
0.8659866805119321
  0
LWPOLYLINE
  5
7DE1B343D9D188B
330
7DE1B343D9D1934
100
AcDbEntity
  8
TEXT
100
AcDbPolyline
 90
        5
 70
     0
 43
0.0001332181640625
 10
1.419267804073636
 20
0.989213482269745
 10
1.405945987667387
 20
0.989213482269745
 10
1.405945987667387
 20
0.9525784871525587
 10
1.369310992550198
 20
0.9525784871525587
 10
1.369310992550198
 20
0.9392566707463082
  0
LWPOLYLINE
  5
7DE1B343D9D1892
330
7DE1B343D9D1934
100
AcDbEntity
  8
TEXT
100
AcDbPolyline
 90
        2
 70
     0
 43
0.0006660908203125
 10
1.465894161495511
 20
1.019187569183807
 10
1.492537794308012
 20
1.019187569183807
  0
LWPOLYLINE
  5
7DE1B343D9D1896
330
7DE1B343D9D1934
100
AcDbEntity
  8
TEXT
100
AcDbPolyline
 90
        2
 70
     0
 43
0.0006660908203125
 10
1.465894161495511
 20
0.9792221199650597
 10
1.492537794308012
 20
0.9792221199650597
  0
LINE
  5
7DE1B343D9D189A
330
7DE1B343D9D1934
100
AcDbEntity
  8
TEXT
100
AcDbLine
 10
1.762651931156037
 20
1.068146313980166
 30
0.0
 11
1.929557585185008
 21
1.068146313980166
 31
0.0
  0
LINE
  5
7DE1B343D9D189B
330
7DE1B343D9D1934
100
AcDbEntity
  8
TEXT
100
AcDbLine
 10
1.828252067400338
 20
1.032341592369538
 30
0.0
 11
1.762651931156037
 21
1.032341592369538
 31
0.0
  0
LINE
  5
7DE1B343D9D189C
330
7DE1B343D9D1934
100
AcDbEntity
  8
TEXT
100
AcDbLine
 10
1.675327141595285
 20
0.8659499756484208
 30
0.0
 11
1.828252067400338
 21
0.8659499756484208
 31
0.0
  0
LINE
  5
7DE1B343D9D189D
330
7DE1B343D9D1934
100
AcDbEntity
  8
TEXT
100
AcDbLine
 10
1.833192441306618
 20
0.9343069819818602
 30
0.0
 11
1.675327141595284
 21
0.9343069819818602
 31
0.0
  0
LINE
  5
7DE1B343D9D189E
330
7DE1B343D9D1934
100
AcDbEntity
  8
TEXT
100
AcDbLine
 10
1.757414601041789
 20
0.9682480897439248
 30
0.0
 11
1.833192441306618
 21
0.9682480897439248
 31
0.0
  0
ARC
  5
7DE1B343D9D189F
330
7DE1B343D9D1934
100
AcDbEntity
  8
TEXT
100
AcDbCircle
 10
1.762651931156038
 20
1.050243953174854
 30
0.0
 40
0.017902360805315
100
AcDbArc
 50
90.0
 51
270.0
  0
LINE
  5
7DE1B343D9D18A0
330
7DE1B343D9D1934
100
AcDbEntity
  8
TEXT
100
AcDbLine
 10
1.675327141595284
 20
0.9343069819818602
 30
0.0
 11
1.675327141595285
 21
0.8659499756484208
 31
0.0
  0
LINE
  5
7DE1B343D9D18A1
330
7DE1B343D9D1934
100
AcDbEntity
  8
TEXT
100
AcDbLine
 10
1.929557585185008
 20
1.068146313980166
 30
0.0
 11
1.929557585185008
 21
0.9257423669864706
 31
0.0
  0
ARC
  5
7DE1B343D9D18A2
330
7DE1B343D9D1934
100
AcDbEntity
  8
TEXT
100
AcDbCircle
 10
1.828252067400339
 20
0.9491457840089779
 30
0.0
 40
0.0831958083605586
100
AcDbArc
 50
270.0
 51
90.0
  0
ARC
  5
7DE1B343D9D18A3
330
7DE1B343D9D1934
100
AcDbEntity
  8
TEXT
100
AcDbCircle
 10
1.833192441306619
 20
0.9512775358628942
 30
0.0
 40
0.0169705538810321
100
AcDbArc
 50
270.0
 51
90.0
  0
LWPOLYLINE
  5
7DE1B343D9D18A4
330
7DE1B343D9D1934
100
AcDbEntity
  8
TEXT
100
AcDbPolyline
 90
        2
 70
     0
 43
0.0006660908203125
 10
1.339336905636135
 20
1.105779375824434
 10
1.339336905636135
 20
1.132423008636935
  0
LWPOLYLINE
  5
7DE1B343D9D18A8
330
7DE1B343D9D1934
100
AcDbEntity
  8
TEXT
100
AcDbPolyline
 90
        2
 70
     0
 43
0.0006660908203125
 10
1.379302354854886
 20
1.105779375824434
 10
1.379302354854886
 20
1.132423008636935
  0
LINE
  5
7DE1B343D9D18AC
330
7DE1B343D9D1934
100
AcDbEntity
  8
TEXT
100
AcDbLine
 10
1.933146353940301
 20
1.132423008636931
 30
0.0
 11
1.757414601041789
 21
1.132423008636931
 31
0.0
  0
LINE
  5
7DE1B343D9D18AD
330
7DE1B343D9D1934
100
AcDbEntity
  8
TEXT
100
AcDbLine
 10
1.933146353940301
 20
1.166810926231069
 30
0.0
 11
1.933146353940301
 21
1.132423008636931
 31
0.0
  0
LINE
  5
7DE1B343D9D18AE
330
7DE1B343D9D1934
100
AcDbEntity
  8
TEXT
100
AcDbLine
 10
2.123618245960154
 20
1.031551012523811
 30
0.0
 11
2.064987924928216
 21
1.132423008636931
 31
0.0
  0
LINE
  5
7DE1B343D9D18AF
330
7DE1B343D9D1934
100
AcDbEntity
  8
TEXT
100
AcDbLine
 10
2.182366808766019
 20
1.132423008636931
 30
0.0
 11
2.123618245960154
 21
1.031551012523811
 31
0.0
  0
LINE
  5
7DE1B343D9D18B0
330
7DE1B343D9D1934
100
AcDbEntity
  8
TEXT
100
AcDbLine
 10
2.27929743412576
 20
0.9483378137514201
 30
0.0
 11
2.27929743412576
 21
1.200434486375742
 31
0.0
  0
LINE
  5
7DE1B343D9D18B1
330
7DE1B343D9D1934
100
AcDbEntity
  8
TEXT
100
AcDbLine
 10
2.31160928826342
 20
1.132423008636931
 30
0.0
 11
2.31160928826342
 21
0.9315588019045236
 31
0.0
  0
LINE
  5
7DE1B343D9D18B2
330
7DE1B343D9D1934
100
AcDbEntity
  8
TEXT
100
AcDbLine
 10
2.31160928826342
 20
0.9315588019045236
 30
0.0
 11
2.294615651378819
 21
0.9315588019045236
 31
0.0
  0
LINE
  5
7DE1B343D9D18B3
330
7DE1B343D9D1934
100
AcDbEntity
  8
TEXT
100
AcDbLine
 10
2.280437007621955
 20
0.8659499756484208
 30
0.0
 11
2.37844034132139
 21
0.8659499756484208
 31
0.0
  0
LINE
  5
7DE1B343D9D18B4
330
7DE1B343D9D1934
100
AcDbEntity
  8
TEXT
100
AcDbLine
 10
2.114018008963199
 20
0.8859084817534338
 30
0.0
 11
2.211317715056644
 21
1.050258692688701
 31
0.0
  0
ARC
  5
7DE1B343D9D18B5
330
7DE1B343D9D1934
100
AcDbEntity
  8
TEXT
100
AcDbCircle
 10
2.079974449050985
 20
0.9054976979221166
 30
0.0
 40
0.0392772371940762
100
AcDbArc
 50
270.1604552698595
 51
330.0831797321295
  0
LINE
  5
7DE1B343D9D18B6
330
7DE1B343D9D1934
100
AcDbEntity
  8
TEXT
100
AcDbLine
 10
1.983444192665114
 20
0.8659499756484208
 30
0.0
 11
2.080084443740108
 21
0.8662206147467031
 31
0.0
  0
LWPOLYLINE
  5
7DE1B343D9D18B7
330
7DE1B343D9D1934
100
AcDbEntity
  8
TEXT
100
AcDbPolyline
 90
        6
 70
     1
 43
0.0
 10
2.025967996240264
 20
1.068146313980166
 10
1.995651402020055
 20
1.068146313980166
 10
1.995651402020055
 20
0.9450353159252721
 42
0.407328721240804
 10
2.007195053181532
 20
0.933216401248886
 10
2.067816752226263
 20
0.933216401248886
 10
2.085282092633581
 20
0.9660286302923651
  0
LINE
  5
7DE1B343D9D18BF
330
7DE1B343D9D1934
100
AcDbEntity
  8
TEXT
100
AcDbLine
 10
2.211317715056644
 20
1.050258692688701
 30
0.0
 11
2.211317715056644
 21
0.9175013178633456
 31
0.0
  0
ARC
  5
7DE1B343D9D18C0
330
7DE1B343D9D1934
100
AcDbEntity
  8
TEXT
100
AcDbCircle
 10
2.294615651378817
 20
0.946940608147949
 30
0.0
 40
0.0153818062434269
100
AcDbArc
 50
174.7883570302258
 51
270.0
  0
LWPOLYLINE
  5
7DE1B343D9D18C1
330
7DE1B343D9D1934
100
AcDbEntity
  8
TEXT
100
AcDbPolyline
 90
        2
 70
     0
 43
0.0
 10
2.211317715056642
 20
0.9175013178633491
 42
0.3318488747599744
 10
2.280437007621955
 20
0.8659499756484208
 42
-6.868794160588311
  0
LINE
  5
7DE1B343D9D18C5
330
7DE1B343D9D1934
100
AcDbEntity
  8
TEXT
100
AcDbLine
 10
2.435829410310651
 20
0.8659499756484208
 30
0.0
 11
2.502887457092491
 21
0.8659499756484208
 31
0.0
  0
LINE
  5
7DE1B343D9D18C6
330
7DE1B343D9D1934
100
AcDbEntity
  8
TEXT
100
AcDbLine
 10
2.435829410310651
 20
1.060592524814056
 30
0.0
 11
2.435829410310651
 21
0.8659499756484208
 31
0.0
  0
LINE
  5
7DE1B343D9D18C7
330
7DE1B343D9D1934
100
AcDbEntity
  8
TEXT
100
AcDbLine
 10
2.37844034132139
 20
1.068146313980166
 30
0.0
 11
2.428275621144537
 21
1.068146313980166
 31
0.0
  0
LINE
  5
7DE1B343D9D18C8
330
7DE1B343D9D1934
100
AcDbEntity
  8
TEXT
100
AcDbLine
 10
2.37844034132139
 20
0.8659499756484208
 30
0.0
 11
2.37844034132139
 21
1.068146313980166
 31
0.0
  0
LWPOLYLINE
  5
7DE1B343D9D18C9
330
7DE1B343D9D1934
100
AcDbEntity
  8
TEXT
100
AcDbPolyline
 90
        2
 70
     0
 43
0.0
 10
2.428275621144535
 20
1.068146313980166
 42
-0.4142135623731017
 10
2.435829410310649
 20
1.060592524814056
 42
-0.9999999999999998
  0
LINE
  5
7DE1B343D9D18CD
330
7DE1B343D9D1934
100
AcDbEntity
  8
TEXT
100
AcDbLine
 10
2.634085621922221
 20
1.068146313980166
 30
0.0
 11
2.634085621922221
 21
0.9930939079059598
 31
0.0
  0
LINE
  5
7DE1B343D9D18CE
330
7DE1B343D9D1934
100
AcDbEntity
  8
TEXT
100
AcDbLine
 10
2.502887457092491
 20
1.068146313980166
 30
0.0
 11
2.557021054013441
 21
1.068146313980166
 31
0.0
  0
LINE
  5
7DE1B343D9D18CF
330
7DE1B343D9D1934
100
AcDbEntity
  8
TEXT
100
AcDbLine
 10
2.502887457092491
 20
0.8659499756484208
 30
0.0
 11
2.502887457092491
 21
1.068146313980166
 31
0.0
  0
LWPOLYLINE
  5
7DE1B343D9D18D0
330
7DE1B343D9D1934
100
AcDbEntity
  8
TEXT
100
AcDbPolyline
 90
        2
 70
     0
 43
0.0
 10
2.557021054013439
 20
1.068146313980166
 42
-0.4142135623731017
 10
2.564574843179553
 20
1.060592524814056
 42
-0.9999999999999998
  0
LWPOLYLINE
  5
7DE1B343D9D18D4
330
7DE1B343D9D1934
100
AcDbEntity
  8
TEXT
100
AcDbPolyline
 90
        4
 70
     0
 43
0.0
 10
2.564574843179553
 20
1.060592524814056
 10
2.564574843179553
 20
0.8659499756484208
 10
2.633053126467411
 20
0.8659499756484208
 10
2.633053126467411
 20
0.909440920598859
 42
-1.714843617202739
  0
LINE
  5
7DE1B343D9D18DA
330
7DE1B343D9D1934
100
AcDbEntity
  8
TEXT
100
AcDbLine
 10
1.993188958784308
 20
1.132423008636931
 30
0.0
 11
1.993188958784308
 21
1.166810926231069
 31
0.0
  0
LINE
  5
7DE1B343D9D18DB
330
7DE1B343D9D1934
100
AcDbEntity
  8
TEXT
100
AcDbLine
 10
2.064987924928216
 20
1.132423008636931
 30
0.0
 11
1.993188958784308
 21
1.132423008636931
 31
0.0
  0
LINE
  5
7DE1B343D9D18DC
330
7DE1B343D9D1934
100
AcDbEntity
  8
TEXT
100
AcDbLine
 10
2.212488721559395
 20
1.132423008636931
 30
0.0
 11
2.182366808766019
 21
1.132423008636931
 31
0.0
  0
LINE
  5
7DE1B343D9D18DD
330
7DE1B343D9D1934
100
AcDbEntity
  8
TEXT
100
AcDbLine
 10
2.212488721559395
 20
1.200434486375742
 30
0.0
 11
2.212488721559395
 21
1.132423008636931
 31
0.0
  0
LINE
  5
7DE1B343D9D18DE
330
7DE1B343D9D1934
100
AcDbEntity
  8
TEXT
100
AcDbLine
 10
2.27929743412576
 20
1.200434486375742
 30
0.0
 11
2.212488721559395
 21
1.200434486375742
 31
0.0
  0
LWPOLYLINE
  5
7DE1B343D9D18DF
330
7DE1B343D9D1934
100
AcDbEntity
  8
TEXT
100
AcDbPolyline
 90
        3
 70
     0
 43
0.0
 10
2.599709193723763
 20
1.132423008636935
 10
2.481409034907718
 20
1.132423008636935
 10
2.481409034907718
 20
1.105255511876039
 42
-1.960274751411753
  0
LINE
  5
7DE1B343D9D18E4
330
7DE1B343D9D1934
100
AcDbEntity
  8
TEXT
100
AcDbLine
 10
2.445627344194557
 20
1.132423008636931
 30
0.0
 11
2.31160928826342
 21
1.132423008636931
 31
0.0
  0
LWPOLYLINE
  5
7DE1B343D9D18E5
330
7DE1B343D9D1934
100
AcDbEntity
  8
TEXT
100
AcDbPolyline
 90
        2
 70
     0
 43
0.0
 10
2.445627344194557
 20
1.132423008636935
 42
-0.3328679258950098
 10
2.481409034907718
 20
1.105255511876039
 42
6.772930709997214
  0
LINE
  5
7DE1B343D9D18E9
330
7DE1B343D9D1934
100
AcDbEntity
  8
TEXT
100
AcDbLine
 10
2.635490884436929
 20
1.132423008636931
 30
0.0
 11
2.635490884436929
 21
1.104100462867287
 31
0.0
  0
LWPOLYLINE
  5
7DE1B343D9D18EA
330
7DE1B343D9D1934
100
AcDbEntity
  8
TEXT
100
AcDbPolyline
 90
        2
 70
     0
 43
0.0
 10
2.599709193723763
 20
1.132423008636935
 42
-0.3277054968067132
 10
2.635490884436928
 20
1.104100462867291
 42
6.667889725900311
  0
LINE
  5
7DE1B343D9D18EE
330
7DE1B343D9D1934
100
AcDbEntity
  8
TEXT
100
AcDbLine
 10
2.849282732529029
 20
1.027211030083504
 30
0.0
 11
2.805531961347128
 21
1.109461306079649
 31
0.0
  0
LINE
  5
7DE1B343D9D18EF
330
7DE1B343D9D1934
100
AcDbEntity
  8
TEXT
100
AcDbLine
 10
2.849282732529029
 20
1.132423008636931
 30
0.0
 11
2.849282732529029
 21
1.027211030083504
 31
0.0
  0
LINE
  5
7DE1B343D9D18F0
330
7DE1B343D9D1934
100
AcDbEntity
  8
TEXT
100
AcDbLine
 10
3.076966471467398
 20
1.056557682225393
 30
0.0
 11
3.076966471467398
 21
1.197887214404532
 31
0.0
  0
LINE
  5
7DE1B343D9D18F1
330
7DE1B343D9D1934
100
AcDbEntity
  8
TEXT
100
AcDbLine
 10
3.124064630023383
 20
1.132423008636931
 30
0.0
 11
3.076966471467398
 21
1.056557682225393
 31
0.0
  0
LINE
  5
7DE1B343D9D18F2
330
7DE1B343D9D1934
100
AcDbEntity
  8
TEXT
100
AcDbLine
 10
3.134499346787306
 20
1.022529765695958
 30
0.0
 11
3.199056462753011
 21
1.132423008636931
 31
0.0
  0
LINE
  5
7DE1B343D9D18F3
330
7DE1B343D9D1934
100
AcDbEntity
  8
TEXT
100
AcDbLine
 10
3.013131480244625
 20
0.8659499756484208
 30
0.0
 11
3.077509664563246
 21
0.8659499756484208
 31
0.0
  0
LWPOLYLINE
  5
7DE1B343D9D18F4
330
7DE1B343D9D1934
100
AcDbEntity
  8
TEXT
100
AcDbPolyline
 90
        2
 70
     0
 43
0.0
 10
2.853222409834067
 20
0.909440920598859
 42
-0.2901071551932486
 10
2.810146476966423
 20
0.8659499756484208
 42
-5.328517124445184
  0
ARC
  5
7DE1B343D9D18F8
330
7DE1B343D9D1934
100
AcDbEntity
  8
TEXT
100
AcDbCircle
 10
2.741291895309508
 20
1.039786938980169
 30
0.0
 40
0.028359375
100
AcDbArc
 50
25.78218179591245
 51
90.0
  0
LINE
  5
7DE1B343D9D18F9
330
7DE1B343D9D1934
100
AcDbEntity
  8
TEXT
100
AcDbLine
 10
2.777092970613631
 20
1.030871340518034
 30
0.0
 11
2.766828210200067
 21
1.052121880090728
 31
0.0
  0
LINE
  5
7DE1B343D9D18FA
330
7DE1B343D9D1934
100
AcDbEntity
  8
TEXT
100
AcDbLine
 10
2.694804980830248
 20
1.030871340518034
 30
0.0
 11
2.777092970613631
 21
1.030871340518034
 31
0.0
  0
LWPOLYLINE
  5
7DE1B343D9D18FB
330
7DE1B343D9D1934
100
AcDbEntity
  8
TEXT
100
AcDbPolyline
 90
        4
 70
     1
 43
0.0
 10
2.79002401189653
 20
0.9689139536324461
 10
2.701363693236672
 20
0.9689139536324461
 42
0.9999999999999998
 10
2.701363693236672
 20
0.9265154131285854
 10
2.79002401189653
 20
0.9265154131285854
 42
1.0
  0
LWPOLYLINE
  5
7DE1B343D9D1901
330
7DE1B343D9D1934
100
AcDbEntity
  8
TEXT
100
AcDbPolyline
 90
        2
 70
     0
 43
0.0
 10
2.676129059335046
 20
0.8659499756484208
 10
2.810146476966423
 20
0.8659499756484208
 42
0.9999999999999998
  0
LINE
  5
7DE1B343D9D1905
330
7DE1B343D9D1934
100
AcDbEntity
  8
TEXT
100
AcDbLine
 10
2.936483498952062
 20
1.068146313980166
 30
0.0
 11
3.01313148024462
 21
1.068146313980166
 31
0.0
  0
LINE
  5
7DE1B343D9D1906
330
7DE1B343D9D1934
100
AcDbEntity
  8
TEXT
100
AcDbLine
 10
3.01313148024462
 20
1.068146313980166
 30
0.0
 11
3.013131480244625
 21
0.8659499756484208
 31
0.0
  0
ARC
  5
7DE1B343D9D1907
330
7DE1B343D9D1934
100
AcDbEntity
  8
TEXT
100
AcDbCircle
 10
2.93648349895206
 20
1.043240438697503
 30
0.0
 40
0.0249058752826653
100
AcDbArc
 50
89.99971217465335
 51
179.9999999999985
  0
LINE
  5
7DE1B343D9D1908
330
7DE1B343D9D1934
100
AcDbEntity
  8
TEXT
100
AcDbLine
 10
2.911577623669403
 20
0.8659499756484208
 30
0.0
 11
2.911577623669398
 21
1.043240481079889
 31
0.0
  0
LWPOLYLINE
  5
7DE1B343D9D1909
330
7DE1B343D9D1934
100
AcDbEntity
  8
TEXT
100
AcDbPolyline
 90
        2
 70
     0
 43
0.0
 10
2.853222409834067
 20
0.8659499756484208
 10
2.911577623669401
 20
0.8659499756484208
  0
LWPOLYLINE
  5
7DE1B343D9D190D
330
7DE1B343D9D1934
100
AcDbEntity
  8
TEXT
100
AcDbPolyline
 90
        2
 70
     0
 43
0.0
 10
2.853222409834067
 20
0.909440920598859
 10
2.853222409834067
 20
0.8659499756484208
  0
LINE
  5
7DE1B343D9D1911
330
7DE1B343D9D1934
100
AcDbEntity
  8
TEXT
100
AcDbLine
 10
3.229991570150916
 20
0.8659499756484208
 30
0.0
 11
3.134499346787306
 21
1.022529765695958
 31
0.0
  0
LINE
  5
7DE1B343D9D1912
330
7DE1B343D9D1934
100
AcDbEntity
  8
TEXT
100
AcDbLine
 10
3.15341319777471
 20
0.8659499756484208
 30
0.0
 11
3.229991570150916
 21
0.8659499756484208
 31
0.0
  0
LINE
  5
7DE1B343D9D1913
330
7DE1B343D9D1934
100
AcDbEntity
  8
TEXT
100
AcDbLine
 10
3.077509664563246
 20
0.9975295441246011
 30
0.0
 11
3.15341319777471
 21
0.8659499756484208
 31
0.0
  0
LINE
  5
7DE1B343D9D1914
330
7DE1B343D9D1934
100
AcDbEntity
  8
TEXT
100
AcDbLine
 10
3.077509664563246
 20
0.8659499756484208
 30
0.0
 11
3.077509664563246
 21
0.9975295441246011
 31
0.0
  0
LINE
  5
7DE1B343D9D1915
330
7DE1B343D9D1934
100
AcDbEntity
  8
TEXT
100
AcDbLine
 10
3.076966471467398
 20
1.197887214404532
 30
0.0
 11
3.008651592918125
 21
1.197887214404532
 31
0.0
  0
ARC
  5
7DE1B343D9D1916
330
7DE1B343D9D1934
100
AcDbEntity
  8
TEXT
100
AcDbCircle
 10
2.768295853876919
 20
1.090839441516029
 30
0.0
 40
0.0416329381542859
100
AcDbArc
 50
26.56974201007528
 51
87.20939649401342
  0
LINE
  5
7DE1B343D9D1917
330
7DE1B343D9D1934
100
AcDbEntity
  8
TEXT
100
AcDbLine
 10
2.91317963882853
 20
1.132423008636931
 30
0.0
 11
2.849282732529029
 21
1.132423008636931
 31
0.0
  0
LINE
  5
7DE1B343D9D1918
330
7DE1B343D9D1934
100
AcDbEntity
  8
TEXT
100
AcDbLine
 10
2.91317963882853
 20
1.104875358776057
 30
0.0
 11
2.91317963882853
 21
1.132423008636931
 31
0.0
  0
ARC
  5
7DE1B343D9D1919
330
7DE1B343D9D1934
100
AcDbEntity
  8
TEXT
100
AcDbCircle
 10
2.944372455891638
 20
1.101177281354666
 30
0.0
 40
0.0314112657011332
100
AcDbArc
 50
95.88484768694724
 51
173.2388340632136
  0
LINE
  5
7DE1B343D9D191A
330
7DE1B343D9D1934
100
AcDbEntity
  8
TEXT
100
AcDbLine
 10
3.00865159291812
 20
1.132423008636931
 30
0.0
 11
2.941151875268603
 21
1.132423008636931
 31
0.0
  0
LINE
  5
7DE1B343D9D191B
330
7DE1B343D9D1934
100
AcDbEntity
  8
TEXT
100
AcDbLine
 10
3.008651592918125
 20
1.197887214404532
 30
0.0
 11
3.00865159291812
 21
1.132423008636931
 31
0.0
  0
LINE
  5
7DE1B343D9D191C
330
7DE1B343D9D1934
100
AcDbEntity
  8
TEXT
100
AcDbLine
 10
3.199056462753011
 20
1.132423008636931
 30
0.0
 11
3.124064630023385
 21
1.132423008636931
 31
0.0
  0
ENDSEC
  0
SECTION
  2
OBJECTS
  0
DICTIONARY
  5
7DE1B343D9D1928
330
0
100
AcDbDictionary
  3
ACAD_GROUP
350
7DE1B343D9D1929
  3
ACAD_LAYOUT
350
7DE1B343D9D194E
  3
ACAD_MLINESTYLE
350
7DE1B343D9D192A
  3
ACAD_PLOTSETTINGS
350
7DE1B343D9D194F
  3
ACAD_PLOTSTYLENAME
350
7DE1B343D9D194C
  3
ACDBHEADERROUNDTRIPXREC
350
7DE1B343D9D1959
  3
ACDBVARIABLEDICTIONARY
350
7DE1B343D9D1956
  0
DICTIONARY
  5
7DE1B343D9D197B
330
7DE1B343D9D1934
100
AcDbDictionary
280
     1
  3
ACAD_LAYOUTSELFREF
360
7DE1B343D9D197C
  0
DICTIONARY
  5
7DE1B343D9D1979
330
7DE1B343D9D1931
100
AcDbDictionary
280
     1
  3
ACAD_LAYOUTSELFREF
360
7DE1B343D9D197A
  0
DICTIONARY
  5
7DE1B343D9D1929
102
{ACAD_REACTORS
330
7DE1B343D9D1928
102
}
330
7DE1B343D9D1928
100
AcDbDictionary
  0
DICTIONARY
  5
7DE1B343D9D194E
102
{ACAD_REACTORS
330
7DE1B343D9D1928
102
}
330
7DE1B343D9D1928
100
AcDbDictionary
  0
DICTIONARY
  5
7DE1B343D9D192A
102
{ACAD_REACTORS
330
7DE1B343D9D1928
102
}
330
7DE1B343D9D1928
100
AcDbDictionary
  3
STANDARD
350
7DE1B343D9D1937
  0
DICTIONARY
  5
7DE1B343D9D194F
102
{ACAD_REACTORS
330
7DE1B343D9D1928
102
}
330
7DE1B343D9D1928
100
AcDbDictionary
  0
ACDBDICTIONARYWDFLT
  5
7DE1B343D9D194C
102
{ACAD_REACTORS
330
7DE1B343D9D1928
102
}
330
7DE1B343D9D1928
100
AcDbDictionary
281
     1
  3
Normal
350
7DE1B343D9D194D
100
AcDbDictionaryWithDefault
340
7DE1B343D9D194D
  0
DICTIONARY
  5
7DE1B343D9D1959
102
{ACAD_REACTORS
330
7DE1B343D9D1928
102
}
330
7DE1B343D9D1928
100
AcDbDictionary
  3
CEPSNTYPE
350
7DE1B343D9D1963
  3
FINGERPRINTGUID
350
7DE1B343D9D1964
  3
HYPERLINKBASE
350
7DE1B343D9D195C
  3
INSUNITS
350
7DE1B343D9D1962
  3
LAYOUTDICT
350
7DE1B343D9D195E
  3
LWETCUNION
350
7DE1B343D9D1961
  3
PLOTSETDICT
350
7DE1B343D9D195F
  3
PLOTSTYLNAMDICT
350
7DE1B343D9D1960
  3
PSVPSCALE
350
7DE1B343D9D1966
  3
PUCSBASE
350
7DE1B343D9D1969
  3
PUCSORGBACK
350
7DE1B343D9D196F
  3
PUCSORGBOTTOM
350
7DE1B343D9D196B
  3
PUCSORGFRONT
350
7DE1B343D9D196E
  3
PUCSORGLEFT
350
7DE1B343D9D196C
  3
PUCSORGRIGHT
350
7DE1B343D9D196D
  3
PUCSORGTOP
350
7DE1B343D9D196A
  3
PUCSORTHOREF
350
7DE1B343D9D1967
  3
PUCSORTHOVIEW
350
7DE1B343D9D1968
  3
STYLESHEET
350
7DE1B343D9D195D
  3
TSTACKALIGN
350
7DE1B343D9D195A
  3
TSTACKSIZE
350
7DE1B343D9D195B
  3
UCSBASE
350
7DE1B343D9D1972
  3
UCSORGBACK
350
7DE1B343D9D1978
  3
UCSORGBOTTOM
350
7DE1B343D9D1974
  3
UCSORGFRONT
350
7DE1B343D9D1977
  3
UCSORGLEFT
350
7DE1B343D9D1975
  3
UCSORGRIGHT
350
7DE1B343D9D1976
  3
UCSORGTOP
350
7DE1B343D9D1973
  3
UCSORTHOREF
350
7DE1B343D9D1970
  3
UCSORTHOVIEW
350
7DE1B343D9D1971
  3
VERSIONGUID
350
7DE1B343D9D1965
  0
DICTIONARY
  5
7DE1B343D9D1956
102
{ACAD_REACTORS
330
7DE1B343D9D1928
102
}
330
7DE1B343D9D1928
100
AcDbDictionary
  3
DIMASSOC
350
7DE1B343D9D1957
  0
XRECORD
  5
7DE1B343D9D197C
102
{ACAD_REACTORS
330
7DE1B343D9D197B
102
}
330
7DE1B343D9D197B
100
AcDbXrecord
340
7DE1B343D9D1934
  0
XRECORD
  5
7DE1B343D9D197A
102
{ACAD_REACTORS
330
7DE1B343D9D1979
102
}
330
7DE1B343D9D1979
100
AcDbXrecord
340
7DE1B343D9D1931
  0
MLINESTYLE
  5
7DE1B343D9D1937
102
{ACAD_REACTORS
330
7DE1B343D9D192A
102
}
330
7DE1B343D9D192A
100
AcDbMlineStyle
  2
STANDARD
 70
     0
  3

 62
     0
 51
90.0
 52
90.0
 71
     2
 49
0.5
 62
   256
  6
BYLAYER
 49
-0.5
 62
   256
  6
BYLAYER
  0
ACDBPLACEHOLDER
  5
7DE1B343D9D194D
102
{ACAD_REACTORS
330
7DE1B343D9D194C
102
}
330
7DE1B343D9D194C
100
AcDbPlaceHolder
280
     0
  0
XRECORD
  5
7DE1B343D9D1963
102
{ACAD_REACTORS
330
7DE1B343D9D1959
102
}
330
7DE1B343D9D1959
100
AcDbXrecord
 90
        0
  0
XRECORD
  5
7DE1B343D9D1964
102
{ACAD_REACTORS
330
7DE1B343D9D1959
102
}
330
7DE1B343D9D1959
100
AcDbXrecord
  1
{854A9970-8DB4-11D6-88E6-0090279574E7}
  0
XRECORD
  5
7DE1B343D9D195C
102
{ACAD_REACTORS
330
7DE1B343D9D1959
102
}
330
7DE1B343D9D1959
100
AcDbXrecord
  1

  0
XRECORD
  5
7DE1B343D9D1962
102
{ACAD_REACTORS
330
7DE1B343D9D1959
102
}
330
7DE1B343D9D1959
100
AcDbXrecord
 90
        0
  0
XRECORD
  5
7DE1B343D9D195E
102
{ACAD_REACTORS
330
7DE1B343D9D1959
102
}
330
7DE1B343D9D1959
100
AcDbXrecord
340
7DE1B343D9D194E
  0
XRECORD
  5
7DE1B343D9D1961
102
{ACAD_REACTORS
330
7DE1B343D9D1959
102
}
330
7DE1B343D9D1959
100
AcDbXrecord
 90
    14877
  0
XRECORD
  5
7DE1B343D9D195F
102
{ACAD_REACTORS
330
7DE1B343D9D1959
102
}
330
7DE1B343D9D1959
100
AcDbXrecord
340
7DE1B343D9D194F
  0
XRECORD
  5
7DE1B343D9D1960
102
{ACAD_REACTORS
330
7DE1B343D9D1959
102
}
330
7DE1B343D9D1959
100
AcDbXrecord
340
7DE1B343D9D194C
  0
XRECORD
  5
7DE1B343D9D1966
102
{ACAD_REACTORS
330
7DE1B343D9D1959
102
}
330
7DE1B343D9D1959
100
AcDbXrecord
 40
0.0
  0
XRECORD
  5
7DE1B343D9D1969
102
{ACAD_REACTORS
330
7DE1B343D9D1959
102
}
330
7DE1B343D9D1959
100
AcDbXrecord
340
0
  0
XRECORD
  5
7DE1B343D9D196F
102
{ACAD_REACTORS
330
7DE1B343D9D1959
102
}
330
7DE1B343D9D1959
100
AcDbXrecord
 10
0.0
 20
0.0
 30
0.0
  0
XRECORD
  5
7DE1B343D9D196B
102
{ACAD_REACTORS
330
7DE1B343D9D1959
102
}
330
7DE1B343D9D1959
100
AcDbXrecord
 10
0.0
 20
0.0
 30
0.0
  0
XRECORD
  5
7DE1B343D9D196E
102
{ACAD_REACTORS
330
7DE1B343D9D1959
102
}
330
7DE1B343D9D1959
100
AcDbXrecord
 10
0.0
 20
0.0
 30
0.0
  0
XRECORD
  5
7DE1B343D9D196C
102
{ACAD_REACTORS
330
7DE1B343D9D1959
102
}
330
7DE1B343D9D1959
100
AcDbXrecord
 10
0.0
 20
0.0
 30
0.0
  0
XRECORD
  5
7DE1B343D9D196D
102
{ACAD_REACTORS
330
7DE1B343D9D1959
102
}
330
7DE1B343D9D1959
100
AcDbXrecord
 10
0.0
 20
0.0
 30
0.0
  0
XRECORD
  5
7DE1B343D9D196A
102
{ACAD_REACTORS
330
7DE1B343D9D1959
102
}
330
7DE1B343D9D1959
100
AcDbXrecord
 10
0.0
 20
0.0
 30
0.0
  0
XRECORD
  5
7DE1B343D9D1967
102
{ACAD_REACTORS
330
7DE1B343D9D1959
102
}
330
7DE1B343D9D1959
100
AcDbXrecord
340
0
  0
XRECORD
  5
7DE1B343D9D1968
102
{ACAD_REACTORS
330
7DE1B343D9D1959
102
}
330
7DE1B343D9D1959
100
AcDbXrecord
 70
     0
  0
XRECORD
  5
7DE1B343D9D195D
102
{ACAD_REACTORS
330
7DE1B343D9D1959
102
}
330
7DE1B343D9D1959
100
AcDbXrecord
  1

  0
XRECORD
  5
7DE1B343D9D195A
102
{ACAD_REACTORS
330
7DE1B343D9D1959
102
}
330
7DE1B343D9D1959
100
AcDbXrecord
 90
        1
  0
XRECORD
  5
7DE1B343D9D195B
102
{ACAD_REACTORS
330
7DE1B343D9D1959
102
}
330
7DE1B343D9D1959
100
AcDbXrecord
 90
       70
  0
XRECORD
  5
7DE1B343D9D1972
102
{ACAD_REACTORS
330
7DE1B343D9D1959
102
}
330
7DE1B343D9D1959
100
AcDbXrecord
340
0
  0
XRECORD
  5
7DE1B343D9D1978
102
{ACAD_REACTORS
330
7DE1B343D9D1959
102
}
330
7DE1B343D9D1959
100
AcDbXrecord
 10
0.0
 20
0.0
 30
0.0
  0
XRECORD
  5
7DE1B343D9D1974
102
{ACAD_REACTORS
330
7DE1B343D9D1959
102
}
330
7DE1B343D9D1959
100
AcDbXrecord
 10
0.0
 20
0.0
 30
0.0
  0
XRECORD
  5
7DE1B343D9D1977
102
{ACAD_REACTORS
330
7DE1B343D9D1959
102
}
330
7DE1B343D9D1959
100
AcDbXrecord
 10
0.0
 20
0.0
 30
0.0
  0
XRECORD
  5
7DE1B343D9D1975
102
{ACAD_REACTORS
330
7DE1B343D9D1959
102
}
330
7DE1B343D9D1959
100
AcDbXrecord
 10
0.0
 20
0.0
 30
0.0
  0
XRECORD
  5
7DE1B343D9D1976
102
{ACAD_REACTORS
330
7DE1B343D9D1959
102
}
330
7DE1B343D9D1959
100
AcDbXrecord
 10
0.0
 20
0.0
 30
0.0
  0
XRECORD
  5
7DE1B343D9D1973
102
{ACAD_REACTORS
330
7DE1B343D9D1959
102
}
330
7DE1B343D9D1959
100
AcDbXrecord
 10
0.0
 20
0.0
 30
0.0
  0
XRECORD
  5
7DE1B343D9D1970
102
{ACAD_REACTORS
330
7DE1B343D9D1959
102
}
330
7DE1B343D9D1959
100
AcDbXrecord
340
0
  0
XRECORD
  5
7DE1B343D9D1971
102
{ACAD_REACTORS
330
7DE1B343D9D1959
102
}
330
7DE1B343D9D1959
100
AcDbXrecord
 70
     0
  0
XRECORD
  5
7DE1B343D9D1965
102
{ACAD_REACTORS
330
7DE1B343D9D1959
102
}
330
7DE1B343D9D1959
100
AcDbXrecord
  1
{854A9972-8DB4-11D6-88E6-0090279574E7}
  0
DICTIONARYVAR
  5
7DE1B343D9D1957
102
{ACAD_REACTORS
330
7DE1B343D9D1956
102
}
330
7DE1B343D9D1956
100
DictionaryVariables
280
     0
  1
1
  0
ENDSEC
  0
EOF
