  0
SECTION
  2
HEADER
  9
$ACADVER
  1
AC1014
  9
$ACADMAINTVER
 70
     9
  9
$DWGCODEPAGE
  3
ANSI_1252
  9
$INSBASE
 10
0.0
 20
0.0
 30
0.0
  9
$EXTMIN
 10
-0.8461559345233874
 20
-0.1081208247502096
 30
0.0
  9
$EXTMAX
 10
2.639063387223741
 20
1.113507131597976
 30
0.0
  9
$LIMMIN
 10
0.0
 20
0.0
  9
$LIMMAX
 10
8.5
 20
11.0
  9
$ORTHOMODE
 70
     1
  9
$REGENMODE
 70
     1
  9
$FILLMODE
 70
     1
  9
$QTEXTMODE
 70
     0
  9
$MIRRTEXT
 70
     0
  9
$DRAGMODE
 70
     2
  9
$LTSCALE
 40
0.5
  9
$OSMODE
 70
    39
  9
$ATTMODE
 70
     1
  9
$TEXTSIZE
 40
0.125
  9
$TRACEWID
 40
0.05
  9
$TEXTSTYLE
  7
ROMANS
  9
$CLAYER
  8
0
  9
$CELTYPE
  6
BYLAYER
  9
$CECOLOR
 62
   256
  9
$CELTSCALE
 40
1.0
  9
$DELOBJ
 70
     1
  9
$DISPSILH
 70
     1
  9
$DIMSCALE
 40
1.0
  9
$DIMASZ
 40
0.125
  9
$DIMEXO
 40
0.125
  9
$DIMDLI
 40
0.375
  9
$DIMRND
 40
0.0
  9
$DIMDLE
 40
0.0
  9
$DIMEXE
 40
0.125
  9
$DIMTP
 40
0.0
  9
$DIMTM
 40
0.0
  9
$DIMTXT
 40
0.125
  9
$DIMCEN
 40
-0.125
  9
$DIMTSZ
 40
0.0
  9
$DIMTOL
 70
     0
  9
$DIMLIM
 70
     0
  9
$DIMTIH
 70
     1
  9
$DIMTOH
 70
     1
  9
$DIMSE1
 70
     0
  9
$DIMSE2
 70
     0
  9
$DIMTAD
 70
     0
  9
$DIMZIN
 70
     4
  9
$DIMBLK
  1

  9
$DIMASO
 70
     1
  9
$DIMSHO
 70
     1
  9
$DIMPOST
  1

  9
$DIMAPOST
  1

  9
$DIMALT
 70
     0
  9
$DIMALTD
 70
     2
  9
$DIMALTF
 40
25.4
  9
$DIMLFAC
 40
0.25
  9
$DIMTOFL
 70
     0
  9
$DIMTVP
 40
0.0
  9
$DIMTIX
 70
     0
  9
$DIMSOXD
 70
     0
  9
$DIMSAH
 70
     0
  9
$DIMBLK1
  1

  9
$DIMBLK2
  1

  9
$DIMSTYLE
  2
STANDARD
  9
$DIMCLRD
 70
     0
  9
$DIMCLRE
 70
     0
  9
$DIMCLRT
 70
     0
  9
$DIMTFAC
 40
1.0
  9
$DIMGAP
 40
0.09
  9
$DIMJUST
 70
     0
  9
$DIMSD1
 70
     0
  9
$DIMSD2
 70
     0
  9
$DIMTOLJ
 70
     1
  9
$DIMTZIN
 70
     0
  9
$DIMALTZ
 70
     0
  9
$DIMALTTZ
 70
     0
  9
$DIMFIT
 70
     3
  9
$DIMUPT
 70
     0
  9
$DIMUNIT
 70
     2
  9
$DIMDEC
 70
     3
  9
$DIMTDEC
 70
     4
  9
$DIMALTU
 70
     2
  9
$DIMALTTD
 70
     2
  9
$DIMTXSTY
  7
ROMANS
  9
$DIMAUNIT
 70
     0
  9
$LUNITS
 70
     2
  9
$LUPREC
 70
     3
  9
$SKETCHINC
 40
0.1
  9
$FILLETRAD
 40
0.015
  9
$AUNITS
 70
     0
  9
$AUPREC
 70
     0
  9
$MENU
  1
ACAD
  9
$ELEVATION
 40
0.0
  9
$PELEVATION
 40
0.0
  9
$THICKNESS
 40
0.0
  9
$LIMCHECK
 70
     0
  9
$BLIPMODE
 70
     0
  9
$CHAMFERA
 40
0.0
  9
$CHAMFERB
 40
0.0
  9
$CHAMFERC
 40
0.0
  9
$CHAMFERD
 40
0.0
  9
$SKPOLY
 70
     0
  9
$TDCREATE
 40
2448173.685761227
  9
$TDUPDATE
 40
2452458.298003946
  9
$TDINDWG
 40
0.0752950000
  9
$TDUSRTIMER
 40
0.0752950000
  9
$USRTIMER
 70
     1
  9
$ANGBASE
 50
0.0
  9
$ANGDIR
 70
     0
  9
$PDMODE
 70
     0
  9
$PDSIZE
 40
0.0
  9
$PLINEWID
 40
0.0
  9
$COORDS
 70
     2
  9
$SPLFRAME
 70
     0
  9
$SPLINETYPE
 70
     6
  9
$SPLINESEGS
 70
     8
  9
$ATTDIA
 70
     0
  9
$ATTREQ
 70
     1
  9
$HANDLING
 70
 22529
  9
$HANDSEED
  5
546
  9
$SURFTAB1
 70
     6
  9
$SURFTAB2
 70
     6
  9
$SURFTYPE
 70
     6
  9
$SURFU
 70
     6
  9
$SURFV
 70
     6
  9
$UCSNAME
  2

  9
$UCSORG
 10
0.0
 20
0.0
 30
0.0
  9
$UCSXDIR
 10
1.0
 20
0.0
 30
0.0
  9
$UCSYDIR
 10
0.0
 20
1.0
 30
0.0
  9
$PUCSNAME
  2

  9
$PUCSORG
 10
0.0
 20
0.0
 30
0.0
  9
$PUCSXDIR
 10
1.0
 20
0.0
 30
0.0
  9
$PUCSYDIR
 10
0.0
 20
1.0
 30
0.0
  9
$USERI1
 70
     0
  9
$USERI2
 70
     0
  9
$USERI3
 70
     0
  9
$USERI4
 70
     0
  9
$USERI5
 70
     0
  9
$USERR1
 40
0.0
  9
$USERR2
 40
0.0
  9
$USERR3
 40
0.0
  9
$USERR4
 40
0.0
  9
$USERR5
 40
0.0
  9
$WORLDVIEW
 70
     1
  9
$SHADEDGE
 70
     3
  9
$SHADEDIF
 70
    70
  9
$TILEMODE
 70
     1
  9
$MAXACTVP
 70
    16
  9
$PINSBASE
 10
0.0
 20
0.0
 30
0.0
  9
$PLIMCHECK
 70
     0
  9
$PEXTMIN
 10
1.000000000000000E+20
 20
1.000000000000000E+20
 30
1.000000000000000E+20
  9
$PEXTMAX
 10
-1.000000000000000E+20
 20
-1.000000000000000E+20
 30
-1.000000000000000E+20
  9
$PLIMMIN
 10
0.0
 20
0.0
  9
$PLIMMAX
 10
12.0
 20
9.0
  9
$UNITMODE
 70
     0
  9
$VISRETAIN
 70
     0
  9
$PLINEGEN
 70
     1
  9
$PSLTSCALE
 70
     0
  9
$TREEDEPTH
 70
  3020
  9
$PICKSTYLE
 70
     1
  9
$CMLSTYLE
  2
STANDARD
  9
$CMLJUST
 70
     0
  9
$CMLSCALE
 40
1.0
  9
$PROXYGRAPHICS
 70
     1
  9
$MEASUREMENT
 70
     0
  0
ENDSEC
  0
SECTION
  2
CLASSES
  0
CLASS
  1
LWPOLYLINE
  2
AcDbPolyline
  3
AutoCAD 2000
 90
        0
280
     0
281
     1
  0
CLASS
  1
ACDBDICTIONARYWDFLT
  2
AcDbDictionaryWithDefault
  3
AutoCAD 2000
 90
        0
280
     0
281
     0
  0
CLASS
  1
ACDBPLACEHOLDER
  2
AcDbPlaceHolder
  3
AutoCAD 2000
 90
        0
280
     0
281
     0
  0
CLASS
  1
LAYOUT
  2
AcDbLayout
  3
AutoCAD 2000
 90
        0
280
     0
281
     0
  0
CLASS
  1
DICTIONARYVAR
  2
AcDbDictionaryVar
  3
AutoCAD 2000
 90
        0
280
     0
281
     0
  0
CLASS
  1
LONG_TRANSACTION
  2
AcDbLongTransaction
  3
AutoCAD 2000
 90
        0
280
     0
281
     0
  0
CLASS
  1
LWPOLYLINE
  2
AcDbPolyline
  3
AutoCAD 2000
 90
        0
280
     0
281
     1
  0
CLASS
  1
HATCH
  2
AcDbHatch
  3
AutoCAD 2000
 90
        0
280
     0
281
     1
  0
CLASS
  1
XRECORD
  2
AcDbXrecord
  3
AutoCAD 2000
 90
        0
280
     0
281
     0
  0
ENDSEC
  0
SECTION
  2
TABLES
  0
TABLE
  2
VPORT
  5
8
330
0
100
AcDbSymbolTable
 70
     2
  0
VPORT
  5
521
330
8
100
AcDbSymbolTableRecord
100
AcDbViewportTableRecord
  2
*ACTIVE
 70
     0
 10
0.0
 20
0.0
 11
1.0
 21
1.0
 12
3.818497988143431
 22
0.5079394157553186
 13
0.0
 23
0.0
 14
0.015625
 24
0.015625
 15
0.0
 25
0.0
 16
0.0
 26
0.0
 36
1.0
 17
0.0
 27
0.0
 37
0.0
 40
2.163783105556757
 41
4.320930232558139
 42
50.0
 43
0.0
 44
0.0
 50
0.0
 51
0.0
 71
     0
 72
  2000
 73
     1
 74
     1
 75
     0
 76
     0
 77
     0
 78
     0
  0
ENDTAB
  0
TABLE
  2
LTYPE
  5
5
330
0
100
AcDbSymbolTable
 70
     1
  0
LTYPE
  5
12
330
5
100
AcDbSymbolTableRecord
100
AcDbLinetypeTableRecord
  2
BYBLOCK
 70
     0
  3

 72
    65
 73
     0
 40
0.0
  0
LTYPE
  5
13
330
5
100
AcDbSymbolTableRecord
100
AcDbLinetypeTableRecord
  2
BYLAYER
 70
     0
  3

 72
    65
 73
     0
 40
0.0
  0
LTYPE
  5
14
330
5
100
AcDbSymbolTableRecord
100
AcDbLinetypeTableRecord
  2
CONTINUOUS
 70
     0
  3
Solid line
 72
    65
 73
     0
 40
0.0
  0
ENDTAB
  0
TABLE
  2
LAYER
  5
2
330
0
100
AcDbSymbolTable
 70
     2
  0
LAYER
  5
F
330
2
100
AcDbSymbolTableRecord
100
AcDbLayerTableRecord
  2
0
 70
     0
 62
     7
  6
CONTINUOUS
  0
LAYER
  5
2F
330
2
100
AcDbSymbolTableRecord
100
AcDbLayerTableRecord
  2
TEXT
 70
     0
 62
     3
  6
CONTINUOUS
  0
ENDTAB
  0
TABLE
  2
STYLE
  5
3
330
0
100
AcDbSymbolTable
 70
     3
  0
STYLE
  5
10
330
3
100
AcDbSymbolTableRecord
100
AcDbTextStyleTableRecord
  2
STANDARD
 70
     0
 40
0.0
 41
1.0
 50
0.0
 71
     0
 42
0.125
  3
txt
  4

  0
STYLE
  5
40D
330
3
100
AcDbSymbolTableRecord
100
AcDbTextStyleTableRecord
  2
ITALICC
 70
     0
 40
0.0
 41
1.0
 50
0.0
 71
     0
 42
0.125
  3
italicc
  4

  0
STYLE
  5
51D
330
3
100
AcDbSymbolTableRecord
100
AcDbTextStyleTableRecord
  2
ROMANS
 70
     0
 40
0.0
 41
1.0
 50
0.0
 71
     0
 42
0.125
  3
romans.shx
  4

  0
ENDTAB
  0
TABLE
  2
VIEW
  5
6
330
0
100
AcDbSymbolTable
 70
     0
  0
ENDTAB
  0
TABLE
  2
UCS
  5
7
330
0
100
AcDbSymbolTable
 70
     0
  0
ENDTAB
  0
TABLE
  2
APPID
  5
9
330
0
100
AcDbSymbolTable
 70
     1
  0
APPID
  5
11
330
9
100
AcDbSymbolTableRecord
100
AcDbRegAppTableRecord
  2
ACAD
 70
     0
  0
ENDTAB
  0
TABLE
  2
DIMSTYLE
  5
A
330
0
100
AcDbSymbolTable
 70
     1
  0
DIMSTYLE
105
404
330
A
100
AcDbSymbolTableRecord
100
AcDbDimStyleTableRecord
  2
STANDARD
 70
     0
  3

  4

  5

  6

  7

 40
1.0
 41
0.18
 42
0.0625
 43
0.38
 44
0.18
 45
0.0
 46
0.0
 47
0.0
 48
0.0
140
0.18
141
0.09
142
0.0
143
25.4
144
1.0
145
0.0
146
1.0
147
0.09
 71
     0
 72
     0
 73
     1
 74
     1
 75
     0
 76
     0
 77
     0
 78
     0
170
     0
171
     2
172
     0
173
     0
174
     0
175
     0
176
     0
177
     0
178
     0
270
     2
271
     4
272
     4
273
     2
274
     2
340
10
275
     0
280
     0
281
     0
282
     0
283
     1
284
     0
285
     0
286
     0
287
     3
288
     0
  0
ENDTAB
  0
TABLE
  2
BLOCK_RECORD
  5
1
330
0
100
AcDbSymbolTable
 70
     0
  0
BLOCK_RECORD
  5
18
102
{ACAD_XDICTIONARY
360
544
102
}
330
1
100
AcDbSymbolTableRecord
100
AcDbBlockTableRecord
  2
*MODEL_SPACE
  0
BLOCK_RECORD
  5
15
102
{ACAD_XDICTIONARY
360
542
102
}
330
1
100
AcDbSymbolTableRecord
100
AcDbBlockTableRecord
  2
*PAPER_SPACE
  0
ENDTAB
  0
ENDSEC
  0
SECTION
  2
BLOCKS
  0
BLOCK
  5
38
330
18
100
AcDbEntity
  8
0
100
AcDbBlockBegin
  2
*MODEL_SPACE
 70
     0
 10
0.0
 20
0.0
 30
0.0
  3
*MODEL_SPACE
  1

  0
ENDBLK
  5
39
330
18
100
AcDbEntity
  8
0
100
AcDbBlockEnd
  0
BLOCK
  5
36
330
15
100
AcDbEntity
 67
     1
  8
0
100
AcDbBlockBegin
  2
*PAPER_SPACE
 70
     0
 10
0.0
 20
0.0
 30
0.0
  3
*PAPER_SPACE
  1

  0
ENDBLK
  5
37
330
15
100
AcDbEntity
 67
     1
  8
0
100
AcDbBlockEnd
  0
ENDSEC
  0
SECTION
  2
ENTITIES
  0
LWPOLYLINE
  5
121
330
18
100
AcDbEntity
  8
0
100
AcDbPolyline
 90
      104
 70
     1
 43
0.0
 10
0.9802405538021535
 20
0.958400529880178
 10
0.9802405538021535
 20
0.950400529880178
 10
0.9962405538021535
 20
0.941162925573144
 10
0.9962405538021535
 20
0.9356381341872118
 10
0.9802405538021535
 20
0.926400529880178
 10
0.9802405538021535
 20
0.918400529880178
 10
0.9962405538021535
 20
0.909162925573144
 10
0.9962405538021535
 20
0.9036381341872118
 10
0.9802405538021535
 20
0.894400529880178
 10
0.9802405538021535
 20
0.886400529880178
 10
0.9962405538021535
 20
0.877162925573144
 10
0.9962405538021535
 20
0.8716381341872118
 10
0.9802405538021535
 20
0.862400529880178
 10
0.9802405538021535
 20
0.854400529880178
 10
0.9962405538021535
 20
0.845162925573144
 10
0.9962405538021535
 20
0.8396381341872118
 10
0.9802405538021535
 20
0.8304005298801779
 10
0.9802405538021535
 20
0.8291505298801784
 10
0.8622405538021535
 20
0.8291505298801784
 10
0.8622405538021535
 20
0.8304005298801779
 10
0.8782405538021535
 20
0.8396381341872118
 10
0.8782405538021535
 20
0.845162925573144
 10
0.8622405538021535
 20
0.854400529880178
 10
0.8622405538021535
 20
0.862400529880178
 10
0.8782405538021535
 20
0.8716381341872118
 10
0.8782405538021535
 20
0.877162925573144
 10
0.8622405538021535
 20
0.886400529880178
 10
0.8622405538021535
 20
0.894400529880178
 10
0.8782405538021535
 20
0.9036381341872118
 10
0.8782405538021535
 20
0.909162925573144
 10
0.8622405538021535
 20
0.918400529880178
 10
0.8622405538021535
 20
0.926400529880178
 10
0.8782405538021535
 20
0.9356381341872118
 10
0.8782405538021535
 20
0.941162925573144
 10
0.8622405538021535
 20
0.950400529880178
 10
0.8622405538021535
 20
0.958400529880178
 10
0.8782405538021535
 20
0.9676381341872119
 10
0.8782405538021535
 20
0.9731629255731441
 10
0.8622405538021535
 20
0.9824005298801781
 10
0.8622405538021535
 20
0.9904005298801781
 10
0.8782405538021535
 20
0.9996381341872119
 10
0.8782405538021535
 20
1.005162925573144
 10
0.8622405538021535
 20
1.014400529880178
 10
0.8622405538021535
 20
1.022400529880178
 10
0.8782405538021535
 20
1.031638134187212
 10
0.8782405538021535
 20
1.037162925573144
 10
0.8622405538021535
 20
1.046400529880178
 10
0.8622405538021535
 20
1.054400529880178
 10
0.8782405538021535
 20
1.063638134187212
 10
0.8782405538021535
 20
1.069162925573144
 10
0.8622405538021535
 20
1.078400529880178
 10
0.8622405538021535
 20
1.086400529880178
 10
0.8782405538021535
 20
1.095638134187212
 10
0.8782405538021535
 20
1.101162925573144
 10
0.862240553802154
 20
1.110400529880178
 10
0.7834905538021535
 20
1.110400529880178
 42
0.4142135623730944
 10
0.7684905538021536
 20
1.095400529880178
 10
0.7684905538021536
 20
0.8441505298801779
 42
-0.4142135623730951
 10
0.7534905538021537
 20
0.829150529880178
 10
0.6634905538021537
 20
0.8291505298801784
 42
-0.4142135623730945
 10
0.6484905538021537
 20
0.8441505298801782
 10
0.6484905538021537
 20
1.095400529880178
 42
0.4142135623730944
 10
0.6334905538021536
 20
1.110400529880178
 10
0.5692405538021536
 20
1.110400529880178
 42
0.4142135623730959
 10
0.5542405538021536
 20
1.095400529880178
 10
0.5542405538021536
 20
0.7504005298801781
 42
0.4142135623730951
 10
0.5692405538021536
 20
0.7354005298801783
 10
0.7004905538021536
 20
0.7354005298801783
 10
0.7104905538021536
 20
0.7454005298801782
 10
0.7204905538021535
 20
0.7354005298801783
 10
0.9142405538021536
 20
0.7354005298801781
 42
-0.4142135623730951
 10
0.9292405538021535
 20
0.7204005298801781
 10
0.9292405538021535
 20
0.6879005298801784
 42
0.4142135623730951
 10
0.9442405538021533
 20
0.6729005298801784
 10
1.351740553802153
 20
0.6729005298801783
 42
0.4142135623730951
 10
1.366740553802153
 20
0.6879005298801781
 10
1.366740553802153
 20
1.110400529880178
 10
1.286990553802153
 20
1.110400529880178
 42
0.4142135623730951
 10
1.271990553802153
 20
1.095400529880178
 10
1.271990553802153
 20
0.7816505298801784
 42
-0.414213562373096
 10
1.256990553802153
 20
0.7666505298801784
 10
1.104990553802153
 20
0.7666505298801787
 42
-0.4142135623730948
 10
1.089990553802153
 20
0.7816505298801787
 10
1.089990553802153
 20
1.095400529880178
 42
0.4142135623730951
 10
1.074990553802153
 20
1.110400529880178
 10
0.9802405538021536
 20
1.110400529880178
 10
0.9962405538021535
 20
1.101162925573144
 10
0.9962405538021535
 20
1.095638134187212
 10
0.9802405538021535
 20
1.086400529880178
 10
0.9802405538021535
 20
1.078400529880178
 10
0.9962405538021535
 20
1.069162925573144
 10
0.9962405538021535
 20
1.063638134187212
 10
0.9802405538021535
 20
1.054400529880178
 10
0.9802405538021535
 20
1.046400529880178
 10
0.9962405538021535
 20
1.037162925573144
 10
0.9962405538021535
 20
1.031638134187212
 10
0.9802405538021535
 20
1.022400529880178
 10
0.9802405538021535
 20
1.014400529880178
 10
0.9962405538021535
 20
1.005162925573144
 10
0.9962405538021535
 20
0.9996381341872119
 10
0.9802405538021535
 20
0.9904005298801781
 10
0.9802405538021535
 20
0.9824005298801781
 10
0.9962405538021535
 20
0.9731629255731441
 10
0.9962405538021535
 20
0.9676381341872119
  0
TEXT
  5
493
330
18
100
AcDbEntity
  8
TEXT
100
AcDbText
 10
0.140873263751375
 20
0.3498977793323719
 30
0.0
 40
0.125
  1
PART #110007
  7
ITALICC
 72
     1
 11
0.8968256447037559
 21
0.3498977793323719
 31
0.0
100
AcDbText
  0
LINE
  5
494
330
18
100
AcDbEntity
  8
TEXT
100
AcDbLine
 10
1.052140274727139
 20
0.1698207879693037
 30
0.0
 11
1.005042116171154
 21
0.0939554615577656
 31
0.0
  0
LINE
  5
495
330
18
100
AcDbEntity
  8
TEXT
100
AcDbLine
 10
1.005042116171154
 20
0.0939554615577656
 30
0.0
 11
1.005042116171154
 21
0.2352849937369044
 31
0.0
  0
LINE
  5
496
330
18
100
AcDbEntity
  8
TEXT
100
AcDbLine
 10
1.005042116171154
 20
0.2352849937369044
 30
0.0
 11
0.9367272376218815
 21
0.2352849937369044
 31
0.0
  0
LINE
  5
497
330
18
100
AcDbEntity
  8
TEXT
100
AcDbLine
 10
0.9367272376218815
 20
0.2352849937369044
 30
0.0
 11
0.9367272376218762
 21
0.1698207879693037
 31
0.0
  0
LINE
  5
498
330
18
100
AcDbEntity
  8
TEXT
100
AcDbLine
 10
1.062574991491062
 20
0.0599275450283301
 30
0.0
 11
1.127132107456767
 21
0.1698207879693037
 31
0.0
  0
LINE
  5
499
330
18
100
AcDbEntity
  8
TEXT
100
AcDbLine
 10
1.127132107456767
 20
0.1698207879693037
 30
0.0
 11
1.052140274727141
 21
0.1698207879693037
 31
0.0
  0
LINE
  5
49A
330
18
100
AcDbEntity
  8
TEXT
100
AcDbLine
 10
0.9412071249483817
 20
-0.0966522450192073
 30
0.0
 11
1.005585309267002
 21
-0.0966522450192073
 31
0.0
  0
LINE
  5
49B
330
18
100
AcDbEntity
  8
TEXT
100
AcDbLine
 10
1.005585309267002
 20
-0.0966522450192073
 30
0.0
 11
1.005585309267002
 21
0.0349273234569729
 31
0.0
  0
LINE
  5
49C
330
18
100
AcDbEntity
  8
TEXT
100
AcDbLine
 10
1.005585309267002
 20
0.0349273234569729
 30
0.0
 11
1.081488842478466
 21
-0.0966522450192073
 31
0.0
  0
LINE
  5
49D
330
18
100
AcDbEntity
  8
TEXT
100
AcDbLine
 10
1.081488842478466
 20
-0.0966522450192073
 30
0.0
 11
1.158067214854672
 21
-0.0966522450192073
 31
0.0
  0
LINE
  5
49E
330
18
100
AcDbEntity
  8
TEXT
100
AcDbLine
 10
0.9412071249483764
 20
0.1055440933125382
 30
0.0
 11
0.9412071249483817
 21
-0.0966522450192073
 31
0.0
  0
LINE
  5
49F
330
18
100
AcDbEntity
  8
TEXT
100
AcDbLine
 10
1.158067214854672
 20
-0.0966522450192073
 30
0.0
 11
1.062574991491062
 21
0.0599275450283301
 31
0.0
  0
ARC
  5
4A0
330
18
100
AcDbEntity
  8
TEXT
100
AcDbCircle
 10
0.8645591436558177
 20
0.0806382180298755
 30
0.0
 40
0.0249058752826653
100
AcDbArc
 50
89.99971217465335
 51
179.9999999999985
  0
ARC
  5
4A1
330
18
100
AcDbEntity
  8
TEXT
100
AcDbCircle
 10
0.8724481005953954
 20
0.1385750606870388
 30
0.0
 40
0.0314112657011332
100
AcDbArc
 50
95.88484768694724
 51
173.2388340632136
  0
LINE
  5
4A2
330
18
100
AcDbEntity
  8
TEXT
100
AcDbLine
 10
0.8412552835322868
 20
0.142273138108429
 30
0.0
 11
0.8412552835322868
 21
0.1698207879693037
 31
0.0
  0
LINE
  5
4A3
330
18
100
AcDbEntity
  8
TEXT
100
AcDbLine
 10
0.8412552835322868
 20
0.1698207879693037
 30
0.0
 11
0.7773583772327859
 21
0.1698207879693037
 31
0.0
  0
LINE
  5
4A4
330
18
100
AcDbEntity
  8
TEXT
100
AcDbLine
 10
0.7773583772327859
 20
0.1698207879693037
 30
0.0
 11
0.7773583772327859
 21
0.0646088094158763
 31
0.0
  0
LINE
  5
4A5
330
18
100
AcDbEntity
  8
TEXT
100
AcDbLine
 10
0.6983984383577449
 20
0.1698207879693037
 30
0.0
 11
0.5635665291406858
 21
0.1698207879693037
 31
0.0
  0
LINE
  5
4A6
330
18
100
AcDbEntity
  8
TEXT
100
AcDbLine
 10
0.5635665291406858
 20
0.1698207879693037
 30
0.0
 11
0.5635665291406858
 21
0.1414982421996598
 31
0.0
  0
LINE
  5
4A7
330
18
100
AcDbEntity
  8
TEXT
100
AcDbLine
 10
0.6228806255340045
 20
0.068269119850406
 30
0.0
 11
0.7051686153173878
 21
0.068269119850406
 31
0.0
  0
LINE
  5
4A8
330
18
100
AcDbEntity
  8
TEXT
100
AcDbLine
 10
0.7051686153173878
 20
0.068269119850406
 30
0.0
 11
0.6949038549038234
 21
0.0895196594231003
 31
0.0
  0
LINE
  5
4A9
330
18
100
AcDbEntity
  8
TEXT
100
AcDbLine
 10
0.6693675400132664
 20
0.1055440933125382
 30
0.0
 11
0.562161266625977
 21
0.1055440933125382
 31
0.0
  0
ARC
  5
4AA
330
18
100
AcDbEntity
  8
TEXT
100
AcDbCircle
 10
0.6693675400132655
 20
0.0771847183125409
 30
0.0
 40
0.028359375
100
AcDbArc
 50
25.78218179591245
 51
90.0
  0
LINE
  5
4AB
330
18
100
AcDbEntity
  8
TEXT
100
AcDbLine
 10
0.7773583772327859
 20
0.0646088094158763
 30
0.0
 11
0.7336076060508843
 21
0.1468590854120215
 31
0.0
  0
ARC
  5
4AC
330
18
100
AcDbEntity
  8
TEXT
100
AcDbCircle
 10
0.6963714985806764
 20
0.1282372208484013
 30
0.0
 40
0.0416329381542859
100
AcDbArc
 50
26.56974201007528
 51
87.20939649401342
  0
LWPOLYLINE
  5
4AD
330
18
100
AcDbEntity
  8
TEXT
100
AcDbPolyline
 90
        2
 70
     0
 43
0.0
 10
0.7812980545378246
 20
-0.0531613000687692
 42
-0.2901071551932486
 10
0.7382221216701801
 20
-0.0966522450192073
 42
-5.328517124445184
  0
LWPOLYLINE
  5
4AE
330
18
100
AcDbEntity
  8
TEXT
100
AcDbPolyline
 90
        2
 70
     0
 43
0.0
 10
0.7812980545378246
 20
-0.0531613000687692
 10
0.7812980545378246
 20
-0.0966522450192073
  0
LWPOLYLINE
  5
4AF
330
18
100
AcDbEntity
  8
TEXT
100
AcDbPolyline
 90
        2
 70
     0
 43
0.0
 10
0.7812980545378246
 20
-0.0966522450192073
 10
0.8396532683731585
 20
-0.0966522450192073
  0
LWPOLYLINE
  5
4B0
330
18
100
AcDbEntity
  8
TEXT
100
AcDbPolyline
 90
        2
 70
     0
 43
0.0
 10
0.5611287711711679
 20
-0.0531613000687692
 42
0.2901071551932823
 10
0.6042047040388035
 20
-0.0966522450192073
 42
5.328517124445801
  0
LWPOLYLINE
  5
4B1
330
18
100
AcDbEntity
  8
TEXT
100
AcDbPolyline
 90
        2
 70
     0
 43
0.0
 10
0.6042047040388035
 20
-0.0966522450192073
 10
0.7382221216701801
 20
-0.0966522450192073
 42
0.9999999999999998
  0
LWPOLYLINE
  5
4B2
330
18
100
AcDbEntity
  8
TEXT
100
AcDbPolyline
 90
        4
 70
     1
 43
0.0
 10
0.7180996566002876
 20
0.0063117329648179
 10
0.6294393379404291
 20
0.0063117329648179
 42
0.9999999999999998
 10
0.6294393379404291
 20
-0.0360868075390428
 10
0.7180996566002876
 20
-0.0360868075390428
 42
1.0
  0
ARC
  5
4B3
330
18
100
AcDbEntity
  8
TEXT
100
AcDbCircle
 10
0.6228806255340036
 20
0.0005835387062874
 30
0.0
 40
0.0676855811441166
100
AcDbArc
 50
90.0
 51
153.7768192527749
  0
LINE
  5
4B4
330
18
100
AcDbEntity
  8
TEXT
100
AcDbLine
 10
0.8396532683731594
 20
-0.0966522450192073
 30
0.0
 11
0.8396532683731541
 21
0.0806382604122611
 31
0.0
  0
LINE
  5
4B5
330
18
100
AcDbEntity
  8
TEXT
100
AcDbLine
 10
0.562161266625977
 20
0.1055440933125382
 30
0.0
 11
0.562161266625977
 21
0.0304916872383316
 31
0.0
  0
LINE
  5
4B6
330
18
100
AcDbEntity
  8
TEXT
100
AcDbLine
 10
0.8645591436558186
 20
0.1055440933125382
 30
0.0
 11
0.9412071249483764
 21
0.1055440933125382
 31
0.0
  0
LINE
  5
4B7
330
18
100
AcDbEntity
  8
TEXT
100
AcDbLine
 10
0.9367272376218762
 20
0.1698207879693037
 30
0.0
 11
0.8692275199723598
 21
0.1698207879693037
 31
0.0
  0
LWPOLYLINE
  5
4B8
330
18
100
AcDbEntity
  8
TEXT
100
AcDbPolyline
 90
        2
 70
     0
 43
0.0
 10
0.3563512658482928
 20
0.1055440933125382
 42
-0.4142135623731017
 10
0.3639050550144063
 20
0.0979903041464283
 42
-0.9999999999999998
  0
LWPOLYLINE
  5
4B9
330
18
100
AcDbEntity
  8
TEXT
100
AcDbPolyline
 90
        2
 70
     0
 43
0.0
 10
0.4850966987171966
 20
0.1055440933125382
 42
-0.4142135623731017
 10
0.49265048788331
 20
0.0979903041464283
 42
-0.9999999999999998
  0
LWPOLYLINE
  5
4BA
330
18
100
AcDbEntity
  8
TEXT
100
AcDbPolyline
 90
        2
 70
     0
 43
0.0
 10
0.3737029888983141
 20
0.1698207879693072
 42
-0.3328679258950098
 10
0.4094846796114755
 20
0.1426532912084113
 42
6.772930709997214
  0
LWPOLYLINE
  5
4BB
330
18
100
AcDbEntity
  8
TEXT
100
AcDbPolyline
 90
        3
 70
     0
 43
0.0
 10
0.5277848384275199
 20
0.1698207879693072
 10
0.4094846796114755
 20
0.1698207879693072
 10
0.4094846796114755
 20
0.1426532912084113
 42
-1.960274751411753
  0
LINE
  5
4BC
330
18
100
AcDbEntity
  8
TEXT
100
AcDbLine
 10
0.4309631017962472
 20
0.1055440933125382
 30
0.0
 11
0.4850966987171974
 21
0.1055440933125382
 31
0.0
  0
LINE
  5
4BD
330
18
100
AcDbEntity
  8
TEXT
100
AcDbLine
 10
0.3065159860251461
 20
0.1055440933125382
 30
0.0
 11
0.3563512658482937
 21
0.1055440933125382
 31
0.0
  0
LINE
  5
4BE
330
18
100
AcDbEntity
  8
TEXT
100
AcDbLine
 10
0.3737029888983132
 20
0.1698207879693037
 30
0.0
 11
0.2396849329671769
 21
0.1698207879693037
 31
0.0
  0
LINE
  5
4BF
330
18
100
AcDbEntity
  8
TEXT
100
AcDbLine
 10
0.3639050550144072
 20
-0.0966522450192073
 30
0.0
 11
0.4309631017962472
 21
-0.0966522450192073
 31
0.0
  0
LINE
  5
4C0
330
18
100
AcDbEntity
  8
TEXT
100
AcDbLine
 10
0.2085126523257115
 20
-0.0966522450192073
 30
0.0
 11
0.3065159860251461
 21
-0.0966522450192073
 31
0.0
  0
LINE
  5
4C1
330
18
100
AcDbEntity
  8
TEXT
100
AcDbLine
 10
0.2396849329671769
 20
-0.0310434187631046
 30
0.0
 11
0.2226912960825755
 21
-0.0310434187631046
 31
0.0
  0
ARC
  5
4C2
330
18
100
AcDbEntity
  8
TEXT
100
AcDbCircle
 10
0.2226912960825746
 20
-0.0156616125196791
 30
0.0
 40
0.0153818062434269
100
AcDbArc
 50
174.7883570302258
 51
270.0
  0
LINE
  5
4C3
330
18
100
AcDbEntity
  8
TEXT
100
AcDbLine
 10
0.3065159860251461
 20
-0.0966522450192073
 30
0.0
 11
0.3065159860251461
 21
0.1055440933125382
 31
0.0
  0
LINE
  5
4C4
330
18
100
AcDbEntity
  8
TEXT
100
AcDbLine
 10
0.3639050550144072
 20
0.0979903041464283
 30
0.0
 11
0.3639050550144072
 21
-0.0966522450192073
 31
0.0
  0
LINE
  5
4C5
330
18
100
AcDbEntity
  8
TEXT
100
AcDbLine
 10
0.4309631017962472
 20
-0.0966522450192073
 30
0.0
 11
0.4309631017962472
 21
0.1055440933125382
 31
0.0
  0
LINE
  5
4C6
330
18
100
AcDbEntity
  8
TEXT
100
AcDbLine
 10
0.2396849329671769
 20
0.1698207879693037
 30
0.0
 11
0.2396849329671769
 21
-0.0310434187631046
 31
0.0
  0
LINE
  5
4C7
330
18
100
AcDbEntity
  8
TEXT
100
AcDbLine
 10
0.2073730788295167
 20
-0.0142644069162081
 30
0.0
 11
0.2073730788295167
 21
0.2378322657081142
 31
0.0
  0
LINE
  5
4C8
330
18
100
AcDbEntity
  8
TEXT
100
AcDbLine
 10
0.1405643662631517
 20
0.2378322657081142
 30
0.0
 11
0.1405643662631517
 21
0.1698207879693037
 31
0.0
  0
LINE
  5
4C9
330
18
100
AcDbEntity
  8
TEXT
100
AcDbLine
 10
0.1405643662631517
 20
0.1698207879693037
 30
0.0
 11
0.1104424534697754
 21
0.1698207879693037
 31
0.0
  0
LINE
  5
4CA
330
18
100
AcDbEntity
  8
TEXT
100
AcDbLine
 10
0.1104424534697754
 20
0.1698207879693037
 30
0.0
 11
0.05169389066391
 21
0.0689487918561831
 31
0.0
  0
LINE
  5
4CB
330
18
100
AcDbEntity
  8
TEXT
100
AcDbLine
 10
0.05169389066391
 20
0.0689487918561831
 30
0.0
 11
-0.0069364303680279
 21
0.1698207879693037
 31
0.0
  0
LINE
  5
4CC
330
18
100
AcDbEntity
  8
TEXT
100
AcDbLine
 10
-0.0787353965119353
 20
0.1698207879693037
 30
0.0
 11
-0.0787353965119353
 21
0.2042087055634418
 31
0.0
  0
LINE
  5
4CD
330
18
100
AcDbEntity
  8
TEXT
100
AcDbLine
 10
-0.0787353965119353
 20
0.2042087055634418
 30
0.0
 11
-0.1387780013559423
 21
0.2042087055634418
 31
0.0
  0
LINE
  5
4CE
330
18
100
AcDbEntity
  8
TEXT
100
AcDbLine
 10
-0.1387780013559423
 20
0.2042087055634418
 30
0.0
 11
-0.1387780013559423
 21
0.1698207879693037
 31
0.0
  0
LINE
  5
4CF
330
18
100
AcDbEntity
  8
TEXT
100
AcDbLine
 10
-0.0069364303680279
 20
0.1698207879693037
 30
0.0
 11
-0.0787353965119353
 21
0.1698207879693037
 31
0.0
  0
ARC
  5
4D0
330
18
100
AcDbEntity
  8
TEXT
100
AcDbCircle
 10
0.0080500937547416
 20
-0.0571045227455116
 30
0.0
 40
0.0392772371940762
100
AcDbArc
 50
270.1604552698595
 51
330.0831797321295
  0
ARC
  5
4D1
330
18
100
AcDbEntity
  8
TEXT
100
AcDbCircle
 10
-0.0822507521374831
 20
-0.0368598536811575
 30
0.0
 40
0.0601160179737537
100
AcDbArc
 50
180.0000000000003
 51
264.0521544866073
  0
LINE
  5
4D2
330
18
100
AcDbEntity
  8
TEXT
100
AcDbLine
 10
-0.0884801626311296
 20
-0.0966522450192073
 30
0.0
 11
0.0081600884438648
 21
-0.0963816059209251
 31
0.0
  0
LWPOLYLINE
  5
4D3
330
18
100
AcDbEntity
  8
TEXT
100
AcDbPolyline
 90
        6
 70
     1
 43
0.0
 10
-0.04595635905598
 20
0.1055440933125382
 10
-0.0762729532761881
 20
0.1055440933125382
 10
-0.0762729532761881
 20
-0.0175669047423561
 42
0.407328721240804
 10
-0.0647293021147117
 20
-0.0293858194187422
 10
-0.0041076030699809
 20
-0.0293858194187422
 10
0.013357737337337
 20
0.0034264096247369
  0
LINE
  5
4D4
330
18
100
AcDbEntity
  8
TEXT
100
AcDbLine
 10
-0.1423667701112352
 20
0.1055440933125382
 30
0.0
 11
-0.1423667701112352
 21
-0.0368598536811575
 31
0.0
  0
LINE
  5
4D5
330
18
100
AcDbEntity
  8
TEXT
100
AcDbLine
 10
0.0420936536669556
 20
-0.0766937389141944
 30
0.0
 11
0.1393933597604002
 21
0.0876564720210738
 31
0.0
  0
LINE
  5
4D6
330
18
100
AcDbEntity
  8
TEXT
100
AcDbLine
 10
0.1393933597604002
 20
0.0876564720210738
 30
0.0
 11
0.1393933597604002
 21
-0.0451009028042826
 31
0.0
  0
LWPOLYLINE
  5
4D7
330
18
100
AcDbEntity
  8
TEXT
100
AcDbPolyline
 90
        2
 70
     0
 43
0.0
 10
0.1393933597603993
 20
-0.045100902804279
 42
0.3318488747599744
 10
0.2085126523257124
 20
-0.0966522450192073
 42
-6.868794160588311
  0
LINE
  5
4D8
330
18
100
AcDbEntity
  8
TEXT
100
AcDbLine
 10
0.2073730788295167
 20
0.2378322657081142
 30
0.0
 11
0.1405643662631517
 21
0.2378322657081142
 31
0.0
  0
LWPOLYLINE
  5
4D9
330
18
100
AcDbEntity
  8
TEXT
100
AcDbPolyline
 90
        4
 70
     0
 43
0.0
 10
0.49265048788331
 20
0.0979903041464283
 10
0.49265048788331
 20
-0.0966522450192073
 10
0.5611287711711679
 20
-0.0966522450192073
 10
0.5611287711711679
 20
-0.0531613000687692
 42
-1.714843617202739
  0
LWPOLYLINE
  5
4DA
330
18
100
AcDbEntity
  8
TEXT
100
AcDbPolyline
 90
        2
 70
     0
 43
0.0
 10
0.5277848384275199
 20
0.1698207879693072
 42
-0.3277054968067132
 10
0.5635665291406849
 20
0.1414982421996633
 42
6.667889725900311
  0
TEXT
  5
4DB
330
18
100
AcDbEntity
  8
TEXT
100
AcDbText
 10
1.310130802954077
 20
-0.0037664363737111
 30
0.0
 40
0.0522247191011236
  1
Minneapolis, MN 55432-0008
 41
1.11444212721585
 72
     5
 11
2.639063387223741
 21
-0.0037664363737111
 31
0.0
100
AcDbText
  0
TEXT
  5
4DC
330
18
100
AcDbEntity
  8
TEXT
100
AcDbText
 10
1.310130802954077
 20
0.0894919905925811
 30
0.0
 40
0.0522247191011236
  1
6536 Main St. N.E. * P.O. Box 32008
 41
0.8388932496075353
 72
     5
 11
2.639063387223741
 21
0.0894919905925811
 31
0.0
100
AcDbText
  0
TEXT
  5
4DD
330
18
100
AcDbEntity
  8
TEXT
100
AcDbText
 10
1.310130802954077
 20
0.1827504175588732
 30
0.0
 40
0.0522247191011236
  1
Stylmark  Incorporated
 41
1.221428571428571
 72
     5
 11
2.639063387223741
 21
0.1827504175588732
 31
0.0
100
AcDbText
  0
TEXT
  5
4DE
330
18
100
AcDbEntity
  8
TEXT
100
AcDbText
 10
1.310130802954077
 20
-0.0970248633400033
 30
0.0
 40
0.0522247191011236
  1
Phone  1-800-328-2495
 41
1.272321428571429
 72
     5
 11
2.639063387223741
 21
-0.0970248633400033
 31
0.0
100
AcDbText
  0
LINE
  5
4DF
330
18
100
AcDbEntity
  8
TEXT
100
AcDbLine
 10
-0.2436722878959046
 20
0.0697393717019104
 30
0.0
 11
-0.3092724241402056
 21
0.0697393717019104
 31
0.0
  0
ARC
  5
4E0
330
18
100
AcDbEntity
  8
TEXT
100
AcDbCircle
 10
-0.3092724241402056
 20
0.0876417325072261
 30
0.0
 40
0.017902360805315
100
AcDbArc
 50
90.0
 51
270.0
  0
LINE
  5
4E1
330
18
100
AcDbEntity
  8
TEXT
100
AcDbLine
 10
-0.3145097542544537
 20
0.0056458690762966
 30
0.0
 11
-0.2387319139896249
 21
0.0056458690762966
 31
0.0
  0
LINE
  5
4E2
330
18
100
AcDbEntity
  8
TEXT
100
AcDbLine
 10
-0.2387319139896249
 20
-0.028295238685768
 30
0.0
 11
-0.396597213700959
 21
-0.028295238685768
 31
0.0
  0
LINE
  5
4E3
330
18
100
AcDbEntity
  8
TEXT
100
AcDbLine
 10
-0.3965972137009572
 20
-0.0966522450192073
 30
0.0
 11
-0.2436722878959046
 21
-0.0966522450192073
 31
0.0
  0
ARC
  5
4E4
330
18
100
AcDbEntity
  8
TEXT
100
AcDbCircle
 10
-0.3145097542544537
 20
0.0877333285228019
 30
0.0
 40
0.0820874594465043
100
AcDbArc
 50
90.0
 51
270.0
  0
LINE
  5
4E5
330
18
100
AcDbEntity
  8
TEXT
100
AcDbLine
 10
-0.1387780013559423
 20
0.1698207879693037
 30
0.0
 11
-0.3145097542544537
 21
0.1698207879693037
 31
0.0
  0
ARC
  5
4E6
330
18
100
AcDbEntity
  8
TEXT
100
AcDbCircle
 10
-0.2387319139896249
 20
-0.0113246848047339
 30
0.0
 40
0.0169705538810321
100
AcDbArc
 50
270.0
 51
90.0
  0
ARC
  5
4E7
330
18
100
AcDbEntity
  8
TEXT
100
AcDbCircle
 10
-0.2436722878959046
 20
-0.0134564366586503
 30
0.0
 40
0.0831958083605586
100
AcDbArc
 50
270.0
 51
90.0
  0
LINE
  5
4E8
330
18
100
AcDbEntity
  8
TEXT
100
AcDbLine
 10
-0.3092724241402056
 20
0.1055440933125382
 30
0.0
 11
-0.1423667701112352
 21
0.1055440933125382
 31
0.0
  0
LWPOLYLINE
  5
4E9
330
18
100
AcDbEntity
  8
TEXT
100
AcDbPolyline
 90
        2
 70
     0
 43
0.0006660908203125
 10
-0.6060301938007325
 20
0.0565853485161796
 10
-0.5793865609882314
 20
0.0565853485161796
  0
LINE
  5
4EA
330
18
100
AcDbEntity
  8
TEXT
100
AcDbLine
 10
-0.396597213700959
 20
-0.028295238685768
 30
0.0
 11
-0.3965972137009572
 21
-0.0966522450192073
 31
0.0
  0
LWPOLYLINE
  5
4EB
330
18
100
AcDbEntity
  8
TEXT
100
AcDbPolyline
 90
        2
 70
     0
 43
0.0006660908203125
 10
-0.6060301938007325
 20
0.0166198992974316
 10
-0.5793865609882314
 20
0.0166198992974316
  0
LWPOLYLINE
  5
4EC
330
18
100
AcDbEntity
  8
TEXT
100
AcDbPolyline
 90
        2
 70
     0
 43
0.0001332181640625
 10
-0.6926220004413573
 20
0.1698207879693072
 10
-0.7026133627460461
 20
0.0965507977349276
  0
LWPOLYLINE
  5
4ED
330
18
100
AcDbEntity
  8
TEXT
100
AcDbPolyline
 90
        2
 70
     0
 43
0.0001332181640625
 10
-0.6926220004413573
 20
0.1431771551568062
 10
-0.7026133627460461
 20
0.0832289813286806
  0
LWPOLYLINE
  5
4EE
330
18
100
AcDbEntity
  8
TEXT
100
AcDbPolyline
 90
        2
 70
     0
 43
0.0006660908203125
 10
-0.6926220004413573
 20
0.1431771551568062
 10
-0.6926220004413573
 20
0.1698207879693072
  0
LWPOLYLINE
  5
4EF
330
18
100
AcDbEntity
  8
TEXT
100
AcDbPolyline
 90
        5
 70
     0
 43
0.0001332181640625
 10
-0.7026133627460461
 20
0.0965507977349276
 10
-0.7026133627460461
 20
0.0832289813286806
 10
-0.6659783676288562
 20
0.0832289813286806
 10
-0.6659783676288562
 20
0.0465939862114908
 10
-0.6526565512226075
 20
0.0465939862114908
  0
LWPOLYLINE
  5
4F0
330
18
100
AcDbEntity
  8
TEXT
100
AcDbPolyline
 90
        2
 70
     0
 43
0.0001332181640625
 10
-0.7325874496601088
 20
0.1431771551568062
 10
-0.7225960873554183
 20
0.0832289813286806
  0
LWPOLYLINE
  5
4F1
330
18
100
AcDbEntity
  8
TEXT
100
AcDbPolyline
 90
        2
 70
     0
 43
0.0001332181640625
 10
-0.7225960873554183
 20
0.0965507977349276
 10
-0.7325874496601088
 20
0.1698207879693072
  0
LWPOLYLINE
  5
4F2
330
18
100
AcDbEntity
  8
TEXT
100
AcDbPolyline
 90
        2
 70
     0
 43
0.0006660908203125
 10
-0.7325874496601088
 20
0.1431771551568062
 10
-0.7325874496601088
 20
0.1698207879693072
  0
LWPOLYLINE
  5
4F3
330
18
100
AcDbEntity
  8
TEXT
100
AcDbPolyline
 90
        5
 70
     0
 43
0.0001332181640625
 10
-0.7725528988788568
 20
0.0465939862114908
 10
-0.7592310824726081
 20
0.0465939862114908
 10
-0.7592310824726081
 20
0.0832289813286806
 10
-0.7225960873554183
 20
0.0832289813286806
 10
-0.7225960873554183
 20
0.0965507977349276
  0
LWPOLYLINE
  5
4F4
330
18
100
AcDbEntity
  8
TEXT
100
AcDbPolyline
 90
        2
 70
     0
 43
0.0006660908203125
 10
-0.8191792563007336
 20
0.0565853485161796
 10
-0.8458228891132311
 20
0.0565853485161796
  0
LWPOLYLINE
  5
4F5
330
18
100
AcDbEntity
  8
TEXT
100
AcDbPolyline
 90
        2
 70
     0
 43
0.0001332181640625
 10
-0.8458228891132311
 20
0.0565853485161796
 10
-0.7725528988788568
 20
0.0465939862114908
  0
LWPOLYLINE
  5
4F6
330
18
100
AcDbEntity
  8
TEXT
100
AcDbPolyline
 90
        2
 70
     0
 43
0.0001332181640625
 10
-0.8191792563007336
 20
0.0565853485161796
 10
-0.7592310824726081
 20
0.0465939862114908
  0
LWPOLYLINE
  5
4F7
330
18
100
AcDbEntity
  8
TEXT
100
AcDbPolyline
 90
        2
 70
     0
 43
0.0001332181640625
 10
-0.8191792563007336
 20
0.1431771551568062
 10
-0.7592310824726081
 20
0.0832289813286806
  0
LWPOLYLINE
  5
4F8
330
18
100
AcDbEntity
  8
TEXT
100
AcDbPolyline
 90
        3
 70
     0
 43
0.0006660908203125
 10
-0.7325874496601088
 20
0.1431771551568062
 10
-0.8191792563007336
 20
0.1431771551568062
 10
-0.8191792563007336
 20
0.0565853485161796
  0
LWPOLYLINE
  5
4F9
330
18
100
AcDbEntity
  8
TEXT
100
AcDbPolyline
 90
        3
 70
     0
 43
0.0006660908203125
 10
-0.7325874496601088
 20
0.1698207879693072
 10
-0.8458228891132311
 20
0.1698207879693072
 10
-0.8458228891132311
 20
0.0565853485161796
  0
LWPOLYLINE
  5
4FA
330
18
100
AcDbEntity
  8
TEXT
100
AcDbPolyline
 90
        5
 70
     0
 43
0.0001332181640625
 10
-0.6526565512226075
 20
0.0266112616021168
 10
-0.6659783676288562
 20
0.0266112616021168
 10
-0.6659783676288562
 20
-0.0100237335150695
 10
-0.7026133627460461
 20
-0.0100237335150695
 10
-0.7026133627460461
 20
-0.02334554992132
  0
LWPOLYLINE
  5
4FB
330
18
100
AcDbEntity
  8
TEXT
100
AcDbPolyline
 90
        2
 70
     0
 43
0.0006660908203125
 10
-0.6926220004413573
 20
-0.069971907343195
 10
-0.6926220004413573
 20
-0.0966155401556961
  0
LWPOLYLINE
  5
4FC
330
18
100
AcDbEntity
  8
TEXT
100
AcDbPolyline
 90
        2
 70
     0
 43
0.0001332181640625
 10
-0.7026133627460461
 20
-0.02334554992132
 10
-0.6926220004413573
 20
-0.0966155401556961
  0
LWPOLYLINE
  5
4FD
330
18
100
AcDbEntity
  8
TEXT
100
AcDbPolyline
 90
        2
 70
     0
 43
0.0001332181640625
 10
-0.6926220004413573
 20
-0.069971907343195
 10
-0.7026133627460461
 20
-0.0100237335150695
  0
LWPOLYLINE
  5
4FE
330
18
100
AcDbEntity
  8
TEXT
100
AcDbPolyline
 90
        2
 70
     0
 43
0.0001332181640625
 10
-0.7325874496601088
 20
-0.0966155401556961
 10
-0.7225960873554183
 20
-0.02334554992132
  0
LWPOLYLINE
  5
4FF
330
18
100
AcDbEntity
  8
TEXT
100
AcDbPolyline
 90
        2
 70
     0
 43
0.0001332181640625
 10
-0.7325874496601088
 20
-0.069971907343195
 10
-0.7225960873554183
 20
-0.0100237335150695
  0
LWPOLYLINE
  5
500
330
18
100
AcDbEntity
  8
TEXT
100
AcDbPolyline
 90
        2
 70
     0
 43
0.0006660908203125
 10
-0.7325874496601088
 20
-0.069971907343195
 10
-0.7325874496601088
 20
-0.0966155401556961
  0
LWPOLYLINE
  5
501
330
18
100
AcDbEntity
  8
TEXT
100
AcDbPolyline
 90
        5
 70
     0
 43
0.0001332181640625
 10
-0.7225960873554183
 20
-0.02334554992132
 10
-0.7225960873554183
 20
-0.0100237335150695
 10
-0.7592310824726063
 20
-0.0100237335150695
 10
-0.7592310824726063
 20
0.0266112616021168
 10
-0.7725528988788568
 20
0.0266112616021168
  0
LWPOLYLINE
  5
502
330
18
100
AcDbEntity
  8
TEXT
100
AcDbPolyline
 90
        2
 70
     0
 43
0.0006660908203125
 10
-0.8191792563007336
 20
0.0166198992974316
 10
-0.8458228891132311
 20
0.0166198992974316
  0
LWPOLYLINE
  5
503
330
18
100
AcDbEntity
  8
TEXT
100
AcDbPolyline
 90
        2
 70
     0
 43
0.0001332181640625
 10
-0.8191792563007336
 20
-0.069971907343195
 10
-0.7592310824726063
 20
-0.0100237335150695
  0
LWPOLYLINE
  5
504
330
18
100
AcDbEntity
  8
TEXT
100
AcDbPolyline
 90
        2
 70
     0
 43
0.0001332181640625
 10
-0.8191792563007336
 20
0.0166198992974316
 10
-0.7592310824726063
 20
0.0266112616021168
  0
LWPOLYLINE
  5
505
330
18
100
AcDbEntity
  8
TEXT
100
AcDbPolyline
 90
        2
 70
     0
 43
0.0001332181640625
 10
-0.7725528988788568
 20
0.0266112616021168
 10
-0.8458228891132311
 20
0.0166198992974316
  0
LWPOLYLINE
  5
506
330
18
100
AcDbEntity
  8
TEXT
100
AcDbPolyline
 90
        3
 70
     0
 43
0.0006660908203125
 10
-0.8191792563007336
 20
0.0166198992974316
 10
-0.8191792563007336
 20
-0.069971907343195
 10
-0.7325874496601088
 20
-0.069971907343195
  0
LWPOLYLINE
  5
507
330
18
100
AcDbEntity
  8
TEXT
100
AcDbPolyline
 90
        3
 70
     0
 43
0.0006660908203125
 10
-0.8458228891132311
 20
0.0166198992974316
 10
-0.8458228891132311
 20
-0.0966155401556961
 10
-0.7325874496601088
 20
-0.0966155401556961
  0
LWPOLYLINE
  5
508
330
18
100
AcDbEntity
  8
TEXT
100
AcDbPolyline
 90
        3
 70
     0
 43
0.0006660908203125
 10
-0.6926220004413573
 20
-0.0966155401556961
 10
-0.5793865609882314
 20
-0.0966155401556961
 10
-0.5793865609882314
 20
0.0166198992974316
  0
LWPOLYLINE
  5
509
330
18
100
AcDbEntity
  8
TEXT
100
AcDbPolyline
 90
        3
 70
     0
 43
0.0006660908203125
 10
-0.6926220004413573
 20
-0.069971907343195
 10
-0.6060301938007325
 20
-0.069971907343195
 10
-0.6060301938007325
 20
0.0166198992974316
  0
LWPOLYLINE
  5
50A
330
18
100
AcDbEntity
  8
TEXT
100
AcDbPolyline
 90
        2
 70
     0
 43
0.0001332181640625
 10
-0.6060301938007325
 20
-0.069971907343195
 10
-0.6659783676288562
 20
-0.0100237335150695
  0
LWPOLYLINE
  5
50B
330
18
100
AcDbEntity
  8
TEXT
100
AcDbPolyline
 90
        2
 70
     0
 43
0.0001332181640625
 10
-0.6060301938007325
 20
0.0166198992974316
 10
-0.6659783676288562
 20
0.0266112616021168
  0
LWPOLYLINE
  5
50C
330
18
100
AcDbEntity
  8
TEXT
100
AcDbPolyline
 90
        2
 70
     0
 43
0.0001332181640625
 10
-0.5793865609882314
 20
0.0166198992974316
 10
-0.6526565512226075
 20
0.0266112616021168
  0
LWPOLYLINE
  5
50D
330
18
100
AcDbEntity
  8
TEXT
100
AcDbPolyline
 90
        2
 70
     0
 43
0.0001332181640625
 10
-0.6060301938007325
 20
0.1431771551568062
 10
-0.6659783676288562
 20
0.0832289813286806
  0
LWPOLYLINE
  5
50E
330
18
100
AcDbEntity
  8
TEXT
100
AcDbPolyline
 90
        2
 70
     0
 43
0.0001332181640625
 10
-0.6060301938007325
 20
0.0565853485161796
 10
-0.6659783676288562
 20
0.0465939862114908
  0
LWPOLYLINE
  5
50F
330
18
100
AcDbEntity
  8
TEXT
100
AcDbPolyline
 90
        2
 70
     0
 43
0.0001332181640625
 10
-0.6526565512226075
 20
0.0465939862114908
 10
-0.5793865609882314
 20
0.0565853485161796
  0
LWPOLYLINE
  5
510
330
18
100
AcDbEntity
  8
TEXT
100
AcDbPolyline
 90
        3
 70
     0
 43
0.0006660908203125
 10
-0.6060301938007325
 20
0.0565853485161796
 10
-0.6060301938007325
 20
0.1431771551568062
 10
-0.6926220004413573
 20
0.1431771551568062
  0
LWPOLYLINE
  5
511
330
18
100
AcDbEntity
  8
TEXT
100
AcDbPolyline
 90
        3
 70
     0
 43
0.0006660908203125
 10
-0.5793865609882314
 20
0.0565853485161796
 10
-0.5793865609882314
 20
0.1698207879693072
 10
-0.6926220004413573
 20
0.1698207879693072
  0
ENDSEC
  0
SECTION
  2
OBJECTS
  0
DICTIONARY
  5
C
330
0
100
AcDbDictionary
  3
ACAD_GROUP
350
D
  3
ACAD_LAYOUT
350
516
  3
ACAD_MLINESTYLE
350
E
  3
ACAD_PLOTSETTINGS
350
517
  3
ACAD_PLOTSTYLENAME
350
514
  3
ACDBHEADERROUNDTRIPXREC
350
522
  3
ACDBVARIABLEDICTIONARY
350
51F
  0
DICTIONARY
  5
544
330
18
100
AcDbDictionary
280
     1
  3
ACAD_LAYOUTSELFREF
360
545
  0
DICTIONARY
  5
542
330
15
100
AcDbDictionary
280
     1
  3
ACAD_LAYOUTSELFREF
360
543
  0
DICTIONARY
  5
D
102
{ACAD_REACTORS
330
C
102
}
330
C
100
AcDbDictionary
  0
DICTIONARY
  5
516
102
{ACAD_REACTORS
330
C
102
}
330
C
100
AcDbDictionary
  0
DICTIONARY
  5
E
102
{ACAD_REACTORS
330
C
102
}
330
C
100
AcDbDictionary
  3
STANDARD
350
1B
  0
DICTIONARY
  5
517
102
{ACAD_REACTORS
330
C
102
}
330
C
100
AcDbDictionary
  0
ACDBDICTIONARYWDFLT
  5
514
102
{ACAD_REACTORS
330
C
102
}
330
C
100
AcDbDictionary
281
     1
  3
Normal
350
515
100
AcDbDictionaryWithDefault
340
515
  0
DICTIONARY
  5
522
102
{ACAD_REACTORS
330
C
102
}
330
C
100
AcDbDictionary
  3
CEPSNTYPE
350
52C
  3
FINGERPRINTGUID
350
52D
  3
HYPERLINKBASE
350
525
  3
INSUNITS
350
52B
  3
LAYOUTDICT
350
527
  3
LWETCUNION
350
52A
  3
PLOTSETDICT
350
528
  3
PLOTSTYLNAMDICT
350
529
  3
PSVPSCALE
350
52F
  3
PUCSBASE
350
532
  3
PUCSORGBACK
350
538
  3
PUCSORGBOTTOM
350
534
  3
PUCSORGFRONT
350
537
  3
PUCSORGLEFT
350
535
  3
PUCSORGRIGHT
350
536
  3
PUCSORGTOP
350
533
  3
PUCSORTHOREF
350
530
  3
PUCSORTHOVIEW
350
531
  3
STYLESHEET
350
526
  3
TSTACKALIGN
350
523
  3
TSTACKSIZE
350
524
  3
UCSBASE
350
53B
  3
UCSORGBACK
350
541
  3
UCSORGBOTTOM
350
53D
  3
UCSORGFRONT
350
540
  3
UCSORGLEFT
350
53E
  3
UCSORGRIGHT
350
53F
  3
UCSORGTOP
350
53C
  3
UCSORTHOREF
350
539
  3
UCSORTHOVIEW
350
53A
  3
VERSIONGUID
350
52E
  0
DICTIONARY
  5
51F
102
{ACAD_REACTORS
330
C
102
}
330
C
100
AcDbDictionary
  3
DIMASSOC
350
520
  0
XRECORD
  5
545
102
{ACAD_REACTORS
330
544
102
}
330
544
100
AcDbXrecord
340
18
  0
XRECORD
  5
543
102
{ACAD_REACTORS
330
542
102
}
330
542
100
AcDbXrecord
340
15
  0
MLINESTYLE
  5
1B
102
{ACAD_REACTORS
330
E
102
}
330
E
100
AcDbMlineStyle
  2
STANDARD
 70
     0
  3

 62
     0
 51
90.0
 52
90.0
 71
     2
 49
0.5
 62
   256
  6
BYLAYER
 49
-0.5
 62
   256
  6
BYLAYER
  0
ACDBPLACEHOLDER
  5
515
102
{ACAD_REACTORS
330
514
102
}
330
514
100
AcDbPlaceHolder
280
     0
  0
XRECORD
  5
52C
102
{ACAD_REACTORS
330
522
102
}
330
522
100
AcDbXrecord
 90
        0
  0
XRECORD
  5
52D
102
{ACAD_REACTORS
330
522
102
}
330
522
100
AcDbXrecord
  1
{80DCC450-8DB4-11D6-88E6-0090279574E7}
  0
XRECORD
  5
525
102
{ACAD_REACTORS
330
522
102
}
330
522
100
AcDbXrecord
  1

  0
XRECORD
  5
52B
102
{ACAD_REACTORS
330
522
102
}
330
522
100
AcDbXrecord
 90
        0
  0
XRECORD
  5
527
102
{ACAD_REACTORS
330
522
102
}
330
522
100
AcDbXrecord
340
516
  0
XRECORD
  5
52A
102
{ACAD_REACTORS
330
522
102
}
330
522
100
AcDbXrecord
 90
    14877
  0
XRECORD
  5
528
102
{ACAD_REACTORS
330
522
102
}
330
522
100
AcDbXrecord
340
517
  0
XRECORD
  5
529
102
{ACAD_REACTORS
330
522
102
}
330
522
100
AcDbXrecord
340
514
  0
XRECORD
  5
52F
102
{ACAD_REACTORS
330
522
102
}
330
522
100
AcDbXrecord
 40
0.0
  0
XRECORD
  5
532
102
{ACAD_REACTORS
330
522
102
}
330
522
100
AcDbXrecord
340
0
  0
XRECORD
  5
538
102
{ACAD_REACTORS
330
522
102
}
330
522
100
AcDbXrecord
 10
0.0
 20
0.0
 30
0.0
  0
XRECORD
  5
534
102
{ACAD_REACTORS
330
522
102
}
330
522
100
AcDbXrecord
 10
0.0
 20
0.0
 30
0.0
  0
XRECORD
  5
537
102
{ACAD_REACTORS
330
522
102
}
330
522
100
AcDbXrecord
 10
0.0
 20
0.0
 30
0.0
  0
XRECORD
  5
535
102
{ACAD_REACTORS
330
522
102
}
330
522
100
AcDbXrecord
 10
0.0
 20
0.0
 30
0.0
  0
XRECORD
  5
536
102
{ACAD_REACTORS
330
522
102
}
330
522
100
AcDbXrecord
 10
0.0
 20
0.0
 30
0.0
  0
XRECORD
  5
533
102
{ACAD_REACTORS
330
522
102
}
330
522
100
AcDbXrecord
 10
0.0
 20
0.0
 30
0.0
  0
XRECORD
  5
530
102
{ACAD_REACTORS
330
522
102
}
330
522
100
AcDbXrecord
340
0
  0
XRECORD
  5
531
102
{ACAD_REACTORS
330
522
102
}
330
522
100
AcDbXrecord
 70
     0
  0
XRECORD
  5
526
102
{ACAD_REACTORS
330
522
102
}
330
522
100
AcDbXrecord
  1

  0
XRECORD
  5
523
102
{ACAD_REACTORS
330
522
102
}
330
522
100
AcDbXrecord
 90
        1
  0
XRECORD
  5
524
102
{ACAD_REACTORS
330
522
102
}
330
522
100
AcDbXrecord
 90
       70
  0
XRECORD
  5
53B
102
{ACAD_REACTORS
330
522
102
}
330
522
100
AcDbXrecord
340
0
  0
XRECORD
  5
541
102
{ACAD_REACTORS
330
522
102
}
330
522
100
AcDbXrecord
 10
0.0
 20
0.0
 30
0.0
  0
XRECORD
  5
53D
102
{ACAD_REACTORS
330
522
102
}
330
522
100
AcDbXrecord
 10
0.0
 20
0.0
 30
0.0
  0
XRECORD
  5
540
102
{ACAD_REACTORS
330
522
102
}
330
522
100
AcDbXrecord
 10
0.0
 20
0.0
 30
0.0
  0
XRECORD
  5
53E
102
{ACAD_REACTORS
330
522
102
}
330
522
100
AcDbXrecord
 10
0.0
 20
0.0
 30
0.0
  0
XRECORD
  5
53F
102
{ACAD_REACTORS
330
522
102
}
330
522
100
AcDbXrecord
 10
0.0
 20
0.0
 30
0.0
  0
XRECORD
  5
53C
102
{ACAD_REACTORS
330
522
102
}
330
522
100
AcDbXrecord
 10
0.0
 20
0.0
 30
0.0
  0
XRECORD
  5
539
102
{ACAD_REACTORS
330
522
102
}
330
522
100
AcDbXrecord
340
0
  0
XRECORD
  5
53A
102
{ACAD_REACTORS
330
522
102
}
330
522
100
AcDbXrecord
 70
     0
  0
XRECORD
  5
52E
102
{ACAD_REACTORS
330
522
102
}
330
522
100
AcDbXrecord
  1
{80DCC452-8DB4-11D6-88E6-0090279574E7}
  0
DICTIONARYVAR
  5
520
102
{ACAD_REACTORS
330
51F
102
}
330
51F
100
DictionaryVariables
280
     0
  1
1
  0
ENDSEC
  0
EOF
