  0
SECTION
  2
HEADER
  9
$ACADVER
  1
AC1014
  9
$ACADMAINTVER
 70
     9
  9
$DWGCODEPAGE
  3
ANSI_1252
  9
$INSBASE
 10
2.506874999999999
 20
1.826249999999999
 30
0.0
  9
$EXTMIN
 10
0.7638934207728568
 20
0.6338563959174185
 30
0.0
  9
$EXTMAX
 10
4.249112742519985
 20
2.912339170810909
 30
0.0
  9
$LIMMIN
 10
0.0
 20
0.0
  9
$LIMMAX
 10
18.0
 20
12.0
  9
$ORTHOMODE
 70
     1
  9
$REGENMODE
 70
     1
  9
$FILLMODE
 70
     1
  9
$QTEXTMODE
 70
     0
  9
$MIRRTEXT
 70
     0
  9
$DRAGMODE
 70
     2
  9
$LTSCALE
 40
1.0
  9
$OSMODE
 70
    39
  9
$ATTMODE
 70
     1
  9
$TEXTSIZE
 40
0.125
  9
$TRACEWID
 40
0.05
  9
$TEXTSTYLE
  7
ROMANS
  9
$CLAYER
  8
0
  9
$CELTYPE
  6
BYLAYER
  9
$CECOLOR
 62
   256
  9
$CELTSCALE
 40
1.0
  9
$DELOBJ
 70
     1
  9
$DISPSILH
 70
     1
  9
$DIMSCALE
 40
1.0
  9
$DIMASZ
 40
0.125
  9
$DIMEXO
 40
0.125
  9
$DIMDLI
 40
0.375
  9
$DIMRND
 40
0.0
  9
$DIMDLE
 40
0.0
  9
$DIMEXE
 40
0.125
  9
$DIMTP
 40
0.0
  9
$DIMTM
 40
0.0
  9
$DIMTXT
 40
0.125
  9
$DIMCEN
 40
-0.125
  9
$DIMTSZ
 40
0.0
  9
$DIMTOL
 70
     0
  9
$DIMLIM
 70
     0
  9
$DIMTIH
 70
     1
  9
$DIMTOH
 70
     1
  9
$DIMSE1
 70
     0
  9
$DIMSE2
 70
     0
  9
$DIMTAD
 70
     0
  9
$DIMZIN
 70
     4
  9
$DIMBLK
  1

  9
$DIMASO
 70
     1
  9
$DIMSHO
 70
     1
  9
$DIMPOST
  1

  9
$DIMAPOST
  1

  9
$DIMALT
 70
     0
  9
$DIMALTD
 70
     2
  9
$DIMALTF
 40
25.4
  9
$DIMLFAC
 40
1.0
  9
$DIMTOFL
 70
     0
  9
$DIMTVP
 40
0.0
  9
$DIMTIX
 70
     1
  9
$DIMSOXD
 70
     0
  9
$DIMSAH
 70
     0
  9
$DIMBLK1
  1

  9
$DIMBLK2
  1

  9
$DIMSTYLE
  2
STANDARD
  9
$DIMCLRD
 70
     0
  9
$DIMCLRE
 70
     0
  9
$DIMCLRT
 70
     0
  9
$DIMTFAC
 40
1.0
  9
$DIMGAP
 40
0.09
  9
$DIMJUST
 70
     0
  9
$DIMSD1
 70
     0
  9
$DIMSD2
 70
     0
  9
$DIMTOLJ
 70
     1
  9
$DIMTZIN
 70
     4
  9
$DIMALTZ
 70
     0
  9
$DIMALTTZ
 70
     0
  9
$DIMFIT
 70
     3
  9
$DIMUPT
 70
     0
  9
$DIMUNIT
 70
     2
  9
$DIMDEC
 70
     3
  9
$DIMTDEC
 70
     3
  9
$DIMALTU
 70
     2
  9
$DIMALTTD
 70
     2
  9
$DIMTXSTY
  7
ROMANS
  9
$DIMAUNIT
 70
     0
  9
$LUNITS
 70
     2
  9
$LUPREC
 70
     3
  9
$SKETCHINC
 40
0.1
  9
$FILLETRAD
 40
0.03125
  9
$AUNITS
 70
     0
  9
$AUPREC
 70
     0
  9
$MENU
  1
ACAD
  9
$ELEVATION
 40
0.0
  9
$PELEVATION
 40
0.0
  9
$THICKNESS
 40
0.0
  9
$LIMCHECK
 70
     0
  9
$BLIPMODE
 70
     0
  9
$CHAMFERA
 40
0.0
  9
$CHAMFERB
 40
0.0
  9
$CHAMFERC
 40
0.0
  9
$CHAMFERD
 40
0.0
  9
$SKPOLY
 70
     0
  9
$TDCREATE
 40
2448994.346983449
  9
$TDUPDATE
 40
2452458.297920601
  9
$TDINDWG
 40
0.0007964815
  9
$TDUSRTIMER
 40
0.0007964815
  9
$USRTIMER
 70
     1
  9
$ANGBASE
 50
0.0
  9
$ANGDIR
 70
     0
  9
$PDMODE
 70
     0
  9
$PDSIZE
 40
0.0
  9
$PLINEWID
 40
0.0
  9
$COORDS
 70
     2
  9
$SPLFRAME
 70
     0
  9
$SPLINETYPE
 70
     6
  9
$SPLINESEGS
 70
     8
  9
$ATTDIA
 70
     0
  9
$ATTREQ
 70
     1
  9
$HANDLING
 70
 22529
  9
$HANDSEED
  5
7DE1B343D9D0C2E
  9
$SURFTAB1
 70
     6
  9
$SURFTAB2
 70
     6
  9
$SURFTYPE
 70
     6
  9
$SURFU
 70
     6
  9
$SURFV
 70
     6
  9
$UCSNAME
  2

  9
$UCSORG
 10
0.0
 20
0.0
 30
0.0
  9
$UCSXDIR
 10
1.0
 20
0.0
 30
0.0
  9
$UCSYDIR
 10
0.0
 20
1.0
 30
0.0
  9
$PUCSNAME
  2

  9
$PUCSORG
 10
0.0
 20
0.0
 30
0.0
  9
$PUCSXDIR
 10
1.0
 20
0.0
 30
0.0
  9
$PUCSYDIR
 10
0.0
 20
1.0
 30
0.0
  9
$USERI1
 70
     0
  9
$USERI2
 70
     0
  9
$USERI3
 70
     0
  9
$USERI4
 70
     0
  9
$USERI5
 70
     0
  9
$USERR1
 40
0.0
  9
$USERR2
 40
0.0
  9
$USERR3
 40
0.0
  9
$USERR4
 40
0.0
  9
$USERR5
 40
0.0
  9
$WORLDVIEW
 70
     1
  9
$SHADEDGE
 70
     3
  9
$SHADEDIF
 70
    70
  9
$TILEMODE
 70
     1
  9
$MAXACTVP
 70
    16
  9
$PINSBASE
 10
0.8317556768353824
 20
50.00000000000001
 30
1.545731704787878
  9
$PLIMCHECK
 70
     0
  9
$PEXTMIN
 10
1.000000000000000E+20
 20
1.000000000000000E+20
 30
1.000000000000000E+20
  9
$PEXTMAX
 10
-1.000000000000000E+20
 20
-1.000000000000000E+20
 30
-1.000000000000000E+20
  9
$PLIMMIN
 10
0.0
 20
0.0
  9
$PLIMMAX
 10
12.0
 20
9.0
  9
$UNITMODE
 70
     0
  9
$VISRETAIN
 70
     0
  9
$PLINEGEN
 70
     1
  9
$PSLTSCALE
 70
     0
  9
$TREEDEPTH
 70
  3020
  9
$PICKSTYLE
 70
     1
  9
$CMLSTYLE
  2
STANDARD
  9
$CMLJUST
 70
     0
  9
$CMLSCALE
 40
1.0
  9
$PROXYGRAPHICS
 70
     1
  9
$MEASUREMENT
 70
     0
  0
ENDSEC
  0
SECTION
  2
CLASSES
  0
CLASS
  1
LWPOLYLINE
  2
AcDbPolyline
  3
AutoCAD 2000
 90
        0
280
     0
281
     1
  0
CLASS
  1
ACDBDICTIONARYWDFLT
  2
AcDbDictionaryWithDefault
  3
AutoCAD 2000
 90
        0
280
     0
281
     0
  0
CLASS
  1
ACDBPLACEHOLDER
  2
AcDbPlaceHolder
  3
AutoCAD 2000
 90
        0
280
     0
281
     0
  0
CLASS
  1
LAYOUT
  2
AcDbLayout
  3
AutoCAD 2000
 90
        0
280
     0
281
     0
  0
CLASS
  1
DICTIONARYVAR
  2
AcDbDictionaryVar
  3
AutoCAD 2000
 90
        0
280
     0
281
     0
  0
CLASS
  1
LONG_TRANSACTION
  2
AcDbLongTransaction
  3
AutoCAD 2000
 90
        0
280
     0
281
     0
  0
CLASS
  1
LWPOLYLINE
  2
AcDbPolyline
  3
AutoCAD 2000
 90
        0
280
     0
281
     1
  0
CLASS
  1
HATCH
  2
AcDbHatch
  3
AutoCAD 2000
 90
        0
280
     0
281
     1
  0
CLASS
  1
XRECORD
  2
AcDbXrecord
  3
AutoCAD 2000
 90
        0
280
     0
281
     0
  0
ENDSEC
  0
SECTION
  2
TABLES
  0
TABLE
  2
VPORT
  5
7DE1B343D9D0BD5
330
0
100
AcDbSymbolTable
 70
     2
  0
VPORT
  5
7DE1B343D9D0C09
330
7DE1B343D9D0BD5
100
AcDbSymbolTableRecord
100
AcDbViewportTableRecord
  2
*ACTIVE
 70
     0
 10
0.0
 20
0.0
 11
1.0
 21
1.0
 12
5.862095206719107
 22
1.773010276925063
 13
0.0
 23
0.0
 14
0.015625
 24
0.015625
 15
0.0
 25
0.0
 16
0.0
 26
0.0
 36
1.0
 17
0.0
 27
0.0
 37
0.0
 40
2.573594677231683
 41
4.320930232558139
 42
50.0
 43
0.0
 44
0.0
 50
0.0
 51
0.0
 71
     0
 72
  2000
 73
     1
 74
     0
 75
     1
 76
     0
 77
     0
 78
     0
  0
ENDTAB
  0
TABLE
  2
LTYPE
  5
7DE1B343D9D0BD2
330
0
100
AcDbSymbolTable
 70
     1
  0
LTYPE
  5
7DE1B343D9D0BDF
330
7DE1B343D9D0BD2
100
AcDbSymbolTableRecord
100
AcDbLinetypeTableRecord
  2
BYBLOCK
 70
     0
  3

 72
    65
 73
     0
 40
0.0
  0
LTYPE
  5
7DE1B343D9D0BE0
330
7DE1B343D9D0BD2
100
AcDbSymbolTableRecord
100
AcDbLinetypeTableRecord
  2
BYLAYER
 70
     0
  3

 72
    65
 73
     0
 40
0.0
  0
LTYPE
  5
7DE1B343D9D0BE1
330
7DE1B343D9D0BD2
100
AcDbSymbolTableRecord
100
AcDbLinetypeTableRecord
  2
CONTINUOUS
 70
     0
  3
Solid line
 72
    65
 73
     0
 40
0.0
  0
ENDTAB
  0
TABLE
  2
LAYER
  5
7DE1B343D9D0BCF
330
0
100
AcDbSymbolTable
 70
     2
  0
LAYER
  5
7DE1B343D9D0BDC
330
7DE1B343D9D0BCF
100
AcDbSymbolTableRecord
100
AcDbLayerTableRecord
  2
0
 70
     0
 62
     7
  6
CONTINUOUS
  0
LAYER
  5
7DE1B343D9D0BEC
330
7DE1B343D9D0BCF
100
AcDbSymbolTableRecord
100
AcDbLayerTableRecord
  2
TEXT
 70
     0
 62
     3
  6
CONTINUOUS
  0
ENDTAB
  0
TABLE
  2
STYLE
  5
7DE1B343D9D0BD0
330
0
100
AcDbSymbolTable
 70
     3
  0
STYLE
  5
7DE1B343D9D0BDD
330
7DE1B343D9D0BD0
100
AcDbSymbolTableRecord
100
AcDbTextStyleTableRecord
  2
STANDARD
 70
     0
 40
0.0
 41
1.0
 50
0.0
 71
     0
 42
0.3125
  3
txt
  4

  0
STYLE
  5
7DE1B343D9D0BE9
330
7DE1B343D9D0BD0
100
AcDbSymbolTableRecord
100
AcDbTextStyleTableRecord
  2
ITALICC
 70
     0
 40
0.0
 41
1.0
 50
0.0
 71
     0
 42
0.125
  3
italicc
  4

  0
STYLE
  5
7DE1B343D9D0BF9
330
7DE1B343D9D0BD0
100
AcDbSymbolTableRecord
100
AcDbTextStyleTableRecord
  2
ROMANS
 70
     0
 40
0.0
 41
1.0
 50
0.0
 71
     0
 42
0.125
  3
romans.shx
  4

  0
ENDTAB
  0
TABLE
  2
VIEW
  5
7DE1B343D9D0BD3
330
0
100
AcDbSymbolTable
 70
     0
  0
ENDTAB
  0
TABLE
  2
UCS
  5
7DE1B343D9D0BD4
330
0
100
AcDbSymbolTable
 70
     0
  0
ENDTAB
  0
TABLE
  2
APPID
  5
7DE1B343D9D0BD6
330
0
100
AcDbSymbolTable
 70
     1
  0
APPID
  5
7DE1B343D9D0BDE
330
7DE1B343D9D0BD6
100
AcDbSymbolTableRecord
100
AcDbRegAppTableRecord
  2
ACAD
 70
     0
  0
ENDTAB
  0
TABLE
  2
DIMSTYLE
  5
7DE1B343D9D0BD7
330
0
100
AcDbSymbolTable
 70
     1
  0
DIMSTYLE
105
7DE1B343D9D0BF1
330
7DE1B343D9D0BD7
100
AcDbSymbolTableRecord
100
AcDbDimStyleTableRecord
  2
STANDARD
 70
     0
  3

  4

  5

  6

  7

 40
1.0
 41
0.125
 42
0.125
 43
0.375
 44
0.125
 45
0.0
 46
0.0
 47
0.0
 48
0.0
140
0.125
141
-0.125
142
0.0
143
25.4
144
1.0
145
0.0
146
1.0
147
0.09
 71
     0
 72
     0
 73
     1
 74
     1
 75
     0
 76
     0
 77
     0
 78
     4
170
     0
171
     2
172
     0
173
     0
174
     1
175
     0
176
     0
177
     0
178
     0
270
     2
271
     3
272
     3
273
     2
274
     2
340
7DE1B343D9D0BF9
275
     0
280
     0
281
     0
282
     0
283
     1
284
     4
285
     0
286
     0
287
     3
288
     0
  0
ENDTAB
  0
TABLE
  2
BLOCK_RECORD
  5
7DE1B343D9D0BCE
330
0
100
AcDbSymbolTable
 70
     0
  0
BLOCK_RECORD
  5
7DE1B343D9D0BE5
102
{ACAD_XDICTIONARY
360
7DE1B343D9D0C2C
102
}
330
7DE1B343D9D0BCE
100
AcDbSymbolTableRecord
100
AcDbBlockTableRecord
  2
*MODEL_SPACE
  0
BLOCK_RECORD
  5
7DE1B343D9D0BE2
102
{ACAD_XDICTIONARY
360
7DE1B343D9D0C2A
102
}
330
7DE1B343D9D0BCE
100
AcDbSymbolTableRecord
100
AcDbBlockTableRecord
  2
*PAPER_SPACE
  0
ENDTAB
  0
ENDSEC
  0
SECTION
  2
BLOCKS
  0
BLOCK
  5
7DE1B343D9D0BEF
330
7DE1B343D9D0BE5
100
AcDbEntity
  8
0
100
AcDbBlockBegin
  2
*MODEL_SPACE
 70
     0
 10
0.0
 20
0.0
 30
0.0
  3
*MODEL_SPACE
  1

  0
ENDBLK
  5
7DE1B343D9D0BF0
330
7DE1B343D9D0BE5
100
AcDbEntity
  8
0
100
AcDbBlockEnd
  0
BLOCK
  5
7DE1B343D9D0BED
330
7DE1B343D9D0BE2
100
AcDbEntity
 67
     1
  8
0
100
AcDbBlockBegin
  2
*PAPER_SPACE
 70
     0
 10
0.0
 20
0.0
 30
0.0
  3
*PAPER_SPACE
  1

  0
ENDBLK
  5
7DE1B343D9D0BEE
330
7DE1B343D9D0BE2
100
AcDbEntity
 67
     1
  8
0
100
AcDbBlockEnd
  0
ENDSEC
  0
SECTION
  2
ENTITIES
  0
LWPOLYLINE
  5
7DE1B343D9CF583
330
7DE1B343D9D0BE5
100
AcDbEntity
  8
0
100
AcDbPolyline
 90
       16
 70
     1
 43
0.0
 10
2.536125
 20
1.77558751387861
 10
2.555949772881118
 20
1.741249999999999
 10
2.656874999999999
 20
1.741249999999999
 10
2.656874999999999
 20
1.43625
 42
0.9862075570774832
 10
2.716863428158149
 20
1.435416827386697
 42
0.0138888888888888
 10
2.716863428158149
 20
2.877083172613303
 42
0.4061013654198259
 10
2.686874999999999
 20
2.90625
 10
2.506874999999999
 20
2.90625
 10
2.326875
 20
2.90625
 42
0.4061013654198259
 10
2.296886571841851
 20
2.877083172613307
 42
0.0138888888888888
 10
2.296886571841852
 20
1.435416827386697
 42
0.9862075570774832
 10
2.356875
 20
1.43625
 10
2.356875
 20
1.741249999999999
 10
2.457800227118881
 20
1.741249999999999
 10
2.477624999999999
 20
1.77558751387861
 42
-0.7673269879789597
 10
2.506874999999999
 20
1.88475
 42
-0.7673269879789597
  0
LWPOLYLINE
  5
7DE1B343D9CF55F
330
7DE1B343D9D0BE5
100
AcDbEntity
  8
0
100
AcDbPolyline
 90
       34
 70
     1
 43
0.0
 10
2.389375
 20
2.296249999999999
 10
2.389375
 20
2.496249999999999
 10
2.356875
 20
2.496249999999999
 10
2.356875
 20
2.64625
 10
2.411875
 20
2.64625
 10
2.411875
 20
2.706249999999999
 10
2.356875
 20
2.70625
 10
2.356875
 20
2.84625
 10
2.496875
 20
2.84625
 10
2.506874999999999
 20
2.85625
 10
2.516874999999999
 20
2.84625
 10
2.656874999999999
 20
2.84625
 10
2.656874999999999
 20
2.70625
 10
2.601874999999999
 20
2.70625
 10
2.601874999999999
 20
2.64625
 10
2.656874999999999
 20
2.64625
 10
2.656874999999999
 20
2.496249999999999
 10
2.624374999999999
 20
2.496249999999999
 10
2.624374999999999
 20
2.296249999999999
 10
2.656874999999999
 20
2.296249999999999
 10
2.656874999999999
 20
2.14625
 10
2.601874999999999
 20
2.14625
 10
2.601874999999999
 20
2.086249999999999
 10
2.656874999999999
 20
2.086249999999999
 10
2.656874999999999
 20
1.916249999999999
 42
-0.7207592200561265
 10
2.602875
 20
1.898249999999999
 42
0.2360679774997897
 10
2.506874999999999
 20
1.94625
 42
0.2360679774997897
 10
2.410874999999999
 20
1.898249999999999
 42
-0.7207592200561265
 10
2.356875
 20
1.916249999999999
 10
2.356875
 20
2.086249999999999
 10
2.411875
 20
2.086249999999999
 10
2.411875
 20
2.14625
 10
2.356875
 20
2.14625
 10
2.356875
 20
2.296249999999999
  0
TEXT
  5
7DE1B343D9D0A90
330
7DE1B343D9D0BE5
100
AcDbEntity
  8
TEXT
100
AcDbText
 10
1.753898809523809
 20
1.091874999999999
 30
0.0
 40
0.125
  1
PART #110153
  7
ITALICC
 72
     1
 11
2.506874999999999
 21
1.091874999999999
 31
0.0
100
AcDbText
  0
TEXT
  5
7DE1B343D9D0A91
330
7DE1B343D9D0BE5
100
AcDbEntity
  8
TEXT
100
AcDbText
 10
2.92018015825032
 20
0.6449523573276248
 30
0.0
 40
0.0522247191011236
  1
Phone  1-800-328-2495
 41
1.272321428571429
 72
     5
 11
4.249112742519984
 21
0.6449523573276248
 31
0.0
100
AcDbText
  0
TEXT
  5
7DE1B343D9D0A92
330
7DE1B343D9D0BE5
100
AcDbEntity
  8
TEXT
100
AcDbText
 10
2.92018015825032
 20
0.9247276382265013
 30
0.0
 40
0.0522247191011236
  1
Stylmark  Incorporated
 41
1.221428571428573
 72
     5
 11
4.249112742519984
 21
0.9247276382265013
 31
0.0
100
AcDbText
  0
TEXT
  5
7DE1B343D9D0A93
330
7DE1B343D9D0BE5
100
AcDbEntity
  8
TEXT
100
AcDbText
 10
2.92018015825032
 20
0.8314692112602092
 30
0.0
 40
0.0522247191011236
  1
6536 Main St. N.E. * P.O. Box 32008
 41
0.8388932496075366
 72
     5
 11
4.249112742519984
 21
0.8314692112602092
 31
0.0
100
AcDbText
  0
TEXT
  5
7DE1B343D9D0A94
330
7DE1B343D9D0BE5
100
AcDbEntity
  8
TEXT
100
AcDbText
 10
2.92018015825032
 20
0.738210784293917
 30
0.0
 40
0.0522247191011236
  1
Minneapolis, MN 55432-0008
 41
1.11444212721585
 72
     5
 11
4.249112742519984
 21
0.738210784293917
 31
0.0
100
AcDbText
  0
LWPOLYLINE
  5
7DE1B343D9D0A95
330
7DE1B343D9D0BE5
100
AcDbEntity
  8
TEXT
100
AcDbPolyline
 90
        3
 70
     0
 43
0.0006660908203125
 10
0.764226466183013
 20
0.7585971199650597
 10
0.764226466183013
 20
0.645361680511932
 10
0.8774619056361352
 20
0.645361680511932
  0
LWPOLYLINE
  5
7DE1B343D9D0A9A
330
7DE1B343D9D0BE5
100
AcDbEntity
  8
TEXT
100
AcDbPolyline
 90
        3
 70
     0
 43
0.0006660908203125
 10
0.7908700989955105
 20
0.7585971199650597
 10
0.7908700989955105
 20
0.6720053133244331
 10
0.8774619056361352
 20
0.6720053133244331
  0
LWPOLYLINE
  5
7DE1B343D9D0A9F
330
7DE1B343D9D0BE5
100
AcDbEntity
  8
TEXT
100
AcDbPolyline
 90
        2
 70
     0
 43
0.0001332181640625
 10
0.8374964564173872
 20
0.7685884822697449
 10
0.764226466183013
 20
0.7585971199650597
  0
LWPOLYLINE
  5
7DE1B343D9D0AA3
330
7DE1B343D9D0BE5
100
AcDbEntity
  8
TEXT
100
AcDbPolyline
 90
        2
 70
     0
 43
0.0001332181640625
 10
0.7908700989955105
 20
0.7585971199650597
 10
0.8508182728236377
 20
0.7685884822697449
  0
LWPOLYLINE
  5
7DE1B343D9D0AA7
330
7DE1B343D9D0BE5
100
AcDbEntity
  8
TEXT
100
AcDbPolyline
 90
        2
 70
     0
 43
0.0001332181640625
 10
0.7908700989955105
 20
0.6720053133244331
 10
0.8508182728236377
 20
0.7319534871525586
  0
LWPOLYLINE
  5
7DE1B343D9D0AAB
330
7DE1B343D9D0BE5
100
AcDbEntity
  8
TEXT
100
AcDbPolyline
 90
        3
 70
     0
 43
0.0006660908203125
 10
0.8774619056361352
 20
0.9117980086369353
 10
0.764226466183013
 20
0.9117980086369353
 10
0.764226466183013
 20
0.7985625691838077
  0
LWPOLYLINE
  5
7DE1B343D9D0AB0
330
7DE1B343D9D0BE5
100
AcDbEntity
  8
TEXT
100
AcDbPolyline
 90
        3
 70
     0
 43
0.0006660908203125
 10
0.8774619056361352
 20
0.8851543758244343
 10
0.7908700989955105
 20
0.8851543758244343
 10
0.7908700989955105
 20
0.7985625691838077
  0
LWPOLYLINE
  5
7DE1B343D9D0AB5
330
7DE1B343D9D0BE5
100
AcDbEntity
  8
TEXT
100
AcDbPolyline
 90
        2
 70
     0
 43
0.0001332181640625
 10
0.7908700989955105
 20
0.8851543758244343
 10
0.8508182728236359
 20
0.8252062019963087
  0
LWPOLYLINE
  5
7DE1B343D9D0AB9
330
7DE1B343D9D0BE5
100
AcDbEntity
  8
TEXT
100
AcDbPolyline
 90
        2
 70
     0
 43
0.0001332181640625
 10
0.7908700989955105
 20
0.7985625691838077
 10
0.8508182728236359
 20
0.7885712068791189
  0
LWPOLYLINE
  5
7DE1B343D9D0ABD
330
7DE1B343D9D0BE5
100
AcDbEntity
  8
TEXT
100
AcDbPolyline
 90
        2
 70
     0
 43
0.0001332181640625
 10
0.764226466183013
 20
0.7985625691838077
 10
0.8374964564173872
 20
0.7885712068791189
  0
LWPOLYLINE
  5
7DE1B343D9D0AC1
330
7DE1B343D9D0BE5
100
AcDbEntity
  8
TEXT
100
AcDbPolyline
 90
        2
 70
     0
 43
0.0006660908203125
 10
0.7908700989955105
 20
0.7585971199650597
 10
0.764226466183013
 20
0.7585971199650597
  0
LWPOLYLINE
  5
7DE1B343D9D0AC5
330
7DE1B343D9D0BE5
100
AcDbEntity
  8
TEXT
100
AcDbPolyline
 90
        2
 70
     0
 43
0.0006660908203125
 10
0.7908700989955105
 20
0.7985625691838077
 10
0.764226466183013
 20
0.7985625691838077
  0
LINE
  5
7DE1B343D9D0AC9
330
7DE1B343D9D0BE5
100
AcDbEntity
  8
TEXT
100
AcDbLine
 10
2.27941689530951
 20
0.8475213139801663
 30
0.0
 11
2.172210621922221
 21
0.8475213139801663
 31
0.0
  0
LINE
  5
7DE1B343D9D0ACA
330
7DE1B343D9D0BE5
100
AcDbEntity
  8
TEXT
100
AcDbLine
 10
2.308447793653988
 20
0.9117980086369318
 30
0.0
 11
2.173615884436929
 21
0.9117980086369318
 31
0.0
  0
ARC
  5
7DE1B343D9D0ACB
330
7DE1B343D9D0BE5
100
AcDbEntity
  8
TEXT
100
AcDbCircle
 10
2.232929980830246
 20
0.7425607593739155
 30
0.0
 40
0.0676855811441166
100
AcDbArc
 50
90.0
 51
153.7768192527749
  0
LWPOLYLINE
  5
7DE1B343D9D0ACC
330
7DE1B343D9D0BE5
100
AcDbEntity
  8
TEXT
100
AcDbPolyline
 90
        2
 70
     0
 43
0.0
 10
2.171178126467411
 20
0.6888159205988589
 42
0.2901071551932823
 10
2.214254059335046
 20
0.6453249756484208
 42
5.328517124445801
  0
ARC
  5
7DE1B343D9D0AD0
330
7DE1B343D9D0BE5
100
AcDbEntity
  8
TEXT
100
AcDbCircle
 10
1.52779860315876
 20
0.7051173669864706
 30
0.0
 40
0.0601160179737537
100
AcDbArc
 50
180.0000000000003
 51
264.0521544866073
  0
LINE
  5
7DE1B343D9D0AD1
330
7DE1B343D9D0BE5
100
AcDbEntity
  8
TEXT
100
AcDbLine
 10
1.531313958784308
 20
0.9461859262310699
 30
0.0
 11
1.471271353940301
 21
0.9461859262310699
 31
0.0
  0
ARC
  5
7DE1B343D9D0AD2
330
7DE1B343D9D0BE5
100
AcDbEntity
  8
TEXT
100
AcDbCircle
 10
1.29553960104179
 20
0.82971054919043
 30
0.0
 40
0.0820874594465043
100
AcDbArc
 50
90.0
 51
270.0
  0
LWPOLYLINE
  5
7DE1B343D9D0AD3
330
7DE1B343D9D0BE5
100
AcDbEntity
  8
TEXT
100
AcDbPolyline
 90
        2
 70
     0
 43
0.0001332181640625
 10
0.8874532679408257
 20
0.8385280184025557
 10
0.8774619056361352
 20
0.9117980086369353
  0
LWPOLYLINE
  5
7DE1B343D9D0AD7
330
7DE1B343D9D0BE5
100
AcDbEntity
  8
TEXT
100
AcDbPolyline
 90
        2
 70
     0
 43
0.0001332181640625
 10
0.8774619056361352
 20
0.8851543758244343
 10
0.8874532679408257
 20
0.8252062019963087
  0
LWPOLYLINE
  5
7DE1B343D9D0ADB
330
7DE1B343D9D0BE5
100
AcDbEntity
  8
TEXT
100
AcDbPolyline
 90
        3
 70
     0
 43
0.0006660908203125
 10
1.030662794308012
 20
0.7985625691838077
 10
1.030662794308012
 20
0.9117980086369353
 10
0.9174273548548868
 20
0.9117980086369353
  0
LWPOLYLINE
  5
7DE1B343D9D0AE0
330
7DE1B343D9D0BE5
100
AcDbEntity
  8
TEXT
100
AcDbPolyline
 90
        3
 70
     0
 43
0.0006660908203125
 10
1.004019161495511
 20
0.7985625691838077
 10
1.004019161495511
 20
0.8851543758244343
 10
0.9174273548548868
 20
0.8851543758244343
  0
LWPOLYLINE
  5
7DE1B343D9D0AE5
330
7DE1B343D9D0BE5
100
AcDbEntity
  8
TEXT
100
AcDbPolyline
 90
        2
 70
     0
 43
0.0001332181640625
 10
1.004019161495511
 20
0.8851543758244343
 10
0.9440709876673878
 20
0.8252062019963087
  0
LWPOLYLINE
  5
7DE1B343D9D0AE9
330
7DE1B343D9D0BE5
100
AcDbEntity
  8
TEXT
100
AcDbPolyline
 90
        2
 70
     0
 43
0.0001332181640625
 10
0.9174273548548868
 20
0.8851543758244343
 10
0.907435992550198
 20
0.8252062019963087
  0
LWPOLYLINE
  5
7DE1B343D9D0AED
330
7DE1B343D9D0BE5
100
AcDbEntity
  8
TEXT
100
AcDbPolyline
 90
        2
 70
     0
 43
0.0001332181640625
 10
0.9174273548548868
 20
0.9117980086369353
 10
0.907435992550198
 20
0.8385280184025557
  0
LWPOLYLINE
  5
7DE1B343D9D0AF1
330
7DE1B343D9D0BE5
100
AcDbEntity
  8
TEXT
100
AcDbPolyline
 90
        2
 70
     0
 43
0.0001332181640625
 10
0.9573928040736365
 20
0.7885712068791189
 10
1.030662794308012
 20
0.7985625691838077
  0
LWPOLYLINE
  5
7DE1B343D9D0AF5
330
7DE1B343D9D0BE5
100
AcDbEntity
  8
TEXT
100
AcDbPolyline
 90
        2
 70
     0
 43
0.0001332181640625
 10
1.004019161495511
 20
0.7985625691838077
 10
0.9440709876673878
 20
0.7885712068791189
  0
LWPOLYLINE
  5
7DE1B343D9D0AF9
330
7DE1B343D9D0BE5
100
AcDbEntity
  8
TEXT
100
AcDbPolyline
 90
        2
 70
     0
 43
0.0001332181640625
 10
1.030662794308012
 20
0.7585971199650597
 10
0.9573928040736365
 20
0.7685884822697449
  0
LWPOLYLINE
  5
7DE1B343D9D0AFD
330
7DE1B343D9D0BE5
100
AcDbEntity
  8
TEXT
100
AcDbPolyline
 90
        2
 70
     0
 43
0.0001332181640625
 10
1.004019161495511
 20
0.7585971199650597
 10
0.9440709876673878
 20
0.7685884822697449
  0
LWPOLYLINE
  5
7DE1B343D9D0B01
330
7DE1B343D9D0BE5
100
AcDbEntity
  8
TEXT
100
AcDbPolyline
 90
        2
 70
     0
 43
0.0001332181640625
 10
1.004019161495511
 20
0.6720053133244331
 10
0.9440709876673878
 20
0.7319534871525586
  0
LWPOLYLINE
  5
7DE1B343D9D0B05
330
7DE1B343D9D0BE5
100
AcDbEntity
  8
TEXT
100
AcDbPolyline
 90
        3
 70
     0
 43
0.0006660908203125
 10
0.9174273548548868
 20
0.6720053133244331
 10
1.004019161495511
 20
0.6720053133244331
 10
1.004019161495511
 20
0.7585971199650597
  0
LWPOLYLINE
  5
7DE1B343D9D0B0A
330
7DE1B343D9D0BE5
100
AcDbEntity
  8
TEXT
100
AcDbPolyline
 90
        3
 70
     0
 43
0.0006660908203125
 10
0.9174273548548868
 20
0.645361680511932
 10
1.030662794308012
 20
0.645361680511932
 10
1.030662794308012
 20
0.7585971199650597
  0
LWPOLYLINE
  5
7DE1B343D9D0B0F
330
7DE1B343D9D0BE5
100
AcDbEntity
  8
TEXT
100
AcDbPolyline
 90
        5
 70
     0
 43
0.0001332181640625
 10
0.8874532679408257
 20
0.7186316707463081
 10
0.8874532679408257
 20
0.7319534871525586
 10
0.8508182728236377
 20
0.7319534871525586
 10
0.8508182728236377
 20
0.7685884822697449
 10
0.8374964564173872
 20
0.7685884822697449
  0
LWPOLYLINE
  5
7DE1B343D9D0B16
330
7DE1B343D9D0BE5
100
AcDbEntity
  8
TEXT
100
AcDbPolyline
 90
        2
 70
     0
 43
0.0006660908203125
 10
0.8774619056361352
 20
0.6720053133244331
 10
0.8774619056361352
 20
0.645361680511932
  0
LWPOLYLINE
  5
7DE1B343D9D0B1A
330
7DE1B343D9D0BE5
100
AcDbEntity
  8
TEXT
100
AcDbPolyline
 90
        2
 70
     0
 43
0.0001332181640625
 10
0.8774619056361352
 20
0.6720053133244331
 10
0.8874532679408257
 20
0.7319534871525586
  0
LWPOLYLINE
  5
7DE1B343D9D0B1E
330
7DE1B343D9D0BE5
100
AcDbEntity
  8
TEXT
100
AcDbPolyline
 90
        2
 70
     0
 43
0.0001332181640625
 10
0.8774619056361352
 20
0.645361680511932
 10
0.8874532679408257
 20
0.7186316707463081
  0
LWPOLYLINE
  5
7DE1B343D9D0B22
330
7DE1B343D9D0BE5
100
AcDbEntity
  8
TEXT
100
AcDbPolyline
 90
        5
 70
     0
 43
0.0001332181640625
 10
0.8374964564173872
 20
0.7885712068791189
 10
0.8508182728236359
 20
0.7885712068791189
 10
0.8508182728236359
 20
0.8252062019963087
 10
0.8874532679408257
 20
0.8252062019963087
 10
0.8874532679408257
 20
0.8385280184025557
  0
LWPOLYLINE
  5
7DE1B343D9D0B29
330
7DE1B343D9D0BE5
100
AcDbEntity
  8
TEXT
100
AcDbPolyline
 90
        5
 70
     0
 43
0.0001332181640625
 10
0.907435992550198
 20
0.8385280184025557
 10
0.907435992550198
 20
0.8252062019963087
 10
0.9440709876673878
 20
0.8252062019963087
 10
0.9440709876673878
 20
0.7885712068791189
 10
0.9573928040736365
 20
0.7885712068791189
  0
LWPOLYLINE
  5
7DE1B343D9D0B30
330
7DE1B343D9D0BE5
100
AcDbEntity
  8
TEXT
100
AcDbPolyline
 90
        2
 70
     0
 43
0.0001332181640625
 10
0.9174273548548868
 20
0.6720053133244331
 10
0.907435992550198
 20
0.7319534871525586
  0
LWPOLYLINE
  5
7DE1B343D9D0B34
330
7DE1B343D9D0BE5
100
AcDbEntity
  8
TEXT
100
AcDbPolyline
 90
        2
 70
     0
 43
0.0001332181640625
 10
0.907435992550198
 20
0.7186316707463081
 10
0.9174273548548868
 20
0.645361680511932
  0
LWPOLYLINE
  5
7DE1B343D9D0B38
330
7DE1B343D9D0BE5
100
AcDbEntity
  8
TEXT
100
AcDbPolyline
 90
        2
 70
     0
 43
0.0006660908203125
 10
0.9174273548548868
 20
0.6720053133244331
 10
0.9174273548548868
 20
0.645361680511932
  0
LWPOLYLINE
  5
7DE1B343D9D0B3C
330
7DE1B343D9D0BE5
100
AcDbEntity
  8
TEXT
100
AcDbPolyline
 90
        5
 70
     0
 43
0.0001332181640625
 10
0.9573928040736365
 20
0.7685884822697449
 10
0.9440709876673878
 20
0.7685884822697449
 10
0.9440709876673878
 20
0.7319534871525586
 10
0.907435992550198
 20
0.7319534871525586
 10
0.907435992550198
 20
0.7186316707463081
  0
LWPOLYLINE
  5
7DE1B343D9D0B43
330
7DE1B343D9D0BE5
100
AcDbEntity
  8
TEXT
100
AcDbPolyline
 90
        2
 70
     0
 43
0.0006660908203125
 10
1.004019161495511
 20
0.7985625691838077
 10
1.030662794308012
 20
0.7985625691838077
  0
LWPOLYLINE
  5
7DE1B343D9D0B47
330
7DE1B343D9D0BE5
100
AcDbEntity
  8
TEXT
100
AcDbPolyline
 90
        2
 70
     0
 43
0.0006660908203125
 10
1.004019161495511
 20
0.7585971199650597
 10
1.030662794308012
 20
0.7585971199650597
  0
LINE
  5
7DE1B343D9D0B4B
330
7DE1B343D9D0BE5
100
AcDbEntity
  8
TEXT
100
AcDbLine
 10
1.300776931156037
 20
0.8475213139801663
 30
0.0
 11
1.467682585185008
 21
0.8475213139801663
 31
0.0
  0
LINE
  5
7DE1B343D9D0B4C
330
7DE1B343D9D0BE5
100
AcDbEntity
  8
TEXT
100
AcDbLine
 10
1.366377067400338
 20
0.8117165923695385
 30
0.0
 11
1.300776931156037
 21
0.8117165923695385
 31
0.0
  0
LINE
  5
7DE1B343D9D0B4D
330
7DE1B343D9D0BE5
100
AcDbEntity
  8
TEXT
100
AcDbLine
 10
1.213452141595285
 20
0.6453249756484208
 30
0.0
 11
1.366377067400338
 21
0.6453249756484208
 31
0.0
  0
LINE
  5
7DE1B343D9D0B4E
330
7DE1B343D9D0BE5
100
AcDbEntity
  8
TEXT
100
AcDbLine
 10
1.371317441306618
 20
0.7136819819818601
 30
0.0
 11
1.213452141595284
 21
0.7136819819818601
 31
0.0
  0
LINE
  5
7DE1B343D9D0B4F
330
7DE1B343D9D0BE5
100
AcDbEntity
  8
TEXT
100
AcDbLine
 10
1.295539601041789
 20
0.7476230897439247
 30
0.0
 11
1.371317441306618
 21
0.7476230897439247
 31
0.0
  0
ARC
  5
7DE1B343D9D0B50
330
7DE1B343D9D0BE5
100
AcDbEntity
  8
TEXT
100
AcDbCircle
 10
1.300776931156038
 20
0.8296189531748542
 30
0.0
 40
0.017902360805315
100
AcDbArc
 50
90.0
 51
270.0
  0
LINE
  5
7DE1B343D9D0B51
330
7DE1B343D9D0BE5
100
AcDbEntity
  8
TEXT
100
AcDbLine
 10
1.213452141595284
 20
0.7136819819818601
 30
0.0
 11
1.213452141595285
 21
0.6453249756484208
 31
0.0
  0
LINE
  5
7DE1B343D9D0B52
330
7DE1B343D9D0BE5
100
AcDbEntity
  8
TEXT
100
AcDbLine
 10
1.467682585185008
 20
0.8475213139801663
 30
0.0
 11
1.467682585185008
 21
0.7051173669864706
 31
0.0
  0
ARC
  5
7DE1B343D9D0B53
330
7DE1B343D9D0BE5
100
AcDbEntity
  8
TEXT
100
AcDbCircle
 10
1.366377067400339
 20
0.7285207840089778
 30
0.0
 40
0.0831958083605586
100
AcDbArc
 50
270.0
 51
90.0
  0
ARC
  5
7DE1B343D9D0B54
330
7DE1B343D9D0BE5
100
AcDbEntity
  8
TEXT
100
AcDbCircle
 10
1.371317441306619
 20
0.7306525358628942
 30
0.0
 40
0.0169705538810321
100
AcDbArc
 50
270.0
 51
90.0
  0
LWPOLYLINE
  5
7DE1B343D9D0B55
330
7DE1B343D9D0BE5
100
AcDbEntity
  8
TEXT
100
AcDbPolyline
 90
        2
 70
     0
 43
0.0006660908203125
 10
0.8774619056361352
 20
0.8851543758244343
 10
0.8774619056361352
 20
0.9117980086369353
  0
LWPOLYLINE
  5
7DE1B343D9D0B59
330
7DE1B343D9D0BE5
100
AcDbEntity
  8
TEXT
100
AcDbPolyline
 90
        2
 70
     0
 43
0.0006660908203125
 10
0.9174273548548868
 20
0.8851543758244343
 10
0.9174273548548868
 20
0.9117980086369353
  0
LINE
  5
7DE1B343D9D0B5D
330
7DE1B343D9D0BE5
100
AcDbEntity
  8
TEXT
100
AcDbLine
 10
1.471271353940301
 20
0.9117980086369318
 30
0.0
 11
1.295539601041789
 21
0.9117980086369318
 31
0.0
  0
LINE
  5
7DE1B343D9D0B5E
330
7DE1B343D9D0BE5
100
AcDbEntity
  8
TEXT
100
AcDbLine
 10
1.471271353940301
 20
0.9461859262310699
 30
0.0
 11
1.471271353940301
 21
0.9117980086369318
 31
0.0
  0
LINE
  5
7DE1B343D9D0B5F
330
7DE1B343D9D0BE5
100
AcDbEntity
  8
TEXT
100
AcDbLine
 10
1.661743245960153
 20
0.8109260125238112
 30
0.0
 11
1.603112924928216
 21
0.9117980086369318
 31
0.0
  0
LINE
  5
7DE1B343D9D0B60
330
7DE1B343D9D0BE5
100
AcDbEntity
  8
TEXT
100
AcDbLine
 10
1.720491808766019
 20
0.9117980086369318
 30
0.0
 11
1.661743245960153
 21
0.8109260125238112
 31
0.0
  0
LINE
  5
7DE1B343D9D0B61
330
7DE1B343D9D0BE5
100
AcDbEntity
  8
TEXT
100
AcDbLine
 10
1.81742243412576
 20
0.72771281375142
 30
0.0
 11
1.81742243412576
 21
0.9798094863757423
 31
0.0
  0
LINE
  5
7DE1B343D9D0B62
330
7DE1B343D9D0BE5
100
AcDbEntity
  8
TEXT
100
AcDbLine
 10
1.84973428826342
 20
0.9117980086369318
 30
0.0
 11
1.84973428826342
 21
0.7109338019045235
 31
0.0
  0
LINE
  5
7DE1B343D9D0B63
330
7DE1B343D9D0BE5
100
AcDbEntity
  8
TEXT
100
AcDbLine
 10
1.84973428826342
 20
0.7109338019045235
 30
0.0
 11
1.832740651378819
 21
0.7109338019045235
 31
0.0
  0
LINE
  5
7DE1B343D9D0B64
330
7DE1B343D9D0BE5
100
AcDbEntity
  8
TEXT
100
AcDbLine
 10
1.818562007621955
 20
0.6453249756484208
 30
0.0
 11
1.91656534132139
 21
0.6453249756484208
 31
0.0
  0
LINE
  5
7DE1B343D9D0B65
330
7DE1B343D9D0BE5
100
AcDbEntity
  8
TEXT
100
AcDbLine
 10
1.652143008963199
 20
0.6652834817534337
 30
0.0
 11
1.749442715056644
 21
0.8296336926887018
 31
0.0
  0
ARC
  5
7DE1B343D9D0B66
330
7DE1B343D9D0BE5
100
AcDbEntity
  8
TEXT
100
AcDbCircle
 10
1.618099449050985
 20
0.6848726979221165
 30
0.0
 40
0.0392772371940762
100
AcDbArc
 50
270.1604552698595
 51
330.0831797321295
  0
LINE
  5
7DE1B343D9D0B67
330
7DE1B343D9D0BE5
100
AcDbEntity
  8
TEXT
100
AcDbLine
 10
1.521569192665114
 20
0.6453249756484208
 30
0.0
 11
1.618209443740108
 21
0.6455956147467031
 31
0.0
  0
LWPOLYLINE
  5
7DE1B343D9D0B68
330
7DE1B343D9D0BE5
100
AcDbEntity
  8
TEXT
100
AcDbPolyline
 90
        6
 70
     1
 43
0.0
 10
1.564092996240264
 20
0.8475213139801663
 10
1.533776402020055
 20
0.8475213139801663
 10
1.533776402020055
 20
0.724410315925272
 42
0.407328721240804
 10
1.545320053181532
 20
0.7125914012488859
 10
1.605941752226263
 20
0.7125914012488859
 10
1.623407092633581
 20
0.745403630292365
  0
LINE
  5
7DE1B343D9D0B70
330
7DE1B343D9D0BE5
100
AcDbEntity
  8
TEXT
100
AcDbLine
 10
1.749442715056644
 20
0.8296336926887018
 30
0.0
 11
1.749442715056644
 21
0.6968763178633455
 31
0.0
  0
ARC
  5
7DE1B343D9D0B71
330
7DE1B343D9D0BE5
100
AcDbEntity
  8
TEXT
100
AcDbCircle
 10
1.832740651378817
 20
0.726315608147949
 30
0.0
 40
0.0153818062434269
100
AcDbArc
 50
174.7883570302258
 51
270.0
  0
LWPOLYLINE
  5
7DE1B343D9D0B72
330
7DE1B343D9D0BE5
100
AcDbEntity
  8
TEXT
100
AcDbPolyline
 90
        2
 70
     0
 43
0.0
 10
1.749442715056642
 20
0.6968763178633491
 42
0.3318488747599744
 10
1.818562007621955
 20
0.6453249756484208
 42
-6.868794160588311
  0
LINE
  5
7DE1B343D9D0B76
330
7DE1B343D9D0BE5
100
AcDbEntity
  8
TEXT
100
AcDbLine
 10
1.973954410310651
 20
0.6453249756484208
 30
0.0
 11
2.041012457092491
 21
0.6453249756484208
 31
0.0
  0
LINE
  5
7DE1B343D9D0B77
330
7DE1B343D9D0BE5
100
AcDbEntity
  8
TEXT
100
AcDbLine
 10
1.973954410310651
 20
0.8399675248140564
 30
0.0
 11
1.973954410310651
 21
0.6453249756484208
 31
0.0
  0
LINE
  5
7DE1B343D9D0B78
330
7DE1B343D9D0BE5
100
AcDbEntity
  8
TEXT
100
AcDbLine
 10
1.91656534132139
 20
0.8475213139801663
 30
0.0
 11
1.966400621144537
 21
0.8475213139801663
 31
0.0
  0
LINE
  5
7DE1B343D9D0B79
330
7DE1B343D9D0BE5
100
AcDbEntity
  8
TEXT
100
AcDbLine
 10
1.91656534132139
 20
0.6453249756484208
 30
0.0
 11
1.91656534132139
 21
0.8475213139801663
 31
0.0
  0
LWPOLYLINE
  5
7DE1B343D9D0B7A
330
7DE1B343D9D0BE5
100
AcDbEntity
  8
TEXT
100
AcDbPolyline
 90
        2
 70
     0
 43
0.0
 10
1.966400621144535
 20
0.8475213139801663
 42
-0.4142135623731017
 10
1.973954410310649
 20
0.8399675248140564
 42
-0.9999999999999998
  0
LINE
  5
7DE1B343D9D0B7E
330
7DE1B343D9D0BE5
100
AcDbEntity
  8
TEXT
100
AcDbLine
 10
2.172210621922221
 20
0.8475213139801663
 30
0.0
 11
2.172210621922221
 21
0.7724689079059597
 31
0.0
  0
LINE
  5
7DE1B343D9D0B7F
330
7DE1B343D9D0BE5
100
AcDbEntity
  8
TEXT
100
AcDbLine
 10
2.041012457092491
 20
0.8475213139801663
 30
0.0
 11
2.095146054013441
 21
0.8475213139801663
 31
0.0
  0
LINE
  5
7DE1B343D9D0B80
330
7DE1B343D9D0BE5
100
AcDbEntity
  8
TEXT
100
AcDbLine
 10
2.041012457092491
 20
0.6453249756484208
 30
0.0
 11
2.041012457092491
 21
0.8475213139801663
 31
0.0
  0
LWPOLYLINE
  5
7DE1B343D9D0B81
330
7DE1B343D9D0BE5
100
AcDbEntity
  8
TEXT
100
AcDbPolyline
 90
        2
 70
     0
 43
0.0
 10
2.095146054013439
 20
0.8475213139801663
 42
-0.4142135623731017
 10
2.102699843179553
 20
0.8399675248140564
 42
-0.9999999999999998
  0
LWPOLYLINE
  5
7DE1B343D9D0B85
330
7DE1B343D9D0BE5
100
AcDbEntity
  8
TEXT
100
AcDbPolyline
 90
        4
 70
     0
 43
0.0
 10
2.102699843179553
 20
0.8399675248140564
 10
2.102699843179553
 20
0.6453249756484208
 10
2.171178126467411
 20
0.6453249756484208
 10
2.171178126467411
 20
0.6888159205988589
 42
-1.714843617202739
  0
LINE
  5
7DE1B343D9D0B8B
330
7DE1B343D9D0BE5
100
AcDbEntity
  8
TEXT
100
AcDbLine
 10
1.531313958784308
 20
0.9117980086369318
 30
0.0
 11
1.531313958784308
 21
0.9461859262310699
 31
0.0
  0
LINE
  5
7DE1B343D9D0B8C
330
7DE1B343D9D0BE5
100
AcDbEntity
  8
TEXT
100
AcDbLine
 10
1.603112924928216
 20
0.9117980086369318
 30
0.0
 11
1.531313958784308
 21
0.9117980086369318
 31
0.0
  0
LINE
  5
7DE1B343D9D0B8D
330
7DE1B343D9D0BE5
100
AcDbEntity
  8
TEXT
100
AcDbLine
 10
1.750613721559395
 20
0.9117980086369318
 30
0.0
 11
1.720491808766019
 21
0.9117980086369318
 31
0.0
  0
LINE
  5
7DE1B343D9D0B8E
330
7DE1B343D9D0BE5
100
AcDbEntity
  8
TEXT
100
AcDbLine
 10
1.750613721559395
 20
0.9798094863757423
 30
0.0
 11
1.750613721559395
 21
0.9117980086369318
 31
0.0
  0
LINE
  5
7DE1B343D9D0B8F
330
7DE1B343D9D0BE5
100
AcDbEntity
  8
TEXT
100
AcDbLine
 10
1.81742243412576
 20
0.9798094863757423
 30
0.0
 11
1.750613721559395
 21
0.9798094863757423
 31
0.0
  0
LWPOLYLINE
  5
7DE1B343D9D0B90
330
7DE1B343D9D0BE5
100
AcDbEntity
  8
TEXT
100
AcDbPolyline
 90
        3
 70
     0
 43
0.0
 10
2.137834193723763
 20
0.9117980086369353
 10
2.019534034907718
 20
0.9117980086369353
 10
2.019534034907718
 20
0.8846305118760394
 42
-1.960274751411753
  0
LINE
  5
7DE1B343D9D0B95
330
7DE1B343D9D0BE5
100
AcDbEntity
  8
TEXT
100
AcDbLine
 10
1.983752344194557
 20
0.9117980086369318
 30
0.0
 11
1.84973428826342
 21
0.9117980086369318
 31
0.0
  0
LWPOLYLINE
  5
7DE1B343D9D0B96
330
7DE1B343D9D0BE5
100
AcDbEntity
  8
TEXT
100
AcDbPolyline
 90
        2
 70
     0
 43
0.0
 10
1.983752344194557
 20
0.9117980086369353
 42
-0.3328679258950098
 10
2.019534034907718
 20
0.8846305118760394
 42
6.772930709997214
  0
LINE
  5
7DE1B343D9D0B9A
330
7DE1B343D9D0BE5
100
AcDbEntity
  8
TEXT
100
AcDbLine
 10
2.173615884436929
 20
0.9117980086369318
 30
0.0
 11
2.173615884436929
 21
0.8834754628672879
 31
0.0
  0
LWPOLYLINE
  5
7DE1B343D9D0B9B
330
7DE1B343D9D0BE5
100
AcDbEntity
  8
TEXT
100
AcDbPolyline
 90
        2
 70
     0
 43
0.0
 10
2.137834193723763
 20
0.9117980086369353
 42
-0.3277054968067132
 10
2.173615884436927
 20
0.8834754628672914
 42
6.667889725900311
  0
LINE
  5
7DE1B343D9D0B9F
330
7DE1B343D9D0BE5
100
AcDbEntity
  8
TEXT
100
AcDbLine
 10
2.387407732529029
 20
0.8065860300835044
 30
0.0
 11
2.343656961347128
 21
0.8888363060796496
 31
0.0
  0
LINE
  5
7DE1B343D9D0BA0
330
7DE1B343D9D0BE5
100
AcDbEntity
  8
TEXT
100
AcDbLine
 10
2.387407732529029
 20
0.9117980086369318
 30
0.0
 11
2.387407732529029
 21
0.8065860300835044
 31
0.0
  0
LINE
  5
7DE1B343D9D0BA1
330
7DE1B343D9D0BE5
100
AcDbEntity
  8
TEXT
100
AcDbLine
 10
2.615091471467398
 20
0.8359326822253937
 30
0.0
 11
2.615091471467398
 21
0.9772622144045325
 31
0.0
  0
LINE
  5
7DE1B343D9D0BA2
330
7DE1B343D9D0BE5
100
AcDbEntity
  8
TEXT
100
AcDbLine
 10
2.662189630023383
 20
0.9117980086369318
 30
0.0
 11
2.615091471467398
 21
0.8359326822253937
 31
0.0
  0
LINE
  5
7DE1B343D9D0BA3
330
7DE1B343D9D0BE5
100
AcDbEntity
  8
TEXT
100
AcDbLine
 10
2.672624346787306
 20
0.8019047656959582
 30
0.0
 11
2.737181462753011
 21
0.9117980086369318
 31
0.0
  0
LINE
  5
7DE1B343D9D0BA4
330
7DE1B343D9D0BE5
100
AcDbEntity
  8
TEXT
100
AcDbLine
 10
2.551256480244625
 20
0.6453249756484208
 30
0.0
 11
2.615634664563246
 21
0.6453249756484208
 31
0.0
  0
LWPOLYLINE
  5
7DE1B343D9D0BA5
330
7DE1B343D9D0BE5
100
AcDbEntity
  8
TEXT
100
AcDbPolyline
 90
        2
 70
     0
 43
0.0
 10
2.391347409834067
 20
0.6888159205988589
 42
-0.2901071551932486
 10
2.348271476966423
 20
0.6453249756484208
 42
-5.328517124445184
  0
ARC
  5
7DE1B343D9D0BA9
330
7DE1B343D9D0BE5
100
AcDbEntity
  8
TEXT
100
AcDbCircle
 10
2.279416895309508
 20
0.819161938980169
 30
0.0
 40
0.028359375
100
AcDbArc
 50
25.78218179591245
 51
90.0
  0
LINE
  5
7DE1B343D9D0BAA
330
7DE1B343D9D0BE5
100
AcDbEntity
  8
TEXT
100
AcDbLine
 10
2.315217970613631
 20
0.8102463405180341
 30
0.0
 11
2.304953210200067
 21
0.8314968800907283
 31
0.0
  0
LINE
  5
7DE1B343D9D0BAB
330
7DE1B343D9D0BE5
100
AcDbEntity
  8
TEXT
100
AcDbLine
 10
2.232929980830248
 20
0.8102463405180341
 30
0.0
 11
2.315217970613631
 21
0.8102463405180341
 31
0.0
  0
LWPOLYLINE
  5
7DE1B343D9D0BAC
330
7DE1B343D9D0BE5
100
AcDbEntity
  8
TEXT
100
AcDbPolyline
 90
        4
 70
     1
 43
0.0
 10
2.32814901189653
 20
0.748288953632446
 10
2.239488693236672
 20
0.748288953632446
 42
0.9999999999999998
 10
2.239488693236672
 20
0.7058904131285853
 10
2.32814901189653
 20
0.7058904131285853
 42
1.0
  0
LWPOLYLINE
  5
7DE1B343D9D0BB2
330
7DE1B343D9D0BE5
100
AcDbEntity
  8
TEXT
100
AcDbPolyline
 90
        2
 70
     0
 43
0.0
 10
2.214254059335046
 20
0.6453249756484208
 10
2.348271476966423
 20
0.6453249756484208
 42
0.9999999999999998
  0
LINE
  5
7DE1B343D9D0BB6
330
7DE1B343D9D0BE5
100
AcDbEntity
  8
TEXT
100
AcDbLine
 10
2.474608498952062
 20
0.8475213139801663
 30
0.0
 11
2.55125648024462
 21
0.8475213139801663
 31
0.0
  0
LINE
  5
7DE1B343D9D0BB7
330
7DE1B343D9D0BE5
100
AcDbEntity
  8
TEXT
100
AcDbLine
 10
2.55125648024462
 20
0.8475213139801663
 30
0.0
 11
2.551256480244625
 21
0.6453249756484208
 31
0.0
  0
ARC
  5
7DE1B343D9D0BB8
330
7DE1B343D9D0BE5
100
AcDbEntity
  8
TEXT
100
AcDbCircle
 10
2.47460849895206
 20
0.8226154386975036
 30
0.0
 40
0.0249058752826653
100
AcDbArc
 50
89.99971217465335
 51
179.9999999999985
  0
LINE
  5
7DE1B343D9D0BB9
330
7DE1B343D9D0BE5
100
AcDbEntity
  8
TEXT
100
AcDbLine
 10
2.449702623669403
 20
0.6453249756484208
 30
0.0
 11
2.449702623669398
 21
0.8226154810798892
 31
0.0
  0
LWPOLYLINE
  5
7DE1B343D9D0BBA
330
7DE1B343D9D0BE5
100
AcDbEntity
  8
TEXT
100
AcDbPolyline
 90
        2
 70
     0
 43
0.0
 10
2.391347409834067
 20
0.6453249756484208
 10
2.449702623669401
 20
0.6453249756484208
  0
LWPOLYLINE
  5
7DE1B343D9D0BBE
330
7DE1B343D9D0BE5
100
AcDbEntity
  8
TEXT
100
AcDbPolyline
 90
        2
 70
     0
 43
0.0
 10
2.391347409834067
 20
0.6888159205988589
 10
2.391347409834067
 20
0.6453249756484208
  0
LINE
  5
7DE1B343D9D0BC2
330
7DE1B343D9D0BE5
100
AcDbEntity
  8
TEXT
100
AcDbLine
 10
2.768116570150916
 20
0.6453249756484208
 30
0.0
 11
2.672624346787306
 21
0.8019047656959582
 31
0.0
  0
LINE
  5
7DE1B343D9D0BC3
330
7DE1B343D9D0BE5
100
AcDbEntity
  8
TEXT
100
AcDbLine
 10
2.69153819777471
 20
0.6453249756484208
 30
0.0
 11
2.768116570150916
 21
0.6453249756484208
 31
0.0
  0
LINE
  5
7DE1B343D9D0BC4
330
7DE1B343D9D0BE5
100
AcDbEntity
  8
TEXT
100
AcDbLine
 10
2.615634664563246
 20
0.776904544124601
 30
0.0
 11
2.69153819777471
 21
0.6453249756484208
 31
0.0
  0
LINE
  5
7DE1B343D9D0BC5
330
7DE1B343D9D0BE5
100
AcDbEntity
  8
TEXT
100
AcDbLine
 10
2.615634664563246
 20
0.6453249756484208
 30
0.0
 11
2.615634664563246
 21
0.776904544124601
 31
0.0
  0
LINE
  5
7DE1B343D9D0BC6
330
7DE1B343D9D0BE5
100
AcDbEntity
  8
TEXT
100
AcDbLine
 10
2.615091471467398
 20
0.9772622144045325
 30
0.0
 11
2.546776592918125
 21
0.9772622144045325
 31
0.0
  0
ARC
  5
7DE1B343D9D0BC7
330
7DE1B343D9D0BE5
100
AcDbEntity
  8
TEXT
100
AcDbCircle
 10
2.306420853876919
 20
0.8702144415160294
 30
0.0
 40
0.0416329381542859
100
AcDbArc
 50
26.56974201007528
 51
87.20939649401342
  0
LINE
  5
7DE1B343D9D0BC8
330
7DE1B343D9D0BE5
100
AcDbEntity
  8
TEXT
100
AcDbLine
 10
2.45130463882853
 20
0.9117980086369318
 30
0.0
 11
2.387407732529029
 21
0.9117980086369318
 31
0.0
  0
LINE
  5
7DE1B343D9D0BC9
330
7DE1B343D9D0BE5
100
AcDbEntity
  8
TEXT
100
AcDbLine
 10
2.45130463882853
 20
0.8842503587760571
 30
0.0
 11
2.45130463882853
 21
0.9117980086369318
 31
0.0
  0
ARC
  5
7DE1B343D9D0BCA
330
7DE1B343D9D0BE5
100
AcDbEntity
  8
TEXT
100
AcDbCircle
 10
2.482497455891638
 20
0.8805522813546669
 30
0.0
 40
0.0314112657011332
100
AcDbArc
 50
95.88484768694724
 51
173.2388340632136
  0
LINE
  5
7DE1B343D9D0BCB
330
7DE1B343D9D0BE5
100
AcDbEntity
  8
TEXT
100
AcDbLine
 10
2.54677659291812
 20
0.9117980086369318
 30
0.0
 11
2.479276875268603
 21
0.9117980086369318
 31
0.0
  0
LINE
  5
7DE1B343D9D0BCC
330
7DE1B343D9D0BE5
100
AcDbEntity
  8
TEXT
100
AcDbLine
 10
2.546776592918125
 20
0.9772622144045325
 30
0.0
 11
2.54677659291812
 21
0.9117980086369318
 31
0.0
  0
LINE
  5
7DE1B343D9D0BCD
330
7DE1B343D9D0BE5
100
AcDbEntity
  8
TEXT
100
AcDbLine
 10
2.737181462753011
 20
0.9117980086369318
 30
0.0
 11
2.662189630023385
 21
0.9117980086369318
 31
0.0
  0
ENDSEC
  0
SECTION
  2
OBJECTS
  0
DICTIONARY
  5
7DE1B343D9D0BD9
330
0
100
AcDbDictionary
  3
ACAD_GROUP
350
7DE1B343D9D0BDA
  3
ACAD_LAYOUT
350
7DE1B343D9D0BFF
  3
ACAD_MLINESTYLE
350
7DE1B343D9D0BDB
  3
ACAD_PLOTSETTINGS
350
7DE1B343D9D0C00
  3
ACAD_PLOTSTYLENAME
350
7DE1B343D9D0BFD
  3
ACDBHEADERROUNDTRIPXREC
350
7DE1B343D9D0C0A
  3
ACDBVARIABLEDICTIONARY
350
7DE1B343D9D0C07
  0
DICTIONARY
  5
7DE1B343D9D0C2C
330
7DE1B343D9D0BE5
100
AcDbDictionary
280
     1
  3
ACAD_LAYOUTSELFREF
360
7DE1B343D9D0C2D
  0
DICTIONARY
  5
7DE1B343D9D0C2A
330
7DE1B343D9D0BE2
100
AcDbDictionary
280
     1
  3
ACAD_LAYOUTSELFREF
360
7DE1B343D9D0C2B
  0
DICTIONARY
  5
7DE1B343D9D0BDA
102
{ACAD_REACTORS
330
7DE1B343D9D0BD9
102
}
330
7DE1B343D9D0BD9
100
AcDbDictionary
  0
DICTIONARY
  5
7DE1B343D9D0BFF
102
{ACAD_REACTORS
330
7DE1B343D9D0BD9
102
}
330
7DE1B343D9D0BD9
100
AcDbDictionary
  0
DICTIONARY
  5
7DE1B343D9D0BDB
102
{ACAD_REACTORS
330
7DE1B343D9D0BD9
102
}
330
7DE1B343D9D0BD9
100
AcDbDictionary
  3
STANDARD
350
7DE1B343D9D0BE8
  0
DICTIONARY
  5
7DE1B343D9D0C00
102
{ACAD_REACTORS
330
7DE1B343D9D0BD9
102
}
330
7DE1B343D9D0BD9
100
AcDbDictionary
  0
ACDBDICTIONARYWDFLT
  5
7DE1B343D9D0BFD
102
{ACAD_REACTORS
330
7DE1B343D9D0BD9
102
}
330
7DE1B343D9D0BD9
100
AcDbDictionary
281
     1
  3
Normal
350
7DE1B343D9D0BFE
100
AcDbDictionaryWithDefault
340
7DE1B343D9D0BFE
  0
DICTIONARY
  5
7DE1B343D9D0C0A
102
{ACAD_REACTORS
330
7DE1B343D9D0BD9
102
}
330
7DE1B343D9D0BD9
100
AcDbDictionary
  3
CEPSNTYPE
350
7DE1B343D9D0C14
  3
FINGERPRINTGUID
350
7DE1B343D9D0C15
  3
HYPERLINKBASE
350
7DE1B343D9D0C0D
  3
INSUNITS
350
7DE1B343D9D0C13
  3
LAYOUTDICT
350
7DE1B343D9D0C0F
  3
LWETCUNION
350
7DE1B343D9D0C12
  3
PLOTSETDICT
350
7DE1B343D9D0C10
  3
PLOTSTYLNAMDICT
350
7DE1B343D9D0C11
  3
PSVPSCALE
350
7DE1B343D9D0C17
  3
PUCSBASE
350
7DE1B343D9D0C1A
  3
PUCSORGBACK
350
7DE1B343D9D0C20
  3
PUCSORGBOTTOM
350
7DE1B343D9D0C1C
  3
PUCSORGFRONT
350
7DE1B343D9D0C1F
  3
PUCSORGLEFT
350
7DE1B343D9D0C1D
  3
PUCSORGRIGHT
350
7DE1B343D9D0C1E
  3
PUCSORGTOP
350
7DE1B343D9D0C1B
  3
PUCSORTHOREF
350
7DE1B343D9D0C18
  3
PUCSORTHOVIEW
350
7DE1B343D9D0C19
  3
STYLESHEET
350
7DE1B343D9D0C0E
  3
TSTACKALIGN
350
7DE1B343D9D0C0B
  3
TSTACKSIZE
350
7DE1B343D9D0C0C
  3
UCSBASE
350
7DE1B343D9D0C23
  3
UCSORGBACK
350
7DE1B343D9D0C29
  3
UCSORGBOTTOM
350
7DE1B343D9D0C25
  3
UCSORGFRONT
350
7DE1B343D9D0C28
  3
UCSORGLEFT
350
7DE1B343D9D0C26
  3
UCSORGRIGHT
350
7DE1B343D9D0C27
  3
UCSORGTOP
350
7DE1B343D9D0C24
  3
UCSORTHOREF
350
7DE1B343D9D0C21
  3
UCSORTHOVIEW
350
7DE1B343D9D0C22
  3
VERSIONGUID
350
7DE1B343D9D0C16
  0
DICTIONARY
  5
7DE1B343D9D0C07
102
{ACAD_REACTORS
330
7DE1B343D9D0BD9
102
}
330
7DE1B343D9D0BD9
100
AcDbDictionary
  3
DIMASSOC
350
7DE1B343D9D0C08
  0
XRECORD
  5
7DE1B343D9D0C2D
102
{ACAD_REACTORS
330
7DE1B343D9D0C2C
102
}
330
7DE1B343D9D0C2C
100
AcDbXrecord
340
7DE1B343D9D0BE5
  0
XRECORD
  5
7DE1B343D9D0C2B
102
{ACAD_REACTORS
330
7DE1B343D9D0C2A
102
}
330
7DE1B343D9D0C2A
100
AcDbXrecord
340
7DE1B343D9D0BE2
  0
MLINESTYLE
  5
7DE1B343D9D0BE8
102
{ACAD_REACTORS
330
7DE1B343D9D0BDB
102
}
330
7DE1B343D9D0BDB
100
AcDbMlineStyle
  2
STANDARD
 70
     0
  3

 62
     0
 51
90.0
 52
90.0
 71
     2
 49
0.5
 62
   256
  6
BYLAYER
 49
-0.5
 62
   256
  6
BYLAYER
  0
ACDBPLACEHOLDER
  5
7DE1B343D9D0BFE
102
{ACAD_REACTORS
330
7DE1B343D9D0BFD
102
}
330
7DE1B343D9D0BFD
100
AcDbPlaceHolder
280
     0
  0
XRECORD
  5
7DE1B343D9D0C14
102
{ACAD_REACTORS
330
7DE1B343D9D0C0A
102
}
330
7DE1B343D9D0C0A
100
AcDbXrecord
 90
        0
  0
XRECORD
  5
7DE1B343D9D0C15
102
{ACAD_REACTORS
330
7DE1B343D9D0C0A
102
}
330
7DE1B343D9D0C0A
100
AcDbXrecord
  1
{7C9522E0-8DB4-11D6-88E6-0090279574E7}
  0
XRECORD
  5
7DE1B343D9D0C0D
102
{ACAD_REACTORS
330
7DE1B343D9D0C0A
102
}
330
7DE1B343D9D0C0A
100
AcDbXrecord
  1

  0
XRECORD
  5
7DE1B343D9D0C13
102
{ACAD_REACTORS
330
7DE1B343D9D0C0A
102
}
330
7DE1B343D9D0C0A
100
AcDbXrecord
 90
        0
  0
XRECORD
  5
7DE1B343D9D0C0F
102
{ACAD_REACTORS
330
7DE1B343D9D0C0A
102
}
330
7DE1B343D9D0C0A
100
AcDbXrecord
340
7DE1B343D9D0BFF
  0
XRECORD
  5
7DE1B343D9D0C12
102
{ACAD_REACTORS
330
7DE1B343D9D0C0A
102
}
330
7DE1B343D9D0C0A
100
AcDbXrecord
 90
    14877
  0
XRECORD
  5
7DE1B343D9D0C10
102
{ACAD_REACTORS
330
7DE1B343D9D0C0A
102
}
330
7DE1B343D9D0C0A
100
AcDbXrecord
340
7DE1B343D9D0C00
  0
XRECORD
  5
7DE1B343D9D0C11
102
{ACAD_REACTORS
330
7DE1B343D9D0C0A
102
}
330
7DE1B343D9D0C0A
100
AcDbXrecord
340
7DE1B343D9D0BFD
  0
XRECORD
  5
7DE1B343D9D0C17
102
{ACAD_REACTORS
330
7DE1B343D9D0C0A
102
}
330
7DE1B343D9D0C0A
100
AcDbXrecord
 40
0.0
  0
XRECORD
  5
7DE1B343D9D0C1A
102
{ACAD_REACTORS
330
7DE1B343D9D0C0A
102
}
330
7DE1B343D9D0C0A
100
AcDbXrecord
340
0
  0
XRECORD
  5
7DE1B343D9D0C20
102
{ACAD_REACTORS
330
7DE1B343D9D0C0A
102
}
330
7DE1B343D9D0C0A
100
AcDbXrecord
 10
0.0
 20
0.0
 30
0.0
  0
XRECORD
  5
7DE1B343D9D0C1C
102
{ACAD_REACTORS
330
7DE1B343D9D0C0A
102
}
330
7DE1B343D9D0C0A
100
AcDbXrecord
 10
0.0
 20
0.0
 30
0.0
  0
XRECORD
  5
7DE1B343D9D0C1F
102
{ACAD_REACTORS
330
7DE1B343D9D0C0A
102
}
330
7DE1B343D9D0C0A
100
AcDbXrecord
 10
0.0
 20
0.0
 30
0.0
  0
XRECORD
  5
7DE1B343D9D0C1D
102
{ACAD_REACTORS
330
7DE1B343D9D0C0A
102
}
330
7DE1B343D9D0C0A
100
AcDbXrecord
 10
0.0
 20
0.0
 30
0.0
  0
XRECORD
  5
7DE1B343D9D0C1E
102
{ACAD_REACTORS
330
7DE1B343D9D0C0A
102
}
330
7DE1B343D9D0C0A
100
AcDbXrecord
 10
0.0
 20
0.0
 30
0.0
  0
XRECORD
  5
7DE1B343D9D0C1B
102
{ACAD_REACTORS
330
7DE1B343D9D0C0A
102
}
330
7DE1B343D9D0C0A
100
AcDbXrecord
 10
0.0
 20
0.0
 30
0.0
  0
XRECORD
  5
7DE1B343D9D0C18
102
{ACAD_REACTORS
330
7DE1B343D9D0C0A
102
}
330
7DE1B343D9D0C0A
100
AcDbXrecord
340
0
  0
XRECORD
  5
7DE1B343D9D0C19
102
{ACAD_REACTORS
330
7DE1B343D9D0C0A
102
}
330
7DE1B343D9D0C0A
100
AcDbXrecord
 70
     0
  0
XRECORD
  5
7DE1B343D9D0C0E
102
{ACAD_REACTORS
330
7DE1B343D9D0C0A
102
}
330
7DE1B343D9D0C0A
100
AcDbXrecord
  1

  0
XRECORD
  5
7DE1B343D9D0C0B
102
{ACAD_REACTORS
330
7DE1B343D9D0C0A
102
}
330
7DE1B343D9D0C0A
100
AcDbXrecord
 90
        1
  0
XRECORD
  5
7DE1B343D9D0C0C
102
{ACAD_REACTORS
330
7DE1B343D9D0C0A
102
}
330
7DE1B343D9D0C0A
100
AcDbXrecord
 90
       70
  0
XRECORD
  5
7DE1B343D9D0C23
102
{ACAD_REACTORS
330
7DE1B343D9D0C0A
102
}
330
7DE1B343D9D0C0A
100
AcDbXrecord
340
0
  0
XRECORD
  5
7DE1B343D9D0C29
102
{ACAD_REACTORS
330
7DE1B343D9D0C0A
102
}
330
7DE1B343D9D0C0A
100
AcDbXrecord
 10
0.0
 20
0.0
 30
0.0
  0
XRECORD
  5
7DE1B343D9D0C25
102
{ACAD_REACTORS
330
7DE1B343D9D0C0A
102
}
330
7DE1B343D9D0C0A
100
AcDbXrecord
 10
0.0
 20
0.0
 30
0.0
  0
XRECORD
  5
7DE1B343D9D0C28
102
{ACAD_REACTORS
330
7DE1B343D9D0C0A
102
}
330
7DE1B343D9D0C0A
100
AcDbXrecord
 10
0.0
 20
0.0
 30
0.0
  0
XRECORD
  5
7DE1B343D9D0C26
102
{ACAD_REACTORS
330
7DE1B343D9D0C0A
102
}
330
7DE1B343D9D0C0A
100
AcDbXrecord
 10
0.0
 20
0.0
 30
0.0
  0
XRECORD
  5
7DE1B343D9D0C27
102
{ACAD_REACTORS
330
7DE1B343D9D0C0A
102
}
330
7DE1B343D9D0C0A
100
AcDbXrecord
 10
0.0
 20
0.0
 30
0.0
  0
XRECORD
  5
7DE1B343D9D0C24
102
{ACAD_REACTORS
330
7DE1B343D9D0C0A
102
}
330
7DE1B343D9D0C0A
100
AcDbXrecord
 10
0.0
 20
0.0
 30
0.0
  0
XRECORD
  5
7DE1B343D9D0C21
102
{ACAD_REACTORS
330
7DE1B343D9D0C0A
102
}
330
7DE1B343D9D0C0A
100
AcDbXrecord
340
0
  0
XRECORD
  5
7DE1B343D9D0C22
102
{ACAD_REACTORS
330
7DE1B343D9D0C0A
102
}
330
7DE1B343D9D0C0A
100
AcDbXrecord
 70
     0
  0
XRECORD
  5
7DE1B343D9D0C16
102
{ACAD_REACTORS
330
7DE1B343D9D0C0A
102
}
330
7DE1B343D9D0C0A
100
AcDbXrecord
  1
{7C9522E2-8DB4-11D6-88E6-0090279574E7}
  0
DICTIONARYVAR
  5
7DE1B343D9D0C08
102
{ACAD_REACTORS
330
7DE1B343D9D0C07
102
}
330
7DE1B343D9D0C07
100
DictionaryVariables
280
     0
  1
1
  0
ENDSEC
  0
EOF
