  0
SECTION
  2
HEADER
  9
$ACADVER
  1
AC1014
  9
$ACADMAINTVER
 70
     9
  9
$DWGCODEPAGE
  3
ANSI_1252
  9
$INSBASE
 10
1.15625
 20
2.953125
 30
0.0
  9
$EXTMIN
 10
-0.8656212509259212
 20
0.3701063959174184
 30
0.0
  9
$EXTMAX
 10
3.953881670467016
 20
5.985131670467016
 30
0.0
  9
$LIMMIN
 10
0.0
 20
0.0
  9
$LIMMAX
 10
18.0
 20
12.0
  9
$ORTHOMODE
 70
     1
  9
$REGENMODE
 70
     1
  9
$FILLMODE
 70
     1
  9
$QTEXTMODE
 70
     0
  9
$MIRRTEXT
 70
     0
  9
$DRAGMODE
 70
     2
  9
$LTSCALE
 40
1.0
  9
$OSMODE
 70
    39
  9
$ATTMODE
 70
     1
  9
$TEXTSIZE
 40
0.125
  9
$TRACEWID
 40
0.05
  9
$TEXTSTYLE
  7
ROMANS
  9
$CLAYER
  8
0
  9
$CELTYPE
  6
BYLAYER
  9
$CECOLOR
 62
   256
  9
$CELTSCALE
 40
1.0
  9
$DELOBJ
 70
     1
  9
$DISPSILH
 70
     1
  9
$DIMSCALE
 40
1.0
  9
$DIMASZ
 40
0.125
  9
$DIMEXO
 40
0.125
  9
$DIMDLI
 40
0.375
  9
$DIMRND
 40
0.0
  9
$DIMDLE
 40
0.0
  9
$DIMEXE
 40
0.125
  9
$DIMTP
 40
0.0
  9
$DIMTM
 40
0.0
  9
$DIMTXT
 40
0.125
  9
$DIMCEN
 40
-0.125
  9
$DIMTSZ
 40
0.0
  9
$DIMTOL
 70
     0
  9
$DIMLIM
 70
     0
  9
$DIMTIH
 70
     1
  9
$DIMTOH
 70
     1
  9
$DIMSE1
 70
     0
  9
$DIMSE2
 70
     0
  9
$DIMTAD
 70
     0
  9
$DIMZIN
 70
     4
  9
$DIMBLK
  1

  9
$DIMASO
 70
     1
  9
$DIMSHO
 70
     1
  9
$DIMPOST
  1

  9
$DIMAPOST
  1

  9
$DIMALT
 70
     0
  9
$DIMALTD
 70
     2
  9
$DIMALTF
 40
25.4
  9
$DIMLFAC
 40
1.0
  9
$DIMTOFL
 70
     0
  9
$DIMTVP
 40
0.0
  9
$DIMTIX
 70
     1
  9
$DIMSOXD
 70
     0
  9
$DIMSAH
 70
     0
  9
$DIMBLK1
  1

  9
$DIMBLK2
  1

  9
$DIMSTYLE
  2
STANDARD
  9
$DIMCLRD
 70
     0
  9
$DIMCLRE
 70
     0
  9
$DIMCLRT
 70
     0
  9
$DIMTFAC
 40
1.0
  9
$DIMGAP
 40
0.09
  9
$DIMJUST
 70
     0
  9
$DIMSD1
 70
     0
  9
$DIMSD2
 70
     0
  9
$DIMTOLJ
 70
     1
  9
$DIMTZIN
 70
     4
  9
$DIMALTZ
 70
     0
  9
$DIMALTTZ
 70
     0
  9
$DIMFIT
 70
     3
  9
$DIMUPT
 70
     0
  9
$DIMUNIT
 70
     2
  9
$DIMDEC
 70
     3
  9
$DIMTDEC
 70
     3
  9
$DIMALTU
 70
     2
  9
$DIMALTTD
 70
     2
  9
$DIMTXSTY
  7
ROMANS
  9
$DIMAUNIT
 70
     0
  9
$LUNITS
 70
     2
  9
$LUPREC
 70
     3
  9
$SKETCHINC
 40
0.1
  9
$FILLETRAD
 40
0.03125
  9
$AUNITS
 70
     0
  9
$AUPREC
 70
     0
  9
$MENU
  1
ACAD
  9
$ELEVATION
 40
0.0
  9
$PELEVATION
 40
0.0
  9
$THICKNESS
 40
0.0
  9
$LIMCHECK
 70
     0
  9
$BLIPMODE
 70
     0
  9
$CHAMFERA
 40
0.0
  9
$CHAMFERB
 40
0.0
  9
$CHAMFERC
 40
0.0
  9
$CHAMFERD
 40
0.0
  9
$SKPOLY
 70
     0
  9
$TDCREATE
 40
2448994.345921875
  9
$TDUPDATE
 40
2452458.297838310
  9
$TDINDWG
 40
0.0023806481
  9
$TDUSRTIMER
 40
0.0023806481
  9
$USRTIMER
 70
     1
  9
$ANGBASE
 50
0.0
  9
$ANGDIR
 70
     0
  9
$PDMODE
 70
     0
  9
$PDSIZE
 40
0.0
  9
$PLINEWID
 40
0.0
  9
$COORDS
 70
     2
  9
$SPLFRAME
 70
     0
  9
$SPLINETYPE
 70
     6
  9
$SPLINESEGS
 70
     8
  9
$ATTDIA
 70
     0
  9
$ATTREQ
 70
     1
  9
$HANDLING
 70
 22529
  9
$HANDSEED
  5
7DE1B343D9D08AE
  9
$SURFTAB1
 70
     6
  9
$SURFTAB2
 70
     6
  9
$SURFTYPE
 70
     6
  9
$SURFU
 70
     6
  9
$SURFV
 70
     6
  9
$UCSNAME
  2

  9
$UCSORG
 10
0.0
 20
0.0
 30
0.0
  9
$UCSXDIR
 10
1.0
 20
0.0
 30
0.0
  9
$UCSYDIR
 10
0.0
 20
1.0
 30
0.0
  9
$PUCSNAME
  2

  9
$PUCSORG
 10
0.0
 20
0.0
 30
0.0
  9
$PUCSXDIR
 10
1.0
 20
0.0
 30
0.0
  9
$PUCSYDIR
 10
0.0
 20
1.0
 30
0.0
  9
$USERI1
 70
     0
  9
$USERI2
 70
     0
  9
$USERI3
 70
     0
  9
$USERI4
 70
     0
  9
$USERI5
 70
     0
  9
$USERR1
 40
0.0
  9
$USERR2
 40
0.0
  9
$USERR3
 40
0.0
  9
$USERR4
 40
0.0
  9
$USERR5
 40
0.0
  9
$WORLDVIEW
 70
     1
  9
$SHADEDGE
 70
     3
  9
$SHADEDIF
 70
    70
  9
$TILEMODE
 70
     1
  9
$MAXACTVP
 70
    16
  9
$PINSBASE
 10
-0.090640064035764
 20
50.00000000000001
 30
1.730945129404639
  9
$PLIMCHECK
 70
     0
  9
$PEXTMIN
 10
1.000000000000000E+20
 20
1.000000000000000E+20
 30
1.000000000000000E+20
  9
$PEXTMAX
 10
-1.000000000000000E+20
 20
-1.000000000000000E+20
 30
-1.000000000000000E+20
  9
$PLIMMIN
 10
0.0
 20
0.0
  9
$PLIMMAX
 10
12.0
 20
9.0
  9
$UNITMODE
 70
     0
  9
$VISRETAIN
 70
     0
  9
$PLINEGEN
 70
     1
  9
$PSLTSCALE
 70
     0
  9
$TREEDEPTH
 70
  3020
  9
$PICKSTYLE
 70
     1
  9
$CMLSTYLE
  2
STANDARD
  9
$CMLJUST
 70
     0
  9
$CMLSCALE
 40
1.0
  9
$PROXYGRAPHICS
 70
     1
  9
$MEASUREMENT
 70
     0
  0
ENDSEC
  0
SECTION
  2
CLASSES
  0
CLASS
  1
LWPOLYLINE
  2
AcDbPolyline
  3
AutoCAD 2000
 90
        0
280
     0
281
     1
  0
CLASS
  1
ACDBDICTIONARYWDFLT
  2
AcDbDictionaryWithDefault
  3
AutoCAD 2000
 90
        0
280
     0
281
     0
  0
CLASS
  1
ACDBPLACEHOLDER
  2
AcDbPlaceHolder
  3
AutoCAD 2000
 90
        0
280
     0
281
     0
  0
CLASS
  1
LAYOUT
  2
AcDbLayout
  3
AutoCAD 2000
 90
        0
280
     0
281
     0
  0
CLASS
  1
DICTIONARYVAR
  2
AcDbDictionaryVar
  3
AutoCAD 2000
 90
        0
280
     0
281
     0
  0
CLASS
  1
LONG_TRANSACTION
  2
AcDbLongTransaction
  3
AutoCAD 2000
 90
        0
280
     0
281
     0
  0
CLASS
  1
LWPOLYLINE
  2
AcDbPolyline
  3
AutoCAD 2000
 90
        0
280
     0
281
     1
  0
CLASS
  1
HATCH
  2
AcDbHatch
  3
AutoCAD 2000
 90
        0
280
     0
281
     1
  0
CLASS
  1
XRECORD
  2
AcDbXrecord
  3
AutoCAD 2000
 90
        0
280
     0
281
     0
  0
ENDSEC
  0
SECTION
  2
TABLES
  0
TABLE
  2
VPORT
  5
7DE1B343D9D0855
330
0
100
AcDbSymbolTable
 70
     2
  0
VPORT
  5
7DE1B343D9D0889
330
7DE1B343D9D0855
100
AcDbSymbolTableRecord
100
AcDbViewportTableRecord
  2
*ACTIVE
 70
     0
 10
0.0
 20
0.0
 11
1.0
 21
1.0
 12
9.810581901486326
 22
3.177429223872522
 13
0.0
 23
0.0
 14
0.015625
 24
0.015625
 15
0.0
 25
0.0
 16
0.0
 26
0.0
 36
1.0
 17
0.0
 27
0.0
 37
0.0
 40
6.339931649642124
 41
4.320930232558139
 42
50.0
 43
0.0
 44
0.0
 50
0.0
 51
0.0
 71
     0
 72
  2000
 73
     1
 74
     0
 75
     1
 76
     0
 77
     0
 78
     0
  0
ENDTAB
  0
TABLE
  2
LTYPE
  5
7DE1B343D9D0852
330
0
100
AcDbSymbolTable
 70
     1
  0
LTYPE
  5
7DE1B343D9D085F
330
7DE1B343D9D0852
100
AcDbSymbolTableRecord
100
AcDbLinetypeTableRecord
  2
BYBLOCK
 70
     0
  3

 72
    65
 73
     0
 40
0.0
  0
LTYPE
  5
7DE1B343D9D0860
330
7DE1B343D9D0852
100
AcDbSymbolTableRecord
100
AcDbLinetypeTableRecord
  2
BYLAYER
 70
     0
  3

 72
    65
 73
     0
 40
0.0
  0
LTYPE
  5
7DE1B343D9D0861
330
7DE1B343D9D0852
100
AcDbSymbolTableRecord
100
AcDbLinetypeTableRecord
  2
CONTINUOUS
 70
     0
  3
Solid line
 72
    65
 73
     0
 40
0.0
  0
ENDTAB
  0
TABLE
  2
LAYER
  5
7DE1B343D9D084F
330
0
100
AcDbSymbolTable
 70
     2
  0
LAYER
  5
7DE1B343D9D085C
330
7DE1B343D9D084F
100
AcDbSymbolTableRecord
100
AcDbLayerTableRecord
  2
0
 70
     0
 62
     7
  6
CONTINUOUS
  0
LAYER
  5
7DE1B343D9D086C
330
7DE1B343D9D084F
100
AcDbSymbolTableRecord
100
AcDbLayerTableRecord
  2
TEXT
 70
     0
 62
     3
  6
CONTINUOUS
  0
ENDTAB
  0
TABLE
  2
STYLE
  5
7DE1B343D9D0850
330
0
100
AcDbSymbolTable
 70
     3
  0
STYLE
  5
7DE1B343D9D085D
330
7DE1B343D9D0850
100
AcDbSymbolTableRecord
100
AcDbTextStyleTableRecord
  2
STANDARD
 70
     0
 40
0.0
 41
1.0
 50
0.0
 71
     0
 42
0.3125
  3
txt
  4

  0
STYLE
  5
7DE1B343D9D0869
330
7DE1B343D9D0850
100
AcDbSymbolTableRecord
100
AcDbTextStyleTableRecord
  2
ITALICC
 70
     0
 40
0.0
 41
1.0
 50
0.0
 71
     0
 42
0.125
  3
italicc
  4

  0
STYLE
  5
7DE1B343D9D0879
330
7DE1B343D9D0850
100
AcDbSymbolTableRecord
100
AcDbTextStyleTableRecord
  2
ROMANS
 70
     0
 40
0.0
 41
1.0
 50
0.0
 71
     0
 42
0.125
  3
romans.shx
  4

  0
ENDTAB
  0
TABLE
  2
VIEW
  5
7DE1B343D9D0853
330
0
100
AcDbSymbolTable
 70
     0
  0
ENDTAB
  0
TABLE
  2
UCS
  5
7DE1B343D9D0854
330
0
100
AcDbSymbolTable
 70
     0
  0
ENDTAB
  0
TABLE
  2
APPID
  5
7DE1B343D9D0856
330
0
100
AcDbSymbolTable
 70
     1
  0
APPID
  5
7DE1B343D9D085E
330
7DE1B343D9D0856
100
AcDbSymbolTableRecord
100
AcDbRegAppTableRecord
  2
ACAD
 70
     0
  0
ENDTAB
  0
TABLE
  2
DIMSTYLE
  5
7DE1B343D9D0857
330
0
100
AcDbSymbolTable
 70
     1
  0
DIMSTYLE
105
7DE1B343D9D0871
330
7DE1B343D9D0857
100
AcDbSymbolTableRecord
100
AcDbDimStyleTableRecord
  2
STANDARD
 70
     0
  3

  4

  5

  6

  7

 40
1.0
 41
0.125
 42
0.125
 43
0.375
 44
0.125
 45
0.0
 46
0.0
 47
0.0
 48
0.0
140
0.125
141
-0.125
142
0.0
143
25.4
144
1.0
145
0.0
146
1.0
147
0.09
 71
     0
 72
     0
 73
     1
 74
     1
 75
     0
 76
     0
 77
     0
 78
     4
170
     0
171
     2
172
     0
173
     0
174
     1
175
     0
176
     0
177
     0
178
     0
270
     2
271
     3
272
     3
273
     2
274
     2
340
7DE1B343D9D0879
275
     0
280
     0
281
     0
282
     0
283
     1
284
     4
285
     0
286
     0
287
     3
288
     0
  0
ENDTAB
  0
TABLE
  2
BLOCK_RECORD
  5
7DE1B343D9D084E
330
0
100
AcDbSymbolTable
 70
     0
  0
BLOCK_RECORD
  5
7DE1B343D9D0865
102
{ACAD_XDICTIONARY
360
7DE1B343D9D08AC
102
}
330
7DE1B343D9D084E
100
AcDbSymbolTableRecord
100
AcDbBlockTableRecord
  2
*MODEL_SPACE
  0
BLOCK_RECORD
  5
7DE1B343D9D0862
102
{ACAD_XDICTIONARY
360
7DE1B343D9D08AA
102
}
330
7DE1B343D9D084E
100
AcDbSymbolTableRecord
100
AcDbBlockTableRecord
  2
*PAPER_SPACE
  0
ENDTAB
  0
ENDSEC
  0
SECTION
  2
BLOCKS
  0
BLOCK
  5
7DE1B343D9D086F
330
7DE1B343D9D0865
100
AcDbEntity
  8
0
100
AcDbBlockBegin
  2
*MODEL_SPACE
 70
     0
 10
0.0
 20
0.0
 30
0.0
  3
*MODEL_SPACE
  1

  0
ENDBLK
  5
7DE1B343D9D0870
330
7DE1B343D9D0865
100
AcDbEntity
  8
0
100
AcDbBlockEnd
  0
BLOCK
  5
7DE1B343D9D086D
330
7DE1B343D9D0862
100
AcDbEntity
 67
     1
  8
0
100
AcDbBlockBegin
  2
*PAPER_SPACE
 70
     0
 10
0.0
 20
0.0
 30
0.0
  3
*PAPER_SPACE
  1

  0
ENDBLK
  5
7DE1B343D9D086E
330
7DE1B343D9D0862
100
AcDbEntity
 67
     1
  8
0
100
AcDbBlockEnd
  0
ENDSEC
  0
SECTION
  2
ENTITIES
  0
LWPOLYLINE
  5
7DE1B343D9D04D7
330
7DE1B343D9D0865
100
AcDbEntity
  8
0
100
AcDbPolyline
 90
       30
 70
     1
 43
0.0
 10
-0.8291482997481116
 20
5.171760791693543
 42
-0.409793818581073
 10
3.140510791693543
 20
1.202101700251888
 42
-0.416428618296577
 10
3.110511648255841
 20
1.171874999999999
 10
1.670511649999999
 20
1.171874999999999
 42
-0.504041494324694
 10
1.641822507321109
 20
1.210646151141681
 10
1.680532739605919
 20
1.337261615772585
 42
-0.9999999999999998
 10
1.740301786853609
 20
1.318988384227413
 10
1.723986963028821
 20
1.265624999999999
 10
1.80568163150438
 20
1.265624999999999
 10
1.827583142861925
 20
1.337261615772585
 42
-0.9999999999999982
 10
1.887352190109613
 20
1.318988384227413
 10
1.88059145008041
 20
1.296874999999999
 10
2.982499542459709
 20
1.296874999999999
 42
0.4260738267712786
 10
3.012475156575129
 20
1.328084362808842
 42
0.1284958701818834
 10
2.441104779703878
 20
3.202258762682768
 42
0.6456984348862163
 10
2.328102187622255
 20
3.187783869023379
 10
2.274364780517508
 20
3.012016730284266
 42
-1.000000000000003
 10
2.199653471457897
 20
3.034858269715731
 10
2.274723923962896
 20
3.2804026558625
 42
0.2400825149372987
 10
2.235304475315043
 20
3.503952173908231
 42
0.2248501619282578
 10
-0.7031656371911579
 20
5.043725156575129
 42
0.4260738267712743
 10
-0.734375
 20
5.013749542459709
 10
-0.734375
 20
4.431874999999999
 10
-0.7443749999999998
 20
4.421875
 10
-0.734375
 20
4.411875
 10
-0.734375
 20
3.701761649999999
 42
-0.4142135623730948
 10
-0.7643749999999998
 20
3.671761649999999
 10
-0.8293749999999997
 20
3.671761649999999
 42
-0.4142135623730951
 10
-0.8593749999999996
 20
3.701761649999999
 10
-0.859375
 20
5.14176164825584
 42
-0.4164286182965704
  0
TEXT
  5
7DE1B343D9D0710
330
7DE1B343D9D0865
100
AcDbEntity
  8
TEXT
100
AcDbText
 10
0.3251488095238094
 20
0.828125
 30
0.0
 40
0.125
  1
PART #110152
  7
ITALICC
 72
     1
 11
1.078125
 21
0.828125
 31
0.0
100
AcDbText
  0
TEXT
  5
7DE1B343D9D0711
330
7DE1B343D9D0865
100
AcDbEntity
  8
TEXT
100
AcDbText
 10
1.49143015825032
 20
0.3812023573276249
 30
0.0
 40
0.0522247191011236
  1
Phone  1-800-328-2495
 41
1.272321428571429
 72
     5
 11
2.820362742519984
 21
0.3812023573276249
 31
0.0
100
AcDbText
  0
TEXT
  5
7DE1B343D9D0712
330
7DE1B343D9D0865
100
AcDbEntity
  8
TEXT
100
AcDbText
 10
1.49143015825032
 20
0.6609776382265014
 30
0.0
 40
0.0522247191011236
  1
Stylmark  Incorporated
 41
1.221428571428573
 72
     5
 11
2.820362742519984
 21
0.6609776382265014
 31
0.0
100
AcDbText
  0
TEXT
  5
7DE1B343D9D0713
330
7DE1B343D9D0865
100
AcDbEntity
  8
TEXT
100
AcDbText
 10
1.49143015825032
 20
0.5677192112602092
 30
0.0
 40
0.0522247191011236
  1
6536 Main St. N.E. * P.O. Box 32008
 41
0.8388932496075366
 72
     5
 11
2.820362742519984
 21
0.5677192112602092
 31
0.0
100
AcDbText
  0
TEXT
  5
7DE1B343D9D0714
330
7DE1B343D9D0865
100
AcDbEntity
  8
TEXT
100
AcDbText
 10
1.49143015825032
 20
0.4744607842939171
 30
0.0
 40
0.0522247191011236
  1
Minneapolis, MN 55432-0008
 41
1.11444212721585
 72
     5
 11
2.820362742519984
 21
0.4744607842939171
 31
0.0
100
AcDbText
  0
LWPOLYLINE
  5
7DE1B343D9D0715
330
7DE1B343D9D0865
100
AcDbEntity
  8
TEXT
100
AcDbPolyline
 90
        3
 70
     0
 43
0.0006660908203125
 10
-0.6645235338169871
 20
0.4948471199650597
 10
-0.6645235338169871
 20
0.3816116805119321
 10
-0.5512880943638648
 20
0.3816116805119321
  0
LWPOLYLINE
  5
7DE1B343D9D071A
330
7DE1B343D9D0865
100
AcDbEntity
  8
TEXT
100
AcDbPolyline
 90
        3
 70
     0
 43
0.0006660908203125
 10
-0.6378799010044896
 20
0.4948471199650597
 10
-0.6378799010044896
 20
0.4082553133244331
 10
-0.5512880943638648
 20
0.4082553133244331
  0
LWPOLYLINE
  5
7DE1B343D9D071F
330
7DE1B343D9D0865
100
AcDbEntity
  8
TEXT
100
AcDbPolyline
 90
        2
 70
     0
 43
0.0001332181640625
 10
-0.5912535435826128
 20
0.504838482269745
 10
-0.6645235338169871
 20
0.4948471199650597
  0
LWPOLYLINE
  5
7DE1B343D9D0723
330
7DE1B343D9D0865
100
AcDbEntity
  8
TEXT
100
AcDbPolyline
 90
        2
 70
     0
 43
0.0001332181640625
 10
-0.6378799010044896
 20
0.4948471199650597
 10
-0.5779317271763622
 20
0.504838482269745
  0
LWPOLYLINE
  5
7DE1B343D9D0727
330
7DE1B343D9D0865
100
AcDbEntity
  8
TEXT
100
AcDbPolyline
 90
        2
 70
     0
 43
0.0001332181640625
 10
-0.6378799010044896
 20
0.4082553133244331
 10
-0.5779317271763622
 20
0.4682034871525587
  0
LWPOLYLINE
  5
7DE1B343D9D072B
330
7DE1B343D9D0865
100
AcDbEntity
  8
TEXT
100
AcDbPolyline
 90
        3
 70
     0
 43
0.0006660908203125
 10
-0.5512880943638648
 20
0.6480480086369354
 10
-0.6645235338169871
 20
0.6480480086369354
 10
-0.6645235338169871
 20
0.5348125691838077
  0
LWPOLYLINE
  5
7DE1B343D9D0730
330
7DE1B343D9D0865
100
AcDbEntity
  8
TEXT
100
AcDbPolyline
 90
        3
 70
     0
 43
0.0006660908203125
 10
-0.5512880943638648
 20
0.6214043758244343
 10
-0.6378799010044896
 20
0.6214043758244343
 10
-0.6378799010044896
 20
0.5348125691838077
  0
LWPOLYLINE
  5
7DE1B343D9D0735
330
7DE1B343D9D0865
100
AcDbEntity
  8
TEXT
100
AcDbPolyline
 90
        2
 70
     0
 43
0.0001332181640625
 10
-0.6378799010044896
 20
0.6214043758244343
 10
-0.577931727176364
 20
0.5614562019963088
  0
LWPOLYLINE
  5
7DE1B343D9D0739
330
7DE1B343D9D0865
100
AcDbEntity
  8
TEXT
100
AcDbPolyline
 90
        2
 70
     0
 43
0.0001332181640625
 10
-0.6378799010044896
 20
0.5348125691838077
 10
-0.577931727176364
 20
0.524821206879119
  0
LWPOLYLINE
  5
7DE1B343D9D073D
330
7DE1B343D9D0865
100
AcDbEntity
  8
TEXT
100
AcDbPolyline
 90
        2
 70
     0
 43
0.0001332181640625
 10
-0.6645235338169871
 20
0.5348125691838077
 10
-0.5912535435826128
 20
0.524821206879119
  0
LWPOLYLINE
  5
7DE1B343D9D0741
330
7DE1B343D9D0865
100
AcDbEntity
  8
TEXT
100
AcDbPolyline
 90
        2
 70
     0
 43
0.0006660908203125
 10
-0.6378799010044896
 20
0.4948471199650597
 10
-0.6645235338169871
 20
0.4948471199650597
  0
LWPOLYLINE
  5
7DE1B343D9D0745
330
7DE1B343D9D0865
100
AcDbEntity
  8
TEXT
100
AcDbPolyline
 90
        2
 70
     0
 43
0.0006660908203125
 10
-0.6378799010044896
 20
0.5348125691838077
 10
-0.6645235338169871
 20
0.5348125691838077
  0
LINE
  5
7DE1B343D9D0749
330
7DE1B343D9D0865
100
AcDbEntity
  8
TEXT
100
AcDbLine
 10
0.8506668953095104
 20
0.5837713139801664
 30
0.0
 11
0.7434606219222211
 21
0.5837713139801664
 31
0.0
  0
LINE
  5
7DE1B343D9D074A
330
7DE1B343D9D0865
100
AcDbEntity
  8
TEXT
100
AcDbLine
 10
0.8796977936539889
 20
0.6480480086369318
 30
0.0
 11
0.7448658844369298
 21
0.6480480086369318
 31
0.0
  0
ARC
  5
7DE1B343D9D074B
330
7DE1B343D9D0865
100
AcDbEntity
  8
TEXT
100
AcDbCircle
 10
0.8041799808302467
 20
0.4788107593739155
 30
0.0
 40
0.0676855811441166
100
AcDbArc
 50
90.0
 51
153.7768192527749
  0
LWPOLYLINE
  5
7DE1B343D9D074C
330
7DE1B343D9D0865
100
AcDbEntity
  8
TEXT
100
AcDbPolyline
 90
        2
 70
     0
 43
0.0
 10
0.7424281264674111
 20
0.425065920598859
 42
0.2901071551932823
 10
0.7855040593350467
 20
0.3815749756484208
 42
5.328517124445801
  0
ARC
  5
7DE1B343D9D0750
330
7DE1B343D9D0865
100
AcDbEntity
  8
TEXT
100
AcDbCircle
 10
0.099048603158761
 20
0.4413673669864706
 30
0.0
 40
0.0601160179737537
100
AcDbArc
 50
180.0000000000003
 51
264.0521544866073
  0
LINE
  5
7DE1B343D9D0751
330
7DE1B343D9D0865
100
AcDbEntity
  8
TEXT
100
AcDbLine
 10
0.1025639587843088
 20
0.68243592623107
 30
0.0
 11
0.0425213539403018
 21
0.68243592623107
 31
0.0
  0
ARC
  5
7DE1B343D9D0752
330
7DE1B343D9D0865
100
AcDbEntity
  8
TEXT
100
AcDbCircle
 10
-0.1332103989582096
 20
0.5659605491904301
 30
0.0
 40
0.0820874594465043
100
AcDbArc
 50
90.0
 51
270.0
  0
LWPOLYLINE
  5
7DE1B343D9D0753
330
7DE1B343D9D0865
100
AcDbEntity
  8
TEXT
100
AcDbPolyline
 90
        2
 70
     0
 43
0.0001332181640625
 10
-0.5412967320591742
 20
0.5747780184025558
 10
-0.5512880943638648
 20
0.6480480086369354
  0
LWPOLYLINE
  5
7DE1B343D9D0757
330
7DE1B343D9D0865
100
AcDbEntity
  8
TEXT
100
AcDbPolyline
 90
        2
 70
     0
 43
0.0001332181640625
 10
-0.5512880943638648
 20
0.6214043758244343
 10
-0.5412967320591742
 20
0.5614562019963088
  0
LWPOLYLINE
  5
7DE1B343D9D075B
330
7DE1B343D9D0865
100
AcDbEntity
  8
TEXT
100
AcDbPolyline
 90
        3
 70
     0
 43
0.0006660908203125
 10
-0.3980872056919873
 20
0.5348125691838077
 10
-0.3980872056919873
 20
0.6480480086369354
 10
-0.5113226451451132
 20
0.6480480086369354
  0
LWPOLYLINE
  5
7DE1B343D9D0760
330
7DE1B343D9D0865
100
AcDbEntity
  8
TEXT
100
AcDbPolyline
 90
        3
 70
     0
 43
0.0006660908203125
 10
-0.4247308385044884
 20
0.5348125691838077
 10
-0.4247308385044884
 20
0.6214043758244343
 10
-0.5113226451451132
 20
0.6214043758244343
  0
LWPOLYLINE
  5
7DE1B343D9D0765
330
7DE1B343D9D0865
100
AcDbEntity
  8
TEXT
100
AcDbPolyline
 90
        2
 70
     0
 43
0.0001332181640625
 10
-0.4247308385044884
 20
0.6214043758244343
 10
-0.4846790123326122
 20
0.5614562019963088
  0
LWPOLYLINE
  5
7DE1B343D9D0769
330
7DE1B343D9D0865
100
AcDbEntity
  8
TEXT
100
AcDbPolyline
 90
        2
 70
     0
 43
0.0001332181640625
 10
-0.5113226451451132
 20
0.6214043758244343
 10
-0.521314007449802
 20
0.5614562019963088
  0
LWPOLYLINE
  5
7DE1B343D9D076D
330
7DE1B343D9D0865
100
AcDbEntity
  8
TEXT
100
AcDbPolyline
 90
        2
 70
     0
 43
0.0001332181640625
 10
-0.5113226451451132
 20
0.6480480086369354
 10
-0.521314007449802
 20
0.5747780184025558
  0
LWPOLYLINE
  5
7DE1B343D9D0771
330
7DE1B343D9D0865
100
AcDbEntity
  8
TEXT
100
AcDbPolyline
 90
        2
 70
     0
 43
0.0001332181640625
 10
-0.4713571959263634
 20
0.524821206879119
 10
-0.3980872056919873
 20
0.5348125691838077
  0
LWPOLYLINE
  5
7DE1B343D9D0775
330
7DE1B343D9D0865
100
AcDbEntity
  8
TEXT
100
AcDbPolyline
 90
        2
 70
     0
 43
0.0001332181640625
 10
-0.4247308385044884
 20
0.5348125691838077
 10
-0.4846790123326122
 20
0.524821206879119
  0
LWPOLYLINE
  5
7DE1B343D9D0779
330
7DE1B343D9D0865
100
AcDbEntity
  8
TEXT
100
AcDbPolyline
 90
        2
 70
     0
 43
0.0001332181640625
 10
-0.3980872056919873
 20
0.4948471199650597
 10
-0.4713571959263634
 20
0.504838482269745
  0
LWPOLYLINE
  5
7DE1B343D9D077D
330
7DE1B343D9D0865
100
AcDbEntity
  8
TEXT
100
AcDbPolyline
 90
        2
 70
     0
 43
0.0001332181640625
 10
-0.4247308385044884
 20
0.4948471199650597
 10
-0.4846790123326122
 20
0.504838482269745
  0
LWPOLYLINE
  5
7DE1B343D9D0781
330
7DE1B343D9D0865
100
AcDbEntity
  8
TEXT
100
AcDbPolyline
 90
        2
 70
     0
 43
0.0001332181640625
 10
-0.4247308385044884
 20
0.4082553133244331
 10
-0.4846790123326122
 20
0.4682034871525587
  0
LWPOLYLINE
  5
7DE1B343D9D0785
330
7DE1B343D9D0865
100
AcDbEntity
  8
TEXT
100
AcDbPolyline
 90
        3
 70
     0
 43
0.0006660908203125
 10
-0.5113226451451132
 20
0.4082553133244331
 10
-0.4247308385044884
 20
0.4082553133244331
 10
-0.4247308385044884
 20
0.4948471199650597
  0
LWPOLYLINE
  5
7DE1B343D9D078A
330
7DE1B343D9D0865
100
AcDbEntity
  8
TEXT
100
AcDbPolyline
 90
        3
 70
     0
 43
0.0006660908203125
 10
-0.5113226451451132
 20
0.3816116805119321
 10
-0.3980872056919873
 20
0.3816116805119321
 10
-0.3980872056919873
 20
0.4948471199650597
  0
LWPOLYLINE
  5
7DE1B343D9D078F
330
7DE1B343D9D0865
100
AcDbEntity
  8
TEXT
100
AcDbPolyline
 90
        5
 70
     0
 43
0.0001332181640625
 10
-0.5412967320591742
 20
0.4548816707463082
 10
-0.5412967320591742
 20
0.4682034871525587
 10
-0.5779317271763622
 20
0.4682034871525587
 10
-0.5779317271763622
 20
0.504838482269745
 10
-0.5912535435826128
 20
0.504838482269745
  0
LWPOLYLINE
  5
7DE1B343D9D0796
330
7DE1B343D9D0865
100
AcDbEntity
  8
TEXT
100
AcDbPolyline
 90
        2
 70
     0
 43
0.0006660908203125
 10
-0.5512880943638648
 20
0.4082553133244331
 10
-0.5512880943638648
 20
0.3816116805119321
  0
LWPOLYLINE
  5
7DE1B343D9D079A
330
7DE1B343D9D0865
100
AcDbEntity
  8
TEXT
100
AcDbPolyline
 90
        2
 70
     0
 43
0.0001332181640625
 10
-0.5512880943638648
 20
0.4082553133244331
 10
-0.5412967320591742
 20
0.4682034871525587
  0
LWPOLYLINE
  5
7DE1B343D9D079E
330
7DE1B343D9D0865
100
AcDbEntity
  8
TEXT
100
AcDbPolyline
 90
        2
 70
     0
 43
0.0001332181640625
 10
-0.5512880943638648
 20
0.3816116805119321
 10
-0.5412967320591742
 20
0.4548816707463082
  0
LWPOLYLINE
  5
7DE1B343D9D07A2
330
7DE1B343D9D0865
100
AcDbEntity
  8
TEXT
100
AcDbPolyline
 90
        5
 70
     0
 43
0.0001332181640625
 10
-0.5912535435826128
 20
0.524821206879119
 10
-0.577931727176364
 20
0.524821206879119
 10
-0.577931727176364
 20
0.5614562019963088
 10
-0.5412967320591742
 20
0.5614562019963088
 10
-0.5412967320591742
 20
0.5747780184025558
  0
LWPOLYLINE
  5
7DE1B343D9D07A9
330
7DE1B343D9D0865
100
AcDbEntity
  8
TEXT
100
AcDbPolyline
 90
        5
 70
     0
 43
0.0001332181640625
 10
-0.521314007449802
 20
0.5747780184025558
 10
-0.521314007449802
 20
0.5614562019963088
 10
-0.4846790123326122
 20
0.5614562019963088
 10
-0.4846790123326122
 20
0.524821206879119
 10
-0.4713571959263634
 20
0.524821206879119
  0
LWPOLYLINE
  5
7DE1B343D9D07B0
330
7DE1B343D9D0865
100
AcDbEntity
  8
TEXT
100
AcDbPolyline
 90
        2
 70
     0
 43
0.0001332181640625
 10
-0.5113226451451132
 20
0.4082553133244331
 10
-0.521314007449802
 20
0.4682034871525587
  0
LWPOLYLINE
  5
7DE1B343D9D07B4
330
7DE1B343D9D0865
100
AcDbEntity
  8
TEXT
100
AcDbPolyline
 90
        2
 70
     0
 43
0.0001332181640625
 10
-0.521314007449802
 20
0.4548816707463082
 10
-0.5113226451451132
 20
0.3816116805119321
  0
LWPOLYLINE
  5
7DE1B343D9D07B8
330
7DE1B343D9D0865
100
AcDbEntity
  8
TEXT
100
AcDbPolyline
 90
        2
 70
     0
 43
0.0006660908203125
 10
-0.5113226451451132
 20
0.4082553133244331
 10
-0.5113226451451132
 20
0.3816116805119321
  0
LWPOLYLINE
  5
7DE1B343D9D07BC
330
7DE1B343D9D0865
100
AcDbEntity
  8
TEXT
100
AcDbPolyline
 90
        5
 70
     0
 43
0.0001332181640625
 10
-0.4713571959263634
 20
0.504838482269745
 10
-0.4846790123326122
 20
0.504838482269745
 10
-0.4846790123326122
 20
0.4682034871525587
 10
-0.521314007449802
 20
0.4682034871525587
 10
-0.521314007449802
 20
0.4548816707463082
  0
LWPOLYLINE
  5
7DE1B343D9D07C3
330
7DE1B343D9D0865
100
AcDbEntity
  8
TEXT
100
AcDbPolyline
 90
        2
 70
     0
 43
0.0006660908203125
 10
-0.4247308385044884
 20
0.5348125691838077
 10
-0.3980872056919873
 20
0.5348125691838077
  0
LWPOLYLINE
  5
7DE1B343D9D07C7
330
7DE1B343D9D0865
100
AcDbEntity
  8
TEXT
100
AcDbPolyline
 90
        2
 70
     0
 43
0.0006660908203125
 10
-0.4247308385044884
 20
0.4948471199650597
 10
-0.3980872056919873
 20
0.4948471199650597
  0
LINE
  5
7DE1B343D9D07CB
330
7DE1B343D9D0865
100
AcDbEntity
  8
TEXT
100
AcDbLine
 10
-0.1279730688439624
 20
0.5837713139801664
 30
0.0
 11
0.0389325851850089
 21
0.5837713139801664
 31
0.0
  0
LINE
  5
7DE1B343D9D07CC
330
7DE1B343D9D0865
100
AcDbEntity
  8
TEXT
100
AcDbLine
 10
-0.0623729325996614
 20
0.5479665923695385
 30
0.0
 11
-0.1279730688439624
 21
0.5479665923695385
 31
0.0
  0
LINE
  5
7DE1B343D9D07CD
330
7DE1B343D9D0865
100
AcDbEntity
  8
TEXT
100
AcDbLine
 10
-0.215297858404714
 20
0.3815749756484208
 30
0.0
 11
-0.0623729325996614
 21
0.3815749756484208
 31
0.0
  0
LINE
  5
7DE1B343D9D07CE
330
7DE1B343D9D0865
100
AcDbEntity
  8
TEXT
100
AcDbLine
 10
-0.0574325586933817
 20
0.4499319819818602
 30
0.0
 11
-0.2152978584047158
 21
0.4499319819818602
 31
0.0
  0
LINE
  5
7DE1B343D9D07CF
330
7DE1B343D9D0865
100
AcDbEntity
  8
TEXT
100
AcDbLine
 10
-0.1332103989582105
 20
0.4838730897439248
 30
0.0
 11
-0.0574325586933817
 21
0.4838730897439248
 31
0.0
  0
ARC
  5
7DE1B343D9D07D0
330
7DE1B343D9D0865
100
AcDbEntity
  8
TEXT
100
AcDbCircle
 10
-0.1279730688439615
 20
0.5658689531748542
 30
0.0
 40
0.017902360805315
100
AcDbArc
 50
90.0
 51
270.0
  0
LINE
  5
7DE1B343D9D07D1
330
7DE1B343D9D0865
100
AcDbEntity
  8
TEXT
100
AcDbLine
 10
-0.2152978584047158
 20
0.4499319819818602
 30
0.0
 11
-0.215297858404714
 21
0.3815749756484208
 31
0.0
  0
LINE
  5
7DE1B343D9D07D2
330
7DE1B343D9D0865
100
AcDbEntity
  8
TEXT
100
AcDbLine
 10
0.0389325851850089
 20
0.5837713139801664
 30
0.0
 11
0.0389325851850089
 21
0.4413673669864706
 31
0.0
  0
ARC
  5
7DE1B343D9D07D3
330
7DE1B343D9D0865
100
AcDbEntity
  8
TEXT
100
AcDbCircle
 10
-0.0623729325996605
 20
0.4647707840089779
 30
0.0
 40
0.0831958083605586
100
AcDbArc
 50
270.0
 51
90.0
  0
ARC
  5
7DE1B343D9D07D4
330
7DE1B343D9D0865
100
AcDbEntity
  8
TEXT
100
AcDbCircle
 10
-0.0574325586933808
 20
0.4669025358628942
 30
0.0
 40
0.0169705538810321
100
AcDbArc
 50
270.0
 51
90.0
  0
LWPOLYLINE
  5
7DE1B343D9D07D5
330
7DE1B343D9D0865
100
AcDbEntity
  8
TEXT
100
AcDbPolyline
 90
        2
 70
     0
 43
0.0006660908203125
 10
-0.5512880943638648
 20
0.6214043758244343
 10
-0.5512880943638648
 20
0.6480480086369354
  0
LWPOLYLINE
  5
7DE1B343D9D07D9
330
7DE1B343D9D0865
100
AcDbEntity
  8
TEXT
100
AcDbPolyline
 90
        2
 70
     0
 43
0.0006660908203125
 10
-0.5113226451451132
 20
0.6214043758244343
 10
-0.5113226451451132
 20
0.6480480086369354
  0
LINE
  5
7DE1B343D9D07DD
330
7DE1B343D9D0865
100
AcDbEntity
  8
TEXT
100
AcDbLine
 10
0.0425213539403018
 20
0.6480480086369318
 30
0.0
 11
-0.1332103989582105
 21
0.6480480086369318
 31
0.0
  0
LINE
  5
7DE1B343D9D07DE
330
7DE1B343D9D0865
100
AcDbEntity
  8
TEXT
100
AcDbLine
 10
0.0425213539403018
 20
0.68243592623107
 30
0.0
 11
0.0425213539403018
 21
0.6480480086369318
 31
0.0
  0
LINE
  5
7DE1B343D9D07DF
330
7DE1B343D9D0865
100
AcDbEntity
  8
TEXT
100
AcDbLine
 10
0.232993245960154
 20
0.5471760125238112
 30
0.0
 11
0.1743629249282161
 21
0.6480480086369318
 31
0.0
  0
LINE
  5
7DE1B343D9D07E0
330
7DE1B343D9D0865
100
AcDbEntity
  8
TEXT
100
AcDbLine
 10
0.2917418087660195
 20
0.6480480086369318
 30
0.0
 11
0.232993245960154
 21
0.5471760125238112
 31
0.0
  0
LINE
  5
7DE1B343D9D07E1
330
7DE1B343D9D0865
100
AcDbEntity
  8
TEXT
100
AcDbLine
 10
0.3886724341257608
 20
0.4639628137514201
 30
0.0
 11
0.3886724341257608
 21
0.7160594863757424
 31
0.0
  0
LINE
  5
7DE1B343D9D07E2
330
7DE1B343D9D0865
100
AcDbEntity
  8
TEXT
100
AcDbLine
 10
0.420984288263421
 20
0.6480480086369318
 30
0.0
 11
0.420984288263421
 21
0.4471838019045236
 31
0.0
  0
LINE
  5
7DE1B343D9D07E3
330
7DE1B343D9D0865
100
AcDbEntity
  8
TEXT
100
AcDbLine
 10
0.420984288263421
 20
0.4471838019045236
 30
0.0
 11
0.4039906513788197
 21
0.4471838019045236
 31
0.0
  0
LINE
  5
7DE1B343D9D07E4
330
7DE1B343D9D0865
100
AcDbEntity
  8
TEXT
100
AcDbLine
 10
0.3898120076219555
 20
0.3815749756484208
 30
0.0
 11
0.4878153413213902
 21
0.3815749756484208
 31
0.0
  0
LINE
  5
7DE1B343D9D07E5
330
7DE1B343D9D0865
100
AcDbEntity
  8
TEXT
100
AcDbLine
 10
0.2233930089631997
 20
0.4015334817534338
 30
0.0
 11
0.3206927150566443
 21
0.5658836926887019
 31
0.0
  0
ARC
  5
7DE1B343D9D07E6
330
7DE1B343D9D0865
100
AcDbEntity
  8
TEXT
100
AcDbCircle
 10
0.1893494490509857
 20
0.4211226979221166
 30
0.0
 40
0.0392772371940762
100
AcDbArc
 50
270.1604552698595
 51
330.0831797321295
  0
LINE
  5
7DE1B343D9D07E7
330
7DE1B343D9D0865
100
AcDbEntity
  8
TEXT
100
AcDbLine
 10
0.0928191926651145
 20
0.3815749756484208
 30
0.0
 11
0.1894594437401089
 21
0.3818456147467031
 31
0.0
  0
LWPOLYLINE
  5
7DE1B343D9D07E8
330
7DE1B343D9D0865
100
AcDbEntity
  8
TEXT
100
AcDbPolyline
 90
        6
 70
     1
 43
0.0
 10
0.1353429962402641
 20
0.5837713139801664
 10
0.105026402020056
 20
0.5837713139801664
 10
0.105026402020056
 20
0.4606603159252721
 42
0.407328721240804
 10
0.1165700531815323
 20
0.448841401248886
 10
0.1771917522262631
 20
0.448841401248886
 10
0.1946570926335811
 20
0.4816536302923651
  0
LINE
  5
7DE1B343D9D07F0
330
7DE1B343D9D0865
100
AcDbEntity
  8
TEXT
100
AcDbLine
 10
0.3206927150566443
 20
0.5658836926887019
 30
0.0
 11
0.3206927150566443
 21
0.4331263178633456
 31
0.0
  0
ARC
  5
7DE1B343D9D07F1
330
7DE1B343D9D0865
100
AcDbEntity
  8
TEXT
100
AcDbCircle
 10
0.4039906513788179
 20
0.462565608147949
 30
0.0
 40
0.0153818062434269
100
AcDbArc
 50
174.7883570302258
 51
270.0
  0
LWPOLYLINE
  5
7DE1B343D9D07F2
330
7DE1B343D9D0865
100
AcDbEntity
  8
TEXT
100
AcDbPolyline
 90
        2
 70
     0
 43
0.0
 10
0.3206927150566425
 20
0.4331263178633491
 42
0.3318488747599744
 10
0.3898120076219555
 20
0.3815749756484208
 42
-6.868794160588311
  0
LINE
  5
7DE1B343D9D07F6
330
7DE1B343D9D0865
100
AcDbEntity
  8
TEXT
100
AcDbLine
 10
0.5452044103106513
 20
0.3815749756484208
 30
0.0
 11
0.6122624570924913
 21
0.3815749756484208
 31
0.0
  0
LINE
  5
7DE1B343D9D07F7
330
7DE1B343D9D0865
100
AcDbEntity
  8
TEXT
100
AcDbLine
 10
0.5452044103106513
 20
0.5762175248140565
 30
0.0
 11
0.5452044103106513
 21
0.3815749756484208
 31
0.0
  0
LINE
  5
7DE1B343D9D07F8
330
7DE1B343D9D0865
100
AcDbEntity
  8
TEXT
100
AcDbLine
 10
0.4878153413213902
 20
0.5837713139801664
 30
0.0
 11
0.5376506211445378
 21
0.5837713139801664
 31
0.0
  0
LINE
  5
7DE1B343D9D07F9
330
7DE1B343D9D0865
100
AcDbEntity
  8
TEXT
100
AcDbLine
 10
0.4878153413213902
 20
0.3815749756484208
 30
0.0
 11
0.4878153413213902
 21
0.5837713139801664
 31
0.0
  0
LWPOLYLINE
  5
7DE1B343D9D07FA
330
7DE1B343D9D0865
100
AcDbEntity
  8
TEXT
100
AcDbPolyline
 90
        2
 70
     0
 43
0.0
 10
0.537650621144536
 20
0.5837713139801664
 42
-0.4142135623731017
 10
0.5452044103106495
 20
0.5762175248140565
 42
-0.9999999999999998
  0
LINE
  5
7DE1B343D9D07FE
330
7DE1B343D9D0865
100
AcDbEntity
  8
TEXT
100
AcDbLine
 10
0.7434606219222211
 20
0.5837713139801664
 30
0.0
 11
0.7434606219222211
 21
0.5087189079059598
 31
0.0
  0
LINE
  5
7DE1B343D9D07FF
330
7DE1B343D9D0865
100
AcDbEntity
  8
TEXT
100
AcDbLine
 10
0.6122624570924913
 20
0.5837713139801664
 30
0.0
 11
0.6663960540134415
 21
0.5837713139801664
 31
0.0
  0
LINE
  5
7DE1B343D9D0800
330
7DE1B343D9D0865
100
AcDbEntity
  8
TEXT
100
AcDbLine
 10
0.6122624570924913
 20
0.3815749756484208
 30
0.0
 11
0.6122624570924913
 21
0.5837713139801664
 31
0.0
  0
LWPOLYLINE
  5
7DE1B343D9D0801
330
7DE1B343D9D0865
100
AcDbEntity
  8
TEXT
100
AcDbPolyline
 90
        2
 70
     0
 43
0.0
 10
0.6663960540134397
 20
0.5837713139801664
 42
-0.4142135623731017
 10
0.6739498431795532
 20
0.5762175248140565
 42
-0.9999999999999998
  0
LWPOLYLINE
  5
7DE1B343D9D0805
330
7DE1B343D9D0865
100
AcDbEntity
  8
TEXT
100
AcDbPolyline
 90
        4
 70
     0
 43
0.0
 10
0.6739498431795532
 20
0.5762175248140565
 10
0.6739498431795532
 20
0.3815749756484208
 10
0.7424281264674111
 20
0.3815749756484208
 10
0.7424281264674111
 20
0.425065920598859
 42
-1.714843617202739
  0
LINE
  5
7DE1B343D9D080B
330
7DE1B343D9D0865
100
AcDbEntity
  8
TEXT
100
AcDbLine
 10
0.1025639587843088
 20
0.6480480086369318
 30
0.0
 11
0.1025639587843088
 21
0.68243592623107
 31
0.0
  0
LINE
  5
7DE1B343D9D080C
330
7DE1B343D9D0865
100
AcDbEntity
  8
TEXT
100
AcDbLine
 10
0.1743629249282161
 20
0.6480480086369318
 30
0.0
 11
0.1025639587843088
 21
0.6480480086369318
 31
0.0
  0
LINE
  5
7DE1B343D9D080D
330
7DE1B343D9D0865
100
AcDbEntity
  8
TEXT
100
AcDbLine
 10
0.3218637215593958
 20
0.6480480086369318
 30
0.0
 11
0.2917418087660195
 21
0.6480480086369318
 31
0.0
  0
LINE
  5
7DE1B343D9D080E
330
7DE1B343D9D0865
100
AcDbEntity
  8
TEXT
100
AcDbLine
 10
0.3218637215593958
 20
0.7160594863757424
 30
0.0
 11
0.3218637215593958
 21
0.6480480086369318
 31
0.0
  0
LINE
  5
7DE1B343D9D080F
330
7DE1B343D9D0865
100
AcDbEntity
  8
TEXT
100
AcDbLine
 10
0.3886724341257608
 20
0.7160594863757424
 30
0.0
 11
0.3218637215593958
 21
0.7160594863757424
 31
0.0
  0
LWPOLYLINE
  5
7DE1B343D9D0810
330
7DE1B343D9D0865
100
AcDbEntity
  8
TEXT
100
AcDbPolyline
 90
        3
 70
     0
 43
0.0
 10
0.7090841937237631
 20
0.6480480086369354
 10
0.5907840349077187
 20
0.6480480086369354
 10
0.5907840349077187
 20
0.6208805118760395
 42
-1.960274751411753
  0
LINE
  5
7DE1B343D9D0815
330
7DE1B343D9D0865
100
AcDbEntity
  8
TEXT
100
AcDbLine
 10
0.5550023441945573
 20
0.6480480086369318
 30
0.0
 11
0.420984288263421
 21
0.6480480086369318
 31
0.0
  0
LWPOLYLINE
  5
7DE1B343D9D0816
330
7DE1B343D9D0865
100
AcDbEntity
  8
TEXT
100
AcDbPolyline
 90
        2
 70
     0
 43
0.0
 10
0.5550023441945573
 20
0.6480480086369354
 42
-0.3328679258950098
 10
0.5907840349077187
 20
0.6208805118760395
 42
6.772930709997214
  0
LINE
  5
7DE1B343D9D081A
330
7DE1B343D9D0865
100
AcDbEntity
  8
TEXT
100
AcDbLine
 10
0.7448658844369298
 20
0.6480480086369318
 30
0.0
 11
0.7448658844369298
 21
0.619725462867288
 31
0.0
  0
LWPOLYLINE
  5
7DE1B343D9D081B
330
7DE1B343D9D0865
100
AcDbEntity
  8
TEXT
100
AcDbPolyline
 90
        2
 70
     0
 43
0.0
 10
0.7090841937237631
 20
0.6480480086369354
 42
-0.3277054968067132
 10
0.7448658844369281
 20
0.6197254628672915
 42
6.667889725900311
  0
LINE
  5
7DE1B343D9D081F
330
7DE1B343D9D0865
100
AcDbEntity
  8
TEXT
100
AcDbLine
 10
0.9586577325290299
 20
0.5428360300835045
 30
0.0
 11
0.9149069613471283
 21
0.6250863060796497
 31
0.0
  0
LINE
  5
7DE1B343D9D0820
330
7DE1B343D9D0865
100
AcDbEntity
  8
TEXT
100
AcDbLine
 10
0.9586577325290299
 20
0.6480480086369318
 30
0.0
 11
0.9586577325290299
 21
0.5428360300835045
 31
0.0
  0
LINE
  5
7DE1B343D9D0821
330
7DE1B343D9D0865
100
AcDbEntity
  8
TEXT
100
AcDbLine
 10
1.186341471467398
 20
0.5721826822253937
 30
0.0
 11
1.186341471467398
 21
0.7135122144045325
 31
0.0
  0
LINE
  5
7DE1B343D9D0822
330
7DE1B343D9D0865
100
AcDbEntity
  8
TEXT
100
AcDbLine
 10
1.233439630023383
 20
0.6480480086369318
 30
0.0
 11
1.186341471467398
 21
0.5721826822253937
 31
0.0
  0
LINE
  5
7DE1B343D9D0823
330
7DE1B343D9D0865
100
AcDbEntity
  8
TEXT
100
AcDbLine
 10
1.243874346787306
 20
0.5381547656959583
 30
0.0
 11
1.308431462753011
 21
0.6480480086369318
 31
0.0
  0
LINE
  5
7DE1B343D9D0824
330
7DE1B343D9D0865
100
AcDbEntity
  8
TEXT
100
AcDbLine
 10
1.122506480244625
 20
0.3815749756484208
 30
0.0
 11
1.186884664563246
 21
0.3815749756484208
 31
0.0
  0
LWPOLYLINE
  5
7DE1B343D9D0825
330
7DE1B343D9D0865
100
AcDbEntity
  8
TEXT
100
AcDbPolyline
 90
        2
 70
     0
 43
0.0
 10
0.9625974098340677
 20
0.425065920598859
 42
-0.2901071551932486
 10
0.9195214769664232
 20
0.3815749756484208
 42
-5.328517124445184
  0
ARC
  5
7DE1B343D9D0829
330
7DE1B343D9D0865
100
AcDbEntity
  8
TEXT
100
AcDbCircle
 10
0.8506668953095086
 20
0.5554119389801691
 30
0.0
 40
0.028359375
100
AcDbArc
 50
25.78218179591245
 51
90.0
  0
LINE
  5
7DE1B343D9D082A
330
7DE1B343D9D0865
100
AcDbEntity
  8
TEXT
100
AcDbLine
 10
0.8864679706136318
 20
0.5464963405180341
 30
0.0
 11
0.8762032102000674
 21
0.5677468800907284
 31
0.0
  0
LINE
  5
7DE1B343D9D082B
330
7DE1B343D9D0865
100
AcDbEntity
  8
TEXT
100
AcDbLine
 10
0.8041799808302485
 20
0.5464963405180341
 30
0.0
 11
0.8864679706136318
 21
0.5464963405180341
 31
0.0
  0
LWPOLYLINE
  5
7DE1B343D9D082C
330
7DE1B343D9D0865
100
AcDbEntity
  8
TEXT
100
AcDbPolyline
 90
        4
 70
     1
 43
0.0
 10
0.8993990118965307
 20
0.4845389536324461
 10
0.8107386932366722
 20
0.4845389536324461
 42
0.9999999999999998
 10
0.8107386932366722
 20
0.4421404131285854
 10
0.8993990118965307
 20
0.4421404131285854
 42
1.0
  0
LWPOLYLINE
  5
7DE1B343D9D0832
330
7DE1B343D9D0865
100
AcDbEntity
  8
TEXT
100
AcDbPolyline
 90
        2
 70
     0
 43
0.0
 10
0.7855040593350467
 20
0.3815749756484208
 10
0.9195214769664232
 20
0.3815749756484208
 42
0.9999999999999998
  0
LINE
  5
7DE1B343D9D0836
330
7DE1B343D9D0865
100
AcDbEntity
  8
TEXT
100
AcDbLine
 10
1.045858498952062
 20
0.5837713139801664
 30
0.0
 11
1.12250648024462
 21
0.5837713139801664
 31
0.0
  0
LINE
  5
7DE1B343D9D0837
330
7DE1B343D9D0865
100
AcDbEntity
  8
TEXT
100
AcDbLine
 10
1.12250648024462
 20
0.5837713139801664
 30
0.0
 11
1.122506480244625
 21
0.3815749756484208
 31
0.0
  0
ARC
  5
7DE1B343D9D0838
330
7DE1B343D9D0865
100
AcDbEntity
  8
TEXT
100
AcDbCircle
 10
1.04585849895206
 20
0.5588654386975036
 30
0.0
 40
0.0249058752826653
100
AcDbArc
 50
89.99971217465335
 51
179.9999999999985
  0
LINE
  5
7DE1B343D9D0839
330
7DE1B343D9D0865
100
AcDbEntity
  8
TEXT
100
AcDbLine
 10
1.020952623669403
 20
0.3815749756484208
 30
0.0
 11
1.020952623669398
 21
0.5588654810798892
 31
0.0
  0
LWPOLYLINE
  5
7DE1B343D9D083A
330
7DE1B343D9D0865
100
AcDbEntity
  8
TEXT
100
AcDbPolyline
 90
        2
 70
     0
 43
0.0
 10
0.9625974098340677
 20
0.3815749756484208
 10
1.020952623669401
 20
0.3815749756484208
  0
LWPOLYLINE
  5
7DE1B343D9D083E
330
7DE1B343D9D0865
100
AcDbEntity
  8
TEXT
100
AcDbPolyline
 90
        2
 70
     0
 43
0.0
 10
0.9625974098340677
 20
0.425065920598859
 10
0.9625974098340677
 20
0.3815749756484208
  0
LINE
  5
7DE1B343D9D0842
330
7DE1B343D9D0865
100
AcDbEntity
  8
TEXT
100
AcDbLine
 10
1.339366570150916
 20
0.3815749756484208
 30
0.0
 11
1.243874346787306
 21
0.5381547656959583
 31
0.0
  0
LINE
  5
7DE1B343D9D0843
330
7DE1B343D9D0865
100
AcDbEntity
  8
TEXT
100
AcDbLine
 10
1.26278819777471
 20
0.3815749756484208
 30
0.0
 11
1.339366570150916
 21
0.3815749756484208
 31
0.0
  0
LINE
  5
7DE1B343D9D0844
330
7DE1B343D9D0865
100
AcDbEntity
  8
TEXT
100
AcDbLine
 10
1.186884664563246
 20
0.5131545441246011
 30
0.0
 11
1.26278819777471
 21
0.3815749756484208
 31
0.0
  0
LINE
  5
7DE1B343D9D0845
330
7DE1B343D9D0865
100
AcDbEntity
  8
TEXT
100
AcDbLine
 10
1.186884664563246
 20
0.3815749756484208
 30
0.0
 11
1.186884664563246
 21
0.5131545441246011
 31
0.0
  0
LINE
  5
7DE1B343D9D0846
330
7DE1B343D9D0865
100
AcDbEntity
  8
TEXT
100
AcDbLine
 10
1.186341471467398
 20
0.7135122144045325
 30
0.0
 11
1.118026592918125
 21
0.7135122144045325
 31
0.0
  0
ARC
  5
7DE1B343D9D0847
330
7DE1B343D9D0865
100
AcDbEntity
  8
TEXT
100
AcDbCircle
 10
0.8776708538769195
 20
0.6064644415160294
 30
0.0
 40
0.0416329381542859
100
AcDbArc
 50
26.56974201007528
 51
87.20939649401342
  0
LINE
  5
7DE1B343D9D0848
330
7DE1B343D9D0865
100
AcDbEntity
  8
TEXT
100
AcDbLine
 10
1.02255463882853
 20
0.6480480086369318
 30
0.0
 11
0.9586577325290299
 21
0.6480480086369318
 31
0.0
  0
LINE
  5
7DE1B343D9D0849
330
7DE1B343D9D0865
100
AcDbEntity
  8
TEXT
100
AcDbLine
 10
1.02255463882853
 20
0.6205003587760572
 30
0.0
 11
1.02255463882853
 21
0.6480480086369318
 31
0.0
  0
ARC
  5
7DE1B343D9D084A
330
7DE1B343D9D0865
100
AcDbEntity
  8
TEXT
100
AcDbCircle
 10
1.053747455891638
 20
0.616802281354667
 30
0.0
 40
0.0314112657011332
100
AcDbArc
 50
95.88484768694724
 51
173.2388340632136
  0
LINE
  5
7DE1B343D9D084B
330
7DE1B343D9D0865
100
AcDbEntity
  8
TEXT
100
AcDbLine
 10
1.11802659291812
 20
0.6480480086369318
 30
0.0
 11
1.050526875268603
 21
0.6480480086369318
 31
0.0
  0
LINE
  5
7DE1B343D9D084C
330
7DE1B343D9D0865
100
AcDbEntity
  8
TEXT
100
AcDbLine
 10
1.118026592918125
 20
0.7135122144045325
 30
0.0
 11
1.11802659291812
 21
0.6480480086369318
 31
0.0
  0
LINE
  5
7DE1B343D9D084D
330
7DE1B343D9D0865
100
AcDbEntity
  8
TEXT
100
AcDbLine
 10
1.308431462753011
 20
0.6480480086369318
 30
0.0
 11
1.233439630023385
 21
0.6480480086369318
 31
0.0
  0
ENDSEC
  0
SECTION
  2
OBJECTS
  0
DICTIONARY
  5
7DE1B343D9D0859
330
0
100
AcDbDictionary
  3
ACAD_GROUP
350
7DE1B343D9D085A
  3
ACAD_LAYOUT
350
7DE1B343D9D087F
  3
ACAD_MLINESTYLE
350
7DE1B343D9D085B
  3
ACAD_PLOTSETTINGS
350
7DE1B343D9D0880
  3
ACAD_PLOTSTYLENAME
350
7DE1B343D9D087D
  3
ACDBHEADERROUNDTRIPXREC
350
7DE1B343D9D088A
  3
ACDBVARIABLEDICTIONARY
350
7DE1B343D9D0887
  0
DICTIONARY
  5
7DE1B343D9D08AC
330
7DE1B343D9D0865
100
AcDbDictionary
280
     1
  3
ACAD_LAYOUTSELFREF
360
7DE1B343D9D08AD
  0
DICTIONARY
  5
7DE1B343D9D08AA
330
7DE1B343D9D0862
100
AcDbDictionary
280
     1
  3
ACAD_LAYOUTSELFREF
360
7DE1B343D9D08AB
  0
DICTIONARY
  5
7DE1B343D9D085A
102
{ACAD_REACTORS
330
7DE1B343D9D0859
102
}
330
7DE1B343D9D0859
100
AcDbDictionary
  0
DICTIONARY
  5
7DE1B343D9D087F
102
{ACAD_REACTORS
330
7DE1B343D9D0859
102
}
330
7DE1B343D9D0859
100
AcDbDictionary
  0
DICTIONARY
  5
7DE1B343D9D085B
102
{ACAD_REACTORS
330
7DE1B343D9D0859
102
}
330
7DE1B343D9D0859
100
AcDbDictionary
  3
STANDARD
350
7DE1B343D9D0868
  0
DICTIONARY
  5
7DE1B343D9D0880
102
{ACAD_REACTORS
330
7DE1B343D9D0859
102
}
330
7DE1B343D9D0859
100
AcDbDictionary
  0
ACDBDICTIONARYWDFLT
  5
7DE1B343D9D087D
102
{ACAD_REACTORS
330
7DE1B343D9D0859
102
}
330
7DE1B343D9D0859
100
AcDbDictionary
281
     1
  3
Normal
350
7DE1B343D9D087E
100
AcDbDictionaryWithDefault
340
7DE1B343D9D087E
  0
DICTIONARY
  5
7DE1B343D9D088A
102
{ACAD_REACTORS
330
7DE1B343D9D0859
102
}
330
7DE1B343D9D0859
100
AcDbDictionary
  3
CEPSNTYPE
350
7DE1B343D9D0894
  3
FINGERPRINTGUID
350
7DE1B343D9D0895
  3
HYPERLINKBASE
350
7DE1B343D9D088D
  3
INSUNITS
350
7DE1B343D9D0893
  3
LAYOUTDICT
350
7DE1B343D9D088F
  3
LWETCUNION
350
7DE1B343D9D0892
  3
PLOTSETDICT
350
7DE1B343D9D0890
  3
PLOTSTYLNAMDICT
350
7DE1B343D9D0891
  3
PSVPSCALE
350
7DE1B343D9D0897
  3
PUCSBASE
350
7DE1B343D9D089A
  3
PUCSORGBACK
350
7DE1B343D9D08A0
  3
PUCSORGBOTTOM
350
7DE1B343D9D089C
  3
PUCSORGFRONT
350
7DE1B343D9D089F
  3
PUCSORGLEFT
350
7DE1B343D9D089D
  3
PUCSORGRIGHT
350
7DE1B343D9D089E
  3
PUCSORGTOP
350
7DE1B343D9D089B
  3
PUCSORTHOREF
350
7DE1B343D9D0898
  3
PUCSORTHOVIEW
350
7DE1B343D9D0899
  3
STYLESHEET
350
7DE1B343D9D088E
  3
TSTACKALIGN
350
7DE1B343D9D088B
  3
TSTACKSIZE
350
7DE1B343D9D088C
  3
UCSBASE
350
7DE1B343D9D08A3
  3
UCSORGBACK
350
7DE1B343D9D08A9
  3
UCSORGBOTTOM
350
7DE1B343D9D08A5
  3
UCSORGFRONT
350
7DE1B343D9D08A8
  3
UCSORGLEFT
350
7DE1B343D9D08A6
  3
UCSORGRIGHT
350
7DE1B343D9D08A7
  3
UCSORGTOP
350
7DE1B343D9D08A4
  3
UCSORTHOREF
350
7DE1B343D9D08A1
  3
UCSORTHOVIEW
350
7DE1B343D9D08A2
  3
VERSIONGUID
350
7DE1B343D9D0896
  0
DICTIONARY
  5
7DE1B343D9D0887
102
{ACAD_REACTORS
330
7DE1B343D9D0859
102
}
330
7DE1B343D9D0859
100
AcDbDictionary
  3
DIMASSOC
350
7DE1B343D9D0888
  0
XRECORD
  5
7DE1B343D9D08AD
102
{ACAD_REACTORS
330
7DE1B343D9D08AC
102
}
330
7DE1B343D9D08AC
100
AcDbXrecord
340
7DE1B343D9D0865
  0
XRECORD
  5
7DE1B343D9D08AB
102
{ACAD_REACTORS
330
7DE1B343D9D08AA
102
}
330
7DE1B343D9D08AA
100
AcDbXrecord
340
7DE1B343D9D0862
  0
MLINESTYLE
  5
7DE1B343D9D0868
102
{ACAD_REACTORS
330
7DE1B343D9D085B
102
}
330
7DE1B343D9D085B
100
AcDbMlineStyle
  2
STANDARD
 70
     0
  3

 62
     0
 51
90.0
 52
90.0
 71
     2
 49
0.5
 62
   256
  6
BYLAYER
 49
-0.5
 62
   256
  6
BYLAYER
  0
ACDBPLACEHOLDER
  5
7DE1B343D9D087E
102
{ACAD_REACTORS
330
7DE1B343D9D087D
102
}
330
7DE1B343D9D087D
100
AcDbPlaceHolder
280
     0
  0
XRECORD
  5
7DE1B343D9D0894
102
{ACAD_REACTORS
330
7DE1B343D9D088A
102
}
330
7DE1B343D9D088A
100
AcDbXrecord
 90
        0
  0
XRECORD
  5
7DE1B343D9D0895
102
{ACAD_REACTORS
330
7DE1B343D9D088A
102
}
330
7DE1B343D9D088A
100
AcDbXrecord
  1
{772E3A30-8DB4-11D6-88E6-0090279574E7}
  0
XRECORD
  5
7DE1B343D9D088D
102
{ACAD_REACTORS
330
7DE1B343D9D088A
102
}
330
7DE1B343D9D088A
100
AcDbXrecord
  1

  0
XRECORD
  5
7DE1B343D9D0893
102
{ACAD_REACTORS
330
7DE1B343D9D088A
102
}
330
7DE1B343D9D088A
100
AcDbXrecord
 90
        0
  0
XRECORD
  5
7DE1B343D9D088F
102
{ACAD_REACTORS
330
7DE1B343D9D088A
102
}
330
7DE1B343D9D088A
100
AcDbXrecord
340
7DE1B343D9D087F
  0
XRECORD
  5
7DE1B343D9D0892
102
{ACAD_REACTORS
330
7DE1B343D9D088A
102
}
330
7DE1B343D9D088A
100
AcDbXrecord
 90
    14877
  0
XRECORD
  5
7DE1B343D9D0890
102
{ACAD_REACTORS
330
7DE1B343D9D088A
102
}
330
7DE1B343D9D088A
100
AcDbXrecord
340
7DE1B343D9D0880
  0
XRECORD
  5
7DE1B343D9D0891
102
{ACAD_REACTORS
330
7DE1B343D9D088A
102
}
330
7DE1B343D9D088A
100
AcDbXrecord
340
7DE1B343D9D087D
  0
XRECORD
  5
7DE1B343D9D0897
102
{ACAD_REACTORS
330
7DE1B343D9D088A
102
}
330
7DE1B343D9D088A
100
AcDbXrecord
 40
0.0
  0
XRECORD
  5
7DE1B343D9D089A
102
{ACAD_REACTORS
330
7DE1B343D9D088A
102
}
330
7DE1B343D9D088A
100
AcDbXrecord
340
0
  0
XRECORD
  5
7DE1B343D9D08A0
102
{ACAD_REACTORS
330
7DE1B343D9D088A
102
}
330
7DE1B343D9D088A
100
AcDbXrecord
 10
0.0
 20
0.0
 30
0.0
  0
XRECORD
  5
7DE1B343D9D089C
102
{ACAD_REACTORS
330
7DE1B343D9D088A
102
}
330
7DE1B343D9D088A
100
AcDbXrecord
 10
0.0
 20
0.0
 30
0.0
  0
XRECORD
  5
7DE1B343D9D089F
102
{ACAD_REACTORS
330
7DE1B343D9D088A
102
}
330
7DE1B343D9D088A
100
AcDbXrecord
 10
0.0
 20
0.0
 30
0.0
  0
XRECORD
  5
7DE1B343D9D089D
102
{ACAD_REACTORS
330
7DE1B343D9D088A
102
}
330
7DE1B343D9D088A
100
AcDbXrecord
 10
0.0
 20
0.0
 30
0.0
  0
XRECORD
  5
7DE1B343D9D089E
102
{ACAD_REACTORS
330
7DE1B343D9D088A
102
}
330
7DE1B343D9D088A
100
AcDbXrecord
 10
0.0
 20
0.0
 30
0.0
  0
XRECORD
  5
7DE1B343D9D089B
102
{ACAD_REACTORS
330
7DE1B343D9D088A
102
}
330
7DE1B343D9D088A
100
AcDbXrecord
 10
0.0
 20
0.0
 30
0.0
  0
XRECORD
  5
7DE1B343D9D0898
102
{ACAD_REACTORS
330
7DE1B343D9D088A
102
}
330
7DE1B343D9D088A
100
AcDbXrecord
340
0
  0
XRECORD
  5
7DE1B343D9D0899
102
{ACAD_REACTORS
330
7DE1B343D9D088A
102
}
330
7DE1B343D9D088A
100
AcDbXrecord
 70
     0
  0
XRECORD
  5
7DE1B343D9D088E
102
{ACAD_REACTORS
330
7DE1B343D9D088A
102
}
330
7DE1B343D9D088A
100
AcDbXrecord
  1

  0
XRECORD
  5
7DE1B343D9D088B
102
{ACAD_REACTORS
330
7DE1B343D9D088A
102
}
330
7DE1B343D9D088A
100
AcDbXrecord
 90
        1
  0
XRECORD
  5
7DE1B343D9D088C
102
{ACAD_REACTORS
330
7DE1B343D9D088A
102
}
330
7DE1B343D9D088A
100
AcDbXrecord
 90
       70
  0
XRECORD
  5
7DE1B343D9D08A3
102
{ACAD_REACTORS
330
7DE1B343D9D088A
102
}
330
7DE1B343D9D088A
100
AcDbXrecord
340
0
  0
XRECORD
  5
7DE1B343D9D08A9
102
{ACAD_REACTORS
330
7DE1B343D9D088A
102
}
330
7DE1B343D9D088A
100
AcDbXrecord
 10
0.0
 20
0.0
 30
0.0
  0
XRECORD
  5
7DE1B343D9D08A5
102
{ACAD_REACTORS
330
7DE1B343D9D088A
102
}
330
7DE1B343D9D088A
100
AcDbXrecord
 10
0.0
 20
0.0
 30
0.0
  0
XRECORD
  5
7DE1B343D9D08A8
102
{ACAD_REACTORS
330
7DE1B343D9D088A
102
}
330
7DE1B343D9D088A
100
AcDbXrecord
 10
0.0
 20
0.0
 30
0.0
  0
XRECORD
  5
7DE1B343D9D08A6
102
{ACAD_REACTORS
330
7DE1B343D9D088A
102
}
330
7DE1B343D9D088A
100
AcDbXrecord
 10
0.0
 20
0.0
 30
0.0
  0
XRECORD
  5
7DE1B343D9D08A7
102
{ACAD_REACTORS
330
7DE1B343D9D088A
102
}
330
7DE1B343D9D088A
100
AcDbXrecord
 10
0.0
 20
0.0
 30
0.0
  0
XRECORD
  5
7DE1B343D9D08A4
102
{ACAD_REACTORS
330
7DE1B343D9D088A
102
}
330
7DE1B343D9D088A
100
AcDbXrecord
 10
0.0
 20
0.0
 30
0.0
  0
XRECORD
  5
7DE1B343D9D08A1
102
{ACAD_REACTORS
330
7DE1B343D9D088A
102
}
330
7DE1B343D9D088A
100
AcDbXrecord
340
0
  0
XRECORD
  5
7DE1B343D9D08A2
102
{ACAD_REACTORS
330
7DE1B343D9D088A
102
}
330
7DE1B343D9D088A
100
AcDbXrecord
 70
     0
  0
XRECORD
  5
7DE1B343D9D0896
102
{ACAD_REACTORS
330
7DE1B343D9D088A
102
}
330
7DE1B343D9D088A
100
AcDbXrecord
  1
{772E3A32-8DB4-11D6-88E6-0090279574E7}
  0
DICTIONARYVAR
  5
7DE1B343D9D0888
102
{ACAD_REACTORS
330
7DE1B343D9D0887
102
}
330
7DE1B343D9D0887
100
DictionaryVariables
280
     0
  1
1
  0
ENDSEC
  0
EOF
