  0
SECTION
  2
HEADER
  9
$ACADVER
  1
AC1014
  9
$ACADMAINTVER
 70
     9
  9
$DWGCODEPAGE
  3
ANSI_1252
  9
$INSBASE
 10
5.953125
 20
4.921875
 30
0.0
  9
$EXTMIN
 10
3.460143420772856
 20
4.182606395917419
 30
0.0
  9
$EXTMAX
 10
6.945362742519991
 20
6.421875
 30
0.0
  9
$LIMMIN
 10
0.0
 20
0.0
  9
$LIMMAX
 10
18.0
 20
12.0
  9
$ORTHOMODE
 70
     1
  9
$REGENMODE
 70
     1
  9
$FILLMODE
 70
     1
  9
$QTEXTMODE
 70
     0
  9
$MIRRTEXT
 70
     0
  9
$DRAGMODE
 70
     2
  9
$LTSCALE
 40
1.0
  9
$OSMODE
 70
    39
  9
$ATTMODE
 70
     1
  9
$TEXTSIZE
 40
0.125
  9
$TRACEWID
 40
0.05
  9
$TEXTSTYLE
  7
ROMANS
  9
$CLAYER
  8
0
  9
$CELTYPE
  6
BYLAYER
  9
$CECOLOR
 62
   256
  9
$CELTSCALE
 40
1.0
  9
$DELOBJ
 70
     1
  9
$DISPSILH
 70
     1
  9
$DIMSCALE
 40
1.0
  9
$DIMASZ
 40
0.125
  9
$DIMEXO
 40
0.125
  9
$DIMDLI
 40
0.375
  9
$DIMRND
 40
0.0
  9
$DIMDLE
 40
0.0
  9
$DIMEXE
 40
0.125
  9
$DIMTP
 40
0.0
  9
$DIMTM
 40
0.0
  9
$DIMTXT
 40
0.125
  9
$DIMCEN
 40
-0.125
  9
$DIMTSZ
 40
0.0
  9
$DIMTOL
 70
     0
  9
$DIMLIM
 70
     0
  9
$DIMTIH
 70
     1
  9
$DIMTOH
 70
     1
  9
$DIMSE1
 70
     0
  9
$DIMSE2
 70
     0
  9
$DIMTAD
 70
     0
  9
$DIMZIN
 70
     4
  9
$DIMBLK
  1

  9
$DIMASO
 70
     1
  9
$DIMSHO
 70
     1
  9
$DIMPOST
  1

  9
$DIMAPOST
  1

  9
$DIMALT
 70
     0
  9
$DIMALTD
 70
     2
  9
$DIMALTF
 40
25.4
  9
$DIMLFAC
 40
1.0
  9
$DIMTOFL
 70
     0
  9
$DIMTVP
 40
0.0
  9
$DIMTIX
 70
     1
  9
$DIMSOXD
 70
     0
  9
$DIMSAH
 70
     0
  9
$DIMBLK1
  1

  9
$DIMBLK2
  1

  9
$DIMSTYLE
  2
STANDARD
  9
$DIMCLRD
 70
     0
  9
$DIMCLRE
 70
     0
  9
$DIMCLRT
 70
     0
  9
$DIMTFAC
 40
1.0
  9
$DIMGAP
 40
0.09
  9
$DIMJUST
 70
     0
  9
$DIMSD1
 70
     0
  9
$DIMSD2
 70
     0
  9
$DIMTOLJ
 70
     1
  9
$DIMTZIN
 70
     4
  9
$DIMALTZ
 70
     0
  9
$DIMALTTZ
 70
     0
  9
$DIMFIT
 70
     3
  9
$DIMUPT
 70
     0
  9
$DIMUNIT
 70
     2
  9
$DIMDEC
 70
     3
  9
$DIMTDEC
 70
     3
  9
$DIMALTU
 70
     2
  9
$DIMALTTD
 70
     2
  9
$DIMTXSTY
  7
ROMANS
  9
$DIMAUNIT
 70
     0
  9
$LUNITS
 70
     2
  9
$LUPREC
 70
     3
  9
$SKETCHINC
 40
0.1
  9
$FILLETRAD
 40
0.03125
  9
$AUNITS
 70
     0
  9
$AUPREC
 70
     0
  9
$MENU
  1
ACAD
  9
$ELEVATION
 40
0.0
  9
$PELEVATION
 40
0.0
  9
$THICKNESS
 40
0.0
  9
$LIMCHECK
 70
     0
  9
$BLIPMODE
 70
     0
  9
$CHAMFERA
 40
0.0
  9
$CHAMFERB
 40
0.0
  9
$CHAMFERC
 40
0.0
  9
$CHAMFERD
 40
0.0
  9
$SKPOLY
 70
     0
  9
$TDCREATE
 40
2448994.343717245
  9
$TDUPDATE
 40
2452458.297673727
  9
$TDINDWG
 40
0.0005976620
  9
$TDUSRTIMER
 40
0.0005976620
  9
$USRTIMER
 70
     1
  9
$ANGBASE
 50
0.0
  9
$ANGDIR
 70
     0
  9
$PDMODE
 70
     0
  9
$PDSIZE
 40
0.0
  9
$PLINEWID
 40
0.0
  9
$COORDS
 70
     2
  9
$SPLFRAME
 70
     0
  9
$SPLINETYPE
 70
     6
  9
$SPLINESEGS
 70
     8
  9
$ATTDIA
 70
     0
  9
$ATTREQ
 70
     1
  9
$HANDLING
 70
 22529
  9
$HANDSEED
  5
7DE1B343D9D0247
  9
$SURFTAB1
 70
     6
  9
$SURFTAB2
 70
     6
  9
$SURFTYPE
 70
     6
  9
$SURFU
 70
     6
  9
$SURFV
 70
     6
  9
$UCSNAME
  2

  9
$UCSORG
 10
0.0
 20
0.0
 30
0.0
  9
$UCSXDIR
 10
1.0
 20
0.0
 30
0.0
  9
$UCSYDIR
 10
0.0
 20
1.0
 30
0.0
  9
$PUCSNAME
  2

  9
$PUCSORG
 10
0.0
 20
0.0
 30
0.0
  9
$PUCSXDIR
 10
1.0
 20
0.0
 30
0.0
  9
$PUCSYDIR
 10
0.0
 20
1.0
 30
0.0
  9
$USERI1
 70
     0
  9
$USERI2
 70
     0
  9
$USERI3
 70
     0
  9
$USERI4
 70
     0
  9
$USERI5
 70
     0
  9
$USERR1
 40
0.0
  9
$USERR2
 40
0.0
  9
$USERR3
 40
0.0
  9
$USERR4
 40
0.0
  9
$USERR5
 40
0.0
  9
$WORLDVIEW
 70
     1
  9
$SHADEDGE
 70
     3
  9
$SHADEDIF
 70
    70
  9
$TILEMODE
 70
     1
  9
$MAXACTVP
 70
    16
  9
$PINSBASE
 10
5.00500705391594
 20
50.00000000000001
 30
6.307192850416556
  9
$PLIMCHECK
 70
     0
  9
$PEXTMIN
 10
1.000000000000000E+20
 20
1.000000000000000E+20
 30
1.000000000000000E+20
  9
$PEXTMAX
 10
-1.000000000000000E+20
 20
-1.000000000000000E+20
 30
-1.000000000000000E+20
  9
$PLIMMIN
 10
0.0
 20
0.0
  9
$PLIMMAX
 10
12.0
 20
9.0
  9
$UNITMODE
 70
     0
  9
$VISRETAIN
 70
     0
  9
$PLINEGEN
 70
     1
  9
$PSLTSCALE
 70
     0
  9
$TREEDEPTH
 70
  3020
  9
$PICKSTYLE
 70
     1
  9
$CMLSTYLE
  2
STANDARD
  9
$CMLJUST
 70
     0
  9
$CMLSCALE
 40
1.0
  9
$PROXYGRAPHICS
 70
     1
  9
$MEASUREMENT
 70
     0
  0
ENDSEC
  0
SECTION
  2
CLASSES
  0
CLASS
  1
LWPOLYLINE
  2
AcDbPolyline
  3
AutoCAD 2000
 90
        0
280
     0
281
     1
  0
CLASS
  1
ACDBDICTIONARYWDFLT
  2
AcDbDictionaryWithDefault
  3
AutoCAD 2000
 90
        0
280
     0
281
     0
  0
CLASS
  1
ACDBPLACEHOLDER
  2
AcDbPlaceHolder
  3
AutoCAD 2000
 90
        0
280
     0
281
     0
  0
CLASS
  1
LAYOUT
  2
AcDbLayout
  3
AutoCAD 2000
 90
        0
280
     0
281
     0
  0
CLASS
  1
DICTIONARYVAR
  2
AcDbDictionaryVar
  3
AutoCAD 2000
 90
        0
280
     0
281
     0
  0
CLASS
  1
LONG_TRANSACTION
  2
AcDbLongTransaction
  3
AutoCAD 2000
 90
        0
280
     0
281
     0
  0
CLASS
  1
LWPOLYLINE
  2
AcDbPolyline
  3
AutoCAD 2000
 90
        0
280
     0
281
     1
  0
CLASS
  1
HATCH
  2
AcDbHatch
  3
AutoCAD 2000
 90
        0
280
     0
281
     1
  0
CLASS
  1
XRECORD
  2
AcDbXrecord
  3
AutoCAD 2000
 90
        0
280
     0
281
     0
  0
ENDSEC
  0
SECTION
  2
TABLES
  0
TABLE
  2
VPORT
  5
7DE1B343D9D01EE
330
0
100
AcDbSymbolTable
 70
     2
  0
VPORT
  5
7DE1B343D9D0222
330
7DE1B343D9D01EE
100
AcDbSymbolTableRecord
100
AcDbViewportTableRecord
  2
*ACTIVE
 70
     0
 10
0.0
 20
0.0
 11
1.0
 21
1.0
 12
8.499915603772814
 22
5.301910427517618
 13
0.0
 23
0.0
 14
0.015625
 24
0.015625
 15
0.0
 25
0.0
 16
0.0
 26
0.0
 36
1.0
 17
0.0
 27
0.0
 37
0.0
 40
2.529151074099507
 41
4.320930232558139
 42
50.0
 43
0.0
 44
0.0
 50
0.0
 51
0.0
 71
     0
 72
  2000
 73
     1
 74
     0
 75
     1
 76
     0
 77
     0
 78
     0
  0
ENDTAB
  0
TABLE
  2
LTYPE
  5
7DE1B343D9D01EB
330
0
100
AcDbSymbolTable
 70
     1
  0
LTYPE
  5
7DE1B343D9D01F8
330
7DE1B343D9D01EB
100
AcDbSymbolTableRecord
100
AcDbLinetypeTableRecord
  2
BYBLOCK
 70
     0
  3

 72
    65
 73
     0
 40
0.0
  0
LTYPE
  5
7DE1B343D9D01F9
330
7DE1B343D9D01EB
100
AcDbSymbolTableRecord
100
AcDbLinetypeTableRecord
  2
BYLAYER
 70
     0
  3

 72
    65
 73
     0
 40
0.0
  0
LTYPE
  5
7DE1B343D9D01FA
330
7DE1B343D9D01EB
100
AcDbSymbolTableRecord
100
AcDbLinetypeTableRecord
  2
CONTINUOUS
 70
     0
  3
Solid line
 72
    65
 73
     0
 40
0.0
  0
ENDTAB
  0
TABLE
  2
LAYER
  5
7DE1B343D9D01E8
330
0
100
AcDbSymbolTable
 70
     2
  0
LAYER
  5
7DE1B343D9D01F5
330
7DE1B343D9D01E8
100
AcDbSymbolTableRecord
100
AcDbLayerTableRecord
  2
0
 70
     0
 62
     7
  6
CONTINUOUS
  0
LAYER
  5
7DE1B343D9D0205
330
7DE1B343D9D01E8
100
AcDbSymbolTableRecord
100
AcDbLayerTableRecord
  2
TEXT
 70
     0
 62
     3
  6
CONTINUOUS
  0
ENDTAB
  0
TABLE
  2
STYLE
  5
7DE1B343D9D01E9
330
0
100
AcDbSymbolTable
 70
     3
  0
STYLE
  5
7DE1B343D9D01F6
330
7DE1B343D9D01E9
100
AcDbSymbolTableRecord
100
AcDbTextStyleTableRecord
  2
STANDARD
 70
     0
 40
0.0
 41
1.0
 50
0.0
 71
     0
 42
0.3125
  3
txt
  4

  0
STYLE
  5
7DE1B343D9D0202
330
7DE1B343D9D01E9
100
AcDbSymbolTableRecord
100
AcDbTextStyleTableRecord
  2
ITALICC
 70
     0
 40
0.0
 41
1.0
 50
0.0
 71
     0
 42
0.125
  3
italicc
  4

  0
STYLE
  5
7DE1B343D9D0212
330
7DE1B343D9D01E9
100
AcDbSymbolTableRecord
100
AcDbTextStyleTableRecord
  2
ROMANS
 70
     0
 40
0.0
 41
1.0
 50
0.0
 71
     0
 42
0.125
  3
romans.shx
  4

  0
ENDTAB
  0
TABLE
  2
VIEW
  5
7DE1B343D9D01EC
330
0
100
AcDbSymbolTable
 70
     0
  0
ENDTAB
  0
TABLE
  2
UCS
  5
7DE1B343D9D01ED
330
0
100
AcDbSymbolTable
 70
     0
  0
ENDTAB
  0
TABLE
  2
APPID
  5
7DE1B343D9D01EF
330
0
100
AcDbSymbolTable
 70
     1
  0
APPID
  5
7DE1B343D9D01F7
330
7DE1B343D9D01EF
100
AcDbSymbolTableRecord
100
AcDbRegAppTableRecord
  2
ACAD
 70
     0
  0
ENDTAB
  0
TABLE
  2
DIMSTYLE
  5
7DE1B343D9D01F0
330
0
100
AcDbSymbolTable
 70
     1
  0
DIMSTYLE
105
7DE1B343D9D020A
330
7DE1B343D9D01F0
100
AcDbSymbolTableRecord
100
AcDbDimStyleTableRecord
  2
STANDARD
 70
     0
  3

  4

  5

  6

  7

 40
1.0
 41
0.125
 42
0.125
 43
0.375
 44
0.125
 45
0.0
 46
0.0
 47
0.0
 48
0.0
140
0.125
141
-0.125
142
0.0
143
25.4
144
1.0
145
0.0
146
1.0
147
0.09
 71
     0
 72
     0
 73
     1
 74
     1
 75
     0
 76
     0
 77
     0
 78
     4
170
     0
171
     2
172
     0
173
     0
174
     1
175
     0
176
     0
177
     0
178
     0
270
     2
271
     3
272
     3
273
     2
274
     2
340
7DE1B343D9D0212
275
     0
280
     0
281
     0
282
     0
283
     1
284
     4
285
     0
286
     0
287
     3
288
     0
  0
ENDTAB
  0
TABLE
  2
BLOCK_RECORD
  5
7DE1B343D9D01E7
330
0
100
AcDbSymbolTable
 70
     0
  0
BLOCK_RECORD
  5
7DE1B343D9D01FE
102
{ACAD_XDICTIONARY
360
7DE1B343D9D0245
102
}
330
7DE1B343D9D01E7
100
AcDbSymbolTableRecord
100
AcDbBlockTableRecord
  2
*MODEL_SPACE
  0
BLOCK_RECORD
  5
7DE1B343D9D01FB
102
{ACAD_XDICTIONARY
360
7DE1B343D9D0243
102
}
330
7DE1B343D9D01E7
100
AcDbSymbolTableRecord
100
AcDbBlockTableRecord
  2
*PAPER_SPACE
  0
ENDTAB
  0
ENDSEC
  0
SECTION
  2
BLOCKS
  0
BLOCK
  5
7DE1B343D9D0208
330
7DE1B343D9D01FE
100
AcDbEntity
  8
0
100
AcDbBlockBegin
  2
*MODEL_SPACE
 70
     0
 10
0.0
 20
0.0
 30
0.0
  3
*MODEL_SPACE
  1

  0
ENDBLK
  5
7DE1B343D9D0209
330
7DE1B343D9D01FE
100
AcDbEntity
  8
0
100
AcDbBlockEnd
  0
BLOCK
  5
7DE1B343D9D0206
330
7DE1B343D9D01FB
100
AcDbEntity
 67
     1
  8
0
100
AcDbBlockBegin
  2
*PAPER_SPACE
 70
     0
 10
0.0
 20
0.0
 30
0.0
  3
*PAPER_SPACE
  1

  0
ENDBLK
  5
7DE1B343D9D0207
330
7DE1B343D9D01FB
100
AcDbEntity
 67
     1
  8
0
100
AcDbBlockEnd
  0
ENDSEC
  0
SECTION
  2
ENTITIES
  0
LWPOLYLINE
  5
7DE1B343D9CEE2E
330
7DE1B343D9D01FE
100
AcDbEntity
  8
0
100
AcDbPolyline
 90
        6
 70
     1
 43
0.0
 10
5.828125
 20
5.046875
 10
4.453125
 20
5.046875
 10
4.453125
 20
4.921875
 10
5.953125
 20
4.921875
 10
5.953125
 20
6.421875
 10
5.828125
 20
6.421875
  0
TEXT
  5
7DE1B343D9D00A9
330
7DE1B343D9D01FE
100
AcDbEntity
  8
TEXT
100
AcDbText
 10
4.450148809523809
 20
4.640625
 30
0.0
 40
0.125
  1
PART #110150
  7
ITALICC
 72
     1
 11
5.203125
 21
4.640625
 31
0.0
100
AcDbText
  0
TEXT
  5
7DE1B343D9D00AA
330
7DE1B343D9D01FE
100
AcDbEntity
  8
TEXT
100
AcDbText
 10
5.61643015825032
 20
4.193702357327625
 30
0.0
 40
0.0522247191011236
  1
Phone  1-800-328-2495
 41
1.272321428571429
 72
     5
 11
6.945362742519984
 21
4.193702357327625
 31
0.0
100
AcDbText
  0
TEXT
  5
7DE1B343D9D00AB
330
7DE1B343D9D01FE
100
AcDbEntity
  8
TEXT
100
AcDbText
 10
5.61643015825032
 20
4.473477638226501
 30
0.0
 40
0.0522247191011236
  1
Stylmark  Incorporated
 41
1.221428571428573
 72
     5
 11
6.945362742519984
 21
4.473477638226501
 31
0.0
100
AcDbText
  0
TEXT
  5
7DE1B343D9D00AC
330
7DE1B343D9D01FE
100
AcDbEntity
  8
TEXT
100
AcDbText
 10
5.61643015825032
 20
4.380219211260209
 30
0.0
 40
0.0522247191011236
  1
6536 Main St. N.E. * P.O. Box 32008
 41
0.8388932496075366
 72
     5
 11
6.945362742519984
 21
4.380219211260209
 31
0.0
100
AcDbText
  0
TEXT
  5
7DE1B343D9D00AD
330
7DE1B343D9D01FE
100
AcDbEntity
  8
TEXT
100
AcDbText
 10
5.61643015825032
 20
4.286960784293917
 30
0.0
 40
0.0522247191011236
  1
Minneapolis, MN 55432-0008
 41
1.11444212721585
 72
     5
 11
6.945362742519984
 21
4.286960784293917
 31
0.0
100
AcDbText
  0
LWPOLYLINE
  5
7DE1B343D9D00AE
330
7DE1B343D9D01FE
100
AcDbEntity
  8
TEXT
100
AcDbPolyline
 90
        3
 70
     0
 43
0.0006660908203125
 10
3.460476466183012
 20
4.30734711996506
 10
3.460476466183012
 20
4.194111680511932
 10
3.573711905636135
 20
4.194111680511932
  0
LWPOLYLINE
  5
7DE1B343D9D00B3
330
7DE1B343D9D01FE
100
AcDbEntity
  8
TEXT
100
AcDbPolyline
 90
        3
 70
     0
 43
0.0006660908203125
 10
3.48712009899551
 20
4.30734711996506
 10
3.48712009899551
 20
4.220755313324433
 10
3.573711905636135
 20
4.220755313324433
  0
LWPOLYLINE
  5
7DE1B343D9D00B8
330
7DE1B343D9D01FE
100
AcDbEntity
  8
TEXT
100
AcDbPolyline
 90
        2
 70
     0
 43
0.0001332181640625
 10
3.533746456417387
 20
4.317338482269745
 10
3.460476466183012
 20
4.30734711996506
  0
LWPOLYLINE
  5
7DE1B343D9D00BC
330
7DE1B343D9D01FE
100
AcDbEntity
  8
TEXT
100
AcDbPolyline
 90
        2
 70
     0
 43
0.0001332181640625
 10
3.48712009899551
 20
4.30734711996506
 10
3.547068272823637
 20
4.317338482269745
  0
LWPOLYLINE
  5
7DE1B343D9D00C0
330
7DE1B343D9D01FE
100
AcDbEntity
  8
TEXT
100
AcDbPolyline
 90
        2
 70
     0
 43
0.0001332181640625
 10
3.48712009899551
 20
4.220755313324433
 10
3.547068272823637
 20
4.280703487152559
  0
LWPOLYLINE
  5
7DE1B343D9D00C4
330
7DE1B343D9D01FE
100
AcDbEntity
  8
TEXT
100
AcDbPolyline
 90
        3
 70
     0
 43
0.0006660908203125
 10
3.573711905636135
 20
4.460548008636935
 10
3.460476466183012
 20
4.460548008636935
 10
3.460476466183012
 20
4.347312569183808
  0
LWPOLYLINE
  5
7DE1B343D9D00C9
330
7DE1B343D9D01FE
100
AcDbEntity
  8
TEXT
100
AcDbPolyline
 90
        3
 70
     0
 43
0.0006660908203125
 10
3.573711905636135
 20
4.433904375824434
 10
3.48712009899551
 20
4.433904375824434
 10
3.48712009899551
 20
4.347312569183808
  0
LWPOLYLINE
  5
7DE1B343D9D00CE
330
7DE1B343D9D01FE
100
AcDbEntity
  8
TEXT
100
AcDbPolyline
 90
        2
 70
     0
 43
0.0001332181640625
 10
3.48712009899551
 20
4.433904375824434
 10
3.547068272823636
 20
4.373956201996309
  0
LWPOLYLINE
  5
7DE1B343D9D00D2
330
7DE1B343D9D01FE
100
AcDbEntity
  8
TEXT
100
AcDbPolyline
 90
        2
 70
     0
 43
0.0001332181640625
 10
3.48712009899551
 20
4.347312569183808
 10
3.547068272823636
 20
4.337321206879119
  0
LWPOLYLINE
  5
7DE1B343D9D00D6
330
7DE1B343D9D01FE
100
AcDbEntity
  8
TEXT
100
AcDbPolyline
 90
        2
 70
     0
 43
0.0001332181640625
 10
3.460476466183012
 20
4.347312569183808
 10
3.533746456417387
 20
4.337321206879119
  0
LWPOLYLINE
  5
7DE1B343D9D00DA
330
7DE1B343D9D01FE
100
AcDbEntity
  8
TEXT
100
AcDbPolyline
 90
        2
 70
     0
 43
0.0006660908203125
 10
3.48712009899551
 20
4.30734711996506
 10
3.460476466183012
 20
4.30734711996506
  0
LWPOLYLINE
  5
7DE1B343D9D00DE
330
7DE1B343D9D01FE
100
AcDbEntity
  8
TEXT
100
AcDbPolyline
 90
        2
 70
     0
 43
0.0006660908203125
 10
3.48712009899551
 20
4.347312569183808
 10
3.460476466183012
 20
4.347312569183808
  0
LINE
  5
7DE1B343D9D00E2
330
7DE1B343D9D01FE
100
AcDbEntity
  8
TEXT
100
AcDbLine
 10
4.97566689530951
 20
4.396271313980166
 30
0.0
 11
4.868460621922221
 21
4.396271313980166
 31
0.0
  0
LINE
  5
7DE1B343D9D00E3
330
7DE1B343D9D01FE
100
AcDbEntity
  8
TEXT
100
AcDbLine
 10
5.004697793653988
 20
4.460548008636932
 30
0.0
 11
4.869865884436929
 21
4.460548008636932
 31
0.0
  0
ARC
  5
7DE1B343D9D00E4
330
7DE1B343D9D01FE
100
AcDbEntity
  8
TEXT
100
AcDbCircle
 10
4.929179980830246
 20
4.291310759373915
 30
0.0
 40
0.0676855811441166
100
AcDbArc
 50
90.0
 51
153.7768192527749
  0
LWPOLYLINE
  5
7DE1B343D9D00E5
330
7DE1B343D9D01FE
100
AcDbEntity
  8
TEXT
100
AcDbPolyline
 90
        2
 70
     0
 43
0.0
 10
4.867428126467411
 20
4.237565920598859
 42
0.2901071551932823
 10
4.910504059335046
 20
4.194074975648421
 42
5.328517124445801
  0
ARC
  5
7DE1B343D9D00E9
330
7DE1B343D9D01FE
100
AcDbEntity
  8
TEXT
100
AcDbCircle
 10
4.22404860315876
 20
4.253867366986471
 30
0.0
 40
0.0601160179737537
100
AcDbArc
 50
180.0000000000003
 51
264.0521544866073
  0
LINE
  5
7DE1B343D9D00EA
330
7DE1B343D9D01FE
100
AcDbEntity
  8
TEXT
100
AcDbLine
 10
4.227563958784308
 20
4.49493592623107
 30
0.0
 11
4.167521353940301
 21
4.49493592623107
 31
0.0
  0
ARC
  5
7DE1B343D9D00EB
330
7DE1B343D9D01FE
100
AcDbEntity
  8
TEXT
100
AcDbCircle
 10
3.99178960104179
 20
4.37846054919043
 30
0.0
 40
0.0820874594465043
100
AcDbArc
 50
90.0
 51
270.0
  0
LWPOLYLINE
  5
7DE1B343D9D00EC
330
7DE1B343D9D01FE
100
AcDbEntity
  8
TEXT
100
AcDbPolyline
 90
        2
 70
     0
 43
0.0001332181640625
 10
3.583703267940825
 20
4.387278018402556
 10
3.573711905636135
 20
4.460548008636935
  0
LWPOLYLINE
  5
7DE1B343D9D00F0
330
7DE1B343D9D01FE
100
AcDbEntity
  8
TEXT
100
AcDbPolyline
 90
        2
 70
     0
 43
0.0001332181640625
 10
3.573711905636135
 20
4.433904375824434
 10
3.583703267940825
 20
4.373956201996309
  0
LWPOLYLINE
  5
7DE1B343D9D00F4
330
7DE1B343D9D01FE
100
AcDbEntity
  8
TEXT
100
AcDbPolyline
 90
        3
 70
     0
 43
0.0006660908203125
 10
3.726912794308012
 20
4.347312569183808
 10
3.726912794308012
 20
4.460548008636935
 10
3.613677354854886
 20
4.460548008636935
  0
LWPOLYLINE
  5
7DE1B343D9D00F9
330
7DE1B343D9D01FE
100
AcDbEntity
  8
TEXT
100
AcDbPolyline
 90
        3
 70
     0
 43
0.0006660908203125
 10
3.700269161495511
 20
4.347312569183808
 10
3.700269161495511
 20
4.433904375824434
 10
3.613677354854886
 20
4.433904375824434
  0
LWPOLYLINE
  5
7DE1B343D9D00FE
330
7DE1B343D9D01FE
100
AcDbEntity
  8
TEXT
100
AcDbPolyline
 90
        2
 70
     0
 43
0.0001332181640625
 10
3.700269161495511
 20
4.433904375824434
 10
3.640320987667387
 20
4.373956201996309
  0
LWPOLYLINE
  5
7DE1B343D9D0102
330
7DE1B343D9D01FE
100
AcDbEntity
  8
TEXT
100
AcDbPolyline
 90
        2
 70
     0
 43
0.0001332181640625
 10
3.613677354854886
 20
4.433904375824434
 10
3.603685992550198
 20
4.373956201996309
  0
LWPOLYLINE
  5
7DE1B343D9D0106
330
7DE1B343D9D01FE
100
AcDbEntity
  8
TEXT
100
AcDbPolyline
 90
        2
 70
     0
 43
0.0001332181640625
 10
3.613677354854886
 20
4.460548008636935
 10
3.603685992550198
 20
4.387278018402556
  0
LWPOLYLINE
  5
7DE1B343D9D010A
330
7DE1B343D9D01FE
100
AcDbEntity
  8
TEXT
100
AcDbPolyline
 90
        2
 70
     0
 43
0.0001332181640625
 10
3.653642804073636
 20
4.337321206879119
 10
3.726912794308012
 20
4.347312569183808
  0
LWPOLYLINE
  5
7DE1B343D9D010E
330
7DE1B343D9D01FE
100
AcDbEntity
  8
TEXT
100
AcDbPolyline
 90
        2
 70
     0
 43
0.0001332181640625
 10
3.700269161495511
 20
4.347312569183808
 10
3.640320987667387
 20
4.337321206879119
  0
LWPOLYLINE
  5
7DE1B343D9D0112
330
7DE1B343D9D01FE
100
AcDbEntity
  8
TEXT
100
AcDbPolyline
 90
        2
 70
     0
 43
0.0001332181640625
 10
3.726912794308012
 20
4.30734711996506
 10
3.653642804073636
 20
4.317338482269745
  0
LWPOLYLINE
  5
7DE1B343D9D0116
330
7DE1B343D9D01FE
100
AcDbEntity
  8
TEXT
100
AcDbPolyline
 90
        2
 70
     0
 43
0.0001332181640625
 10
3.700269161495511
 20
4.30734711996506
 10
3.640320987667387
 20
4.317338482269745
  0
LWPOLYLINE
  5
7DE1B343D9D011A
330
7DE1B343D9D01FE
100
AcDbEntity
  8
TEXT
100
AcDbPolyline
 90
        2
 70
     0
 43
0.0001332181640625
 10
3.700269161495511
 20
4.220755313324433
 10
3.640320987667387
 20
4.280703487152559
  0
LWPOLYLINE
  5
7DE1B343D9D011E
330
7DE1B343D9D01FE
100
AcDbEntity
  8
TEXT
100
AcDbPolyline
 90
        3
 70
     0
 43
0.0006660908203125
 10
3.613677354854886
 20
4.220755313324433
 10
3.700269161495511
 20
4.220755313324433
 10
3.700269161495511
 20
4.30734711996506
  0
LWPOLYLINE
  5
7DE1B343D9D0123
330
7DE1B343D9D01FE
100
AcDbEntity
  8
TEXT
100
AcDbPolyline
 90
        3
 70
     0
 43
0.0006660908203125
 10
3.613677354854886
 20
4.194111680511932
 10
3.726912794308012
 20
4.194111680511932
 10
3.726912794308012
 20
4.30734711996506
  0
LWPOLYLINE
  5
7DE1B343D9D0128
330
7DE1B343D9D01FE
100
AcDbEntity
  8
TEXT
100
AcDbPolyline
 90
        5
 70
     0
 43
0.0001332181640625
 10
3.583703267940825
 20
4.267381670746308
 10
3.583703267940825
 20
4.280703487152559
 10
3.547068272823637
 20
4.280703487152559
 10
3.547068272823637
 20
4.317338482269745
 10
3.533746456417387
 20
4.317338482269745
  0
LWPOLYLINE
  5
7DE1B343D9D012F
330
7DE1B343D9D01FE
100
AcDbEntity
  8
TEXT
100
AcDbPolyline
 90
        2
 70
     0
 43
0.0006660908203125
 10
3.573711905636135
 20
4.220755313324433
 10
3.573711905636135
 20
4.194111680511932
  0
LWPOLYLINE
  5
7DE1B343D9D0133
330
7DE1B343D9D01FE
100
AcDbEntity
  8
TEXT
100
AcDbPolyline
 90
        2
 70
     0
 43
0.0001332181640625
 10
3.573711905636135
 20
4.220755313324433
 10
3.583703267940825
 20
4.280703487152559
  0
LWPOLYLINE
  5
7DE1B343D9D0137
330
7DE1B343D9D01FE
100
AcDbEntity
  8
TEXT
100
AcDbPolyline
 90
        2
 70
     0
 43
0.0001332181640625
 10
3.573711905636135
 20
4.194111680511932
 10
3.583703267940825
 20
4.267381670746308
  0
LWPOLYLINE
  5
7DE1B343D9D013B
330
7DE1B343D9D01FE
100
AcDbEntity
  8
TEXT
100
AcDbPolyline
 90
        5
 70
     0
 43
0.0001332181640625
 10
3.533746456417387
 20
4.337321206879119
 10
3.547068272823636
 20
4.337321206879119
 10
3.547068272823636
 20
4.373956201996309
 10
3.583703267940825
 20
4.373956201996309
 10
3.583703267940825
 20
4.387278018402556
  0
LWPOLYLINE
  5
7DE1B343D9D0142
330
7DE1B343D9D01FE
100
AcDbEntity
  8
TEXT
100
AcDbPolyline
 90
        5
 70
     0
 43
0.0001332181640625
 10
3.603685992550198
 20
4.387278018402556
 10
3.603685992550198
 20
4.373956201996309
 10
3.640320987667387
 20
4.373956201996309
 10
3.640320987667387
 20
4.337321206879119
 10
3.653642804073636
 20
4.337321206879119
  0
LWPOLYLINE
  5
7DE1B343D9D0149
330
7DE1B343D9D01FE
100
AcDbEntity
  8
TEXT
100
AcDbPolyline
 90
        2
 70
     0
 43
0.0001332181640625
 10
3.613677354854886
 20
4.220755313324433
 10
3.603685992550198
 20
4.280703487152559
  0
LWPOLYLINE
  5
7DE1B343D9D014D
330
7DE1B343D9D01FE
100
AcDbEntity
  8
TEXT
100
AcDbPolyline
 90
        2
 70
     0
 43
0.0001332181640625
 10
3.603685992550198
 20
4.267381670746308
 10
3.613677354854886
 20
4.194111680511932
  0
LWPOLYLINE
  5
7DE1B343D9D0151
330
7DE1B343D9D01FE
100
AcDbEntity
  8
TEXT
100
AcDbPolyline
 90
        2
 70
     0
 43
0.0006660908203125
 10
3.613677354854886
 20
4.220755313324433
 10
3.613677354854886
 20
4.194111680511932
  0
LWPOLYLINE
  5
7DE1B343D9D0155
330
7DE1B343D9D01FE
100
AcDbEntity
  8
TEXT
100
AcDbPolyline
 90
        5
 70
     0
 43
0.0001332181640625
 10
3.653642804073636
 20
4.317338482269745
 10
3.640320987667387
 20
4.317338482269745
 10
3.640320987667387
 20
4.280703487152559
 10
3.603685992550198
 20
4.280703487152559
 10
3.603685992550198
 20
4.267381670746308
  0
LWPOLYLINE
  5
7DE1B343D9D015C
330
7DE1B343D9D01FE
100
AcDbEntity
  8
TEXT
100
AcDbPolyline
 90
        2
 70
     0
 43
0.0006660908203125
 10
3.700269161495511
 20
4.347312569183808
 10
3.726912794308012
 20
4.347312569183808
  0
LWPOLYLINE
  5
7DE1B343D9D0160
330
7DE1B343D9D01FE
100
AcDbEntity
  8
TEXT
100
AcDbPolyline
 90
        2
 70
     0
 43
0.0006660908203125
 10
3.700269161495511
 20
4.30734711996506
 10
3.726912794308012
 20
4.30734711996506
  0
LINE
  5
7DE1B343D9D0164
330
7DE1B343D9D01FE
100
AcDbEntity
  8
TEXT
100
AcDbLine
 10
3.997026931156037
 20
4.396271313980166
 30
0.0
 11
4.163932585185008
 21
4.396271313980166
 31
0.0
  0
LINE
  5
7DE1B343D9D0165
330
7DE1B343D9D01FE
100
AcDbEntity
  8
TEXT
100
AcDbLine
 10
4.062627067400338
 20
4.360466592369538
 30
0.0
 11
3.997026931156037
 21
4.360466592369538
 31
0.0
  0
LINE
  5
7DE1B343D9D0166
330
7DE1B343D9D01FE
100
AcDbEntity
  8
TEXT
100
AcDbLine
 10
3.909702141595285
 20
4.194074975648421
 30
0.0
 11
4.062627067400338
 21
4.194074975648421
 31
0.0
  0
LINE
  5
7DE1B343D9D0167
330
7DE1B343D9D01FE
100
AcDbEntity
  8
TEXT
100
AcDbLine
 10
4.067567441306618
 20
4.26243198198186
 30
0.0
 11
3.909702141595284
 21
4.26243198198186
 31
0.0
  0
LINE
  5
7DE1B343D9D0168
330
7DE1B343D9D01FE
100
AcDbEntity
  8
TEXT
100
AcDbLine
 10
3.991789601041789
 20
4.296373089743925
 30
0.0
 11
4.067567441306618
 21
4.296373089743925
 31
0.0
  0
ARC
  5
7DE1B343D9D0169
330
7DE1B343D9D01FE
100
AcDbEntity
  8
TEXT
100
AcDbCircle
 10
3.997026931156038
 20
4.378368953174854
 30
0.0
 40
0.017902360805315
100
AcDbArc
 50
90.0
 51
270.0
  0
LINE
  5
7DE1B343D9D016A
330
7DE1B343D9D01FE
100
AcDbEntity
  8
TEXT
100
AcDbLine
 10
3.909702141595284
 20
4.26243198198186
 30
0.0
 11
3.909702141595285
 21
4.194074975648421
 31
0.0
  0
LINE
  5
7DE1B343D9D016B
330
7DE1B343D9D01FE
100
AcDbEntity
  8
TEXT
100
AcDbLine
 10
4.163932585185008
 20
4.396271313980166
 30
0.0
 11
4.163932585185008
 21
4.253867366986471
 31
0.0
  0
ARC
  5
7DE1B343D9D016C
330
7DE1B343D9D01FE
100
AcDbEntity
  8
TEXT
100
AcDbCircle
 10
4.062627067400339
 20
4.277270784008978
 30
0.0
 40
0.0831958083605586
100
AcDbArc
 50
270.0
 51
90.0
  0
ARC
  5
7DE1B343D9D016D
330
7DE1B343D9D01FE
100
AcDbEntity
  8
TEXT
100
AcDbCircle
 10
4.067567441306619
 20
4.279402535862894
 30
0.0
 40
0.0169705538810321
100
AcDbArc
 50
270.0
 51
90.0
  0
LWPOLYLINE
  5
7DE1B343D9D016E
330
7DE1B343D9D01FE
100
AcDbEntity
  8
TEXT
100
AcDbPolyline
 90
        2
 70
     0
 43
0.0006660908203125
 10
3.573711905636135
 20
4.433904375824434
 10
3.573711905636135
 20
4.460548008636935
  0
LWPOLYLINE
  5
7DE1B343D9D0172
330
7DE1B343D9D01FE
100
AcDbEntity
  8
TEXT
100
AcDbPolyline
 90
        2
 70
     0
 43
0.0006660908203125
 10
3.613677354854886
 20
4.433904375824434
 10
3.613677354854886
 20
4.460548008636935
  0
LINE
  5
7DE1B343D9D0176
330
7DE1B343D9D01FE
100
AcDbEntity
  8
TEXT
100
AcDbLine
 10
4.167521353940301
 20
4.460548008636932
 30
0.0
 11
3.991789601041789
 21
4.460548008636932
 31
0.0
  0
LINE
  5
7DE1B343D9D0177
330
7DE1B343D9D01FE
100
AcDbEntity
  8
TEXT
100
AcDbLine
 10
4.167521353940301
 20
4.49493592623107
 30
0.0
 11
4.167521353940301
 21
4.460548008636932
 31
0.0
  0
LINE
  5
7DE1B343D9D0178
330
7DE1B343D9D01FE
100
AcDbEntity
  8
TEXT
100
AcDbLine
 10
4.357993245960154
 20
4.359676012523811
 30
0.0
 11
4.299362924928216
 21
4.460548008636932
 31
0.0
  0
LINE
  5
7DE1B343D9D0179
330
7DE1B343D9D01FE
100
AcDbEntity
  8
TEXT
100
AcDbLine
 10
4.416741808766019
 20
4.460548008636932
 30
0.0
 11
4.357993245960154
 21
4.359676012523811
 31
0.0
  0
LINE
  5
7DE1B343D9D017A
330
7DE1B343D9D01FE
100
AcDbEntity
  8
TEXT
100
AcDbLine
 10
4.51367243412576
 20
4.27646281375142
 30
0.0
 11
4.51367243412576
 21
4.528559486375742
 31
0.0
  0
LINE
  5
7DE1B343D9D017B
330
7DE1B343D9D01FE
100
AcDbEntity
  8
TEXT
100
AcDbLine
 10
4.54598428826342
 20
4.460548008636932
 30
0.0
 11
4.54598428826342
 21
4.259683801904524
 31
0.0
  0
LINE
  5
7DE1B343D9D017C
330
7DE1B343D9D01FE
100
AcDbEntity
  8
TEXT
100
AcDbLine
 10
4.54598428826342
 20
4.259683801904524
 30
0.0
 11
4.528990651378819
 21
4.259683801904524
 31
0.0
  0
LINE
  5
7DE1B343D9D017D
330
7DE1B343D9D01FE
100
AcDbEntity
  8
TEXT
100
AcDbLine
 10
4.514812007621955
 20
4.194074975648421
 30
0.0
 11
4.61281534132139
 21
4.194074975648421
 31
0.0
  0
LINE
  5
7DE1B343D9D017E
330
7DE1B343D9D01FE
100
AcDbEntity
  8
TEXT
100
AcDbLine
 10
4.348393008963199
 20
4.214033481753434
 30
0.0
 11
4.445692715056644
 21
4.378383692688702
 31
0.0
  0
ARC
  5
7DE1B343D9D017F
330
7DE1B343D9D01FE
100
AcDbEntity
  8
TEXT
100
AcDbCircle
 10
4.314349449050985
 20
4.233622697922116
 30
0.0
 40
0.0392772371940762
100
AcDbArc
 50
270.1604552698595
 51
330.0831797321295
  0
LINE
  5
7DE1B343D9D0180
330
7DE1B343D9D01FE
100
AcDbEntity
  8
TEXT
100
AcDbLine
 10
4.217819192665114
 20
4.194074975648421
 30
0.0
 11
4.314459443740108
 21
4.194345614746703
 31
0.0
  0
LWPOLYLINE
  5
7DE1B343D9D0181
330
7DE1B343D9D01FE
100
AcDbEntity
  8
TEXT
100
AcDbPolyline
 90
        6
 70
     1
 43
0.0
 10
4.260342996240264
 20
4.396271313980166
 10
4.230026402020055
 20
4.396271313980166
 10
4.230026402020055
 20
4.273160315925272
 42
0.407328721240804
 10
4.241570053181532
 20
4.261341401248886
 10
4.302191752226263
 20
4.261341401248886
 10
4.319657092633581
 20
4.294153630292365
  0
LINE
  5
7DE1B343D9D0189
330
7DE1B343D9D01FE
100
AcDbEntity
  8
TEXT
100
AcDbLine
 10
4.445692715056644
 20
4.378383692688702
 30
0.0
 11
4.445692715056644
 21
4.245626317863345
 31
0.0
  0
ARC
  5
7DE1B343D9D018A
330
7DE1B343D9D01FE
100
AcDbEntity
  8
TEXT
100
AcDbCircle
 10
4.528990651378817
 20
4.275065608147949
 30
0.0
 40
0.0153818062434269
100
AcDbArc
 50
174.7883570302258
 51
270.0
  0
LWPOLYLINE
  5
7DE1B343D9D018B
330
7DE1B343D9D01FE
100
AcDbEntity
  8
TEXT
100
AcDbPolyline
 90
        2
 70
     0
 43
0.0
 10
4.445692715056642
 20
4.245626317863349
 42
0.3318488747599744
 10
4.514812007621955
 20
4.194074975648421
 42
-6.868794160588311
  0
LINE
  5
7DE1B343D9D018F
330
7DE1B343D9D01FE
100
AcDbEntity
  8
TEXT
100
AcDbLine
 10
4.670204410310651
 20
4.194074975648421
 30
0.0
 11
4.737262457092491
 21
4.194074975648421
 31
0.0
  0
LINE
  5
7DE1B343D9D0190
330
7DE1B343D9D01FE
100
AcDbEntity
  8
TEXT
100
AcDbLine
 10
4.670204410310651
 20
4.388717524814056
 30
0.0
 11
4.670204410310651
 21
4.194074975648421
 31
0.0
  0
LINE
  5
7DE1B343D9D0191
330
7DE1B343D9D01FE
100
AcDbEntity
  8
TEXT
100
AcDbLine
 10
4.61281534132139
 20
4.396271313980166
 30
0.0
 11
4.662650621144537
 21
4.396271313980166
 31
0.0
  0
LINE
  5
7DE1B343D9D0192
330
7DE1B343D9D01FE
100
AcDbEntity
  8
TEXT
100
AcDbLine
 10
4.61281534132139
 20
4.194074975648421
 30
0.0
 11
4.61281534132139
 21
4.396271313980166
 31
0.0
  0
LWPOLYLINE
  5
7DE1B343D9D0193
330
7DE1B343D9D01FE
100
AcDbEntity
  8
TEXT
100
AcDbPolyline
 90
        2
 70
     0
 43
0.0
 10
4.662650621144535
 20
4.396271313980166
 42
-0.4142135623731017
 10
4.670204410310649
 20
4.388717524814056
 42
-0.9999999999999998
  0
LINE
  5
7DE1B343D9D0197
330
7DE1B343D9D01FE
100
AcDbEntity
  8
TEXT
100
AcDbLine
 10
4.868460621922221
 20
4.396271313980166
 30
0.0
 11
4.868460621922221
 21
4.32121890790596
 31
0.0
  0
LINE
  5
7DE1B343D9D0198
330
7DE1B343D9D01FE
100
AcDbEntity
  8
TEXT
100
AcDbLine
 10
4.737262457092491
 20
4.396271313980166
 30
0.0
 11
4.791396054013441
 21
4.396271313980166
 31
0.0
  0
LINE
  5
7DE1B343D9D0199
330
7DE1B343D9D01FE
100
AcDbEntity
  8
TEXT
100
AcDbLine
 10
4.737262457092491
 20
4.194074975648421
 30
0.0
 11
4.737262457092491
 21
4.396271313980166
 31
0.0
  0
LWPOLYLINE
  5
7DE1B343D9D019A
330
7DE1B343D9D01FE
100
AcDbEntity
  8
TEXT
100
AcDbPolyline
 90
        2
 70
     0
 43
0.0
 10
4.791396054013439
 20
4.396271313980166
 42
-0.4142135623731017
 10
4.798949843179553
 20
4.388717524814056
 42
-0.9999999999999998
  0
LWPOLYLINE
  5
7DE1B343D9D019E
330
7DE1B343D9D01FE
100
AcDbEntity
  8
TEXT
100
AcDbPolyline
 90
        4
 70
     0
 43
0.0
 10
4.798949843179553
 20
4.388717524814056
 10
4.798949843179553
 20
4.194074975648421
 10
4.867428126467411
 20
4.194074975648421
 10
4.867428126467411
 20
4.237565920598859
 42
-1.714843617202739
  0
LINE
  5
7DE1B343D9D01A4
330
7DE1B343D9D01FE
100
AcDbEntity
  8
TEXT
100
AcDbLine
 10
4.227563958784308
 20
4.460548008636932
 30
0.0
 11
4.227563958784308
 21
4.49493592623107
 31
0.0
  0
LINE
  5
7DE1B343D9D01A5
330
7DE1B343D9D01FE
100
AcDbEntity
  8
TEXT
100
AcDbLine
 10
4.299362924928216
 20
4.460548008636932
 30
0.0
 11
4.227563958784308
 21
4.460548008636932
 31
0.0
  0
LINE
  5
7DE1B343D9D01A6
330
7DE1B343D9D01FE
100
AcDbEntity
  8
TEXT
100
AcDbLine
 10
4.446863721559395
 20
4.460548008636932
 30
0.0
 11
4.416741808766019
 21
4.460548008636932
 31
0.0
  0
LINE
  5
7DE1B343D9D01A7
330
7DE1B343D9D01FE
100
AcDbEntity
  8
TEXT
100
AcDbLine
 10
4.446863721559395
 20
4.528559486375742
 30
0.0
 11
4.446863721559395
 21
4.460548008636932
 31
0.0
  0
LINE
  5
7DE1B343D9D01A8
330
7DE1B343D9D01FE
100
AcDbEntity
  8
TEXT
100
AcDbLine
 10
4.51367243412576
 20
4.528559486375742
 30
0.0
 11
4.446863721559395
 21
4.528559486375742
 31
0.0
  0
LWPOLYLINE
  5
7DE1B343D9D01A9
330
7DE1B343D9D01FE
100
AcDbEntity
  8
TEXT
100
AcDbPolyline
 90
        3
 70
     0
 43
0.0
 10
4.834084193723763
 20
4.460548008636935
 10
4.715784034907718
 20
4.460548008636935
 10
4.715784034907718
 20
4.433380511876039
 42
-1.960274751411753
  0
LINE
  5
7DE1B343D9D01AE
330
7DE1B343D9D01FE
100
AcDbEntity
  8
TEXT
100
AcDbLine
 10
4.680002344194557
 20
4.460548008636932
 30
0.0
 11
4.54598428826342
 21
4.460548008636932
 31
0.0
  0
LWPOLYLINE
  5
7DE1B343D9D01AF
330
7DE1B343D9D01FE
100
AcDbEntity
  8
TEXT
100
AcDbPolyline
 90
        2
 70
     0
 43
0.0
 10
4.680002344194557
 20
4.460548008636935
 42
-0.3328679258950098
 10
4.715784034907718
 20
4.433380511876039
 42
6.772930709997214
  0
LINE
  5
7DE1B343D9D01B3
330
7DE1B343D9D01FE
100
AcDbEntity
  8
TEXT
100
AcDbLine
 10
4.869865884436929
 20
4.460548008636932
 30
0.0
 11
4.869865884436929
 21
4.432225462867288
 31
0.0
  0
LWPOLYLINE
  5
7DE1B343D9D01B4
330
7DE1B343D9D01FE
100
AcDbEntity
  8
TEXT
100
AcDbPolyline
 90
        2
 70
     0
 43
0.0
 10
4.834084193723763
 20
4.460548008636935
 42
-0.3277054968067132
 10
4.869865884436928
 20
4.432225462867291
 42
6.667889725900311
  0
LINE
  5
7DE1B343D9D01B8
330
7DE1B343D9D01FE
100
AcDbEntity
  8
TEXT
100
AcDbLine
 10
5.083657732529029
 20
4.355336030083504
 30
0.0
 11
5.039906961347128
 21
4.43758630607965
 31
0.0
  0
LINE
  5
7DE1B343D9D01B9
330
7DE1B343D9D01FE
100
AcDbEntity
  8
TEXT
100
AcDbLine
 10
5.083657732529029
 20
4.460548008636932
 30
0.0
 11
5.083657732529029
 21
4.355336030083504
 31
0.0
  0
LINE
  5
7DE1B343D9D01BA
330
7DE1B343D9D01FE
100
AcDbEntity
  8
TEXT
100
AcDbLine
 10
5.311341471467398
 20
4.384682682225394
 30
0.0
 11
5.311341471467398
 21
4.526012214404532
 31
0.0
  0
LINE
  5
7DE1B343D9D01BB
330
7DE1B343D9D01FE
100
AcDbEntity
  8
TEXT
100
AcDbLine
 10
5.358439630023383
 20
4.460548008636932
 30
0.0
 11
5.311341471467398
 21
4.384682682225394
 31
0.0
  0
LINE
  5
7DE1B343D9D01BC
330
7DE1B343D9D01FE
100
AcDbEntity
  8
TEXT
100
AcDbLine
 10
5.368874346787306
 20
4.350654765695958
 30
0.0
 11
5.433431462753011
 21
4.460548008636932
 31
0.0
  0
LINE
  5
7DE1B343D9D01BD
330
7DE1B343D9D01FE
100
AcDbEntity
  8
TEXT
100
AcDbLine
 10
5.247506480244625
 20
4.194074975648421
 30
0.0
 11
5.311884664563246
 21
4.194074975648421
 31
0.0
  0
LWPOLYLINE
  5
7DE1B343D9D01BE
330
7DE1B343D9D01FE
100
AcDbEntity
  8
TEXT
100
AcDbPolyline
 90
        2
 70
     0
 43
0.0
 10
5.087597409834067
 20
4.237565920598859
 42
-0.2901071551932486
 10
5.044521476966423
 20
4.194074975648421
 42
-5.328517124445184
  0
ARC
  5
7DE1B343D9D01C2
330
7DE1B343D9D01FE
100
AcDbEntity
  8
TEXT
100
AcDbCircle
 10
4.975666895309508
 20
4.367911938980169
 30
0.0
 40
0.028359375
100
AcDbArc
 50
25.78218179591245
 51
90.0
  0
LINE
  5
7DE1B343D9D01C3
330
7DE1B343D9D01FE
100
AcDbEntity
  8
TEXT
100
AcDbLine
 10
5.011467970613631
 20
4.358996340518034
 30
0.0
 11
5.001203210200067
 21
4.380246880090728
 31
0.0
  0
LINE
  5
7DE1B343D9D01C4
330
7DE1B343D9D01FE
100
AcDbEntity
  8
TEXT
100
AcDbLine
 10
4.929179980830248
 20
4.358996340518034
 30
0.0
 11
5.011467970613631
 21
4.358996340518034
 31
0.0
  0
LWPOLYLINE
  5
7DE1B343D9D01C5
330
7DE1B343D9D01FE
100
AcDbEntity
  8
TEXT
100
AcDbPolyline
 90
        4
 70
     1
 43
0.0
 10
5.02439901189653
 20
4.297038953632446
 10
4.935738693236672
 20
4.297038953632446
 42
0.9999999999999998
 10
4.935738693236672
 20
4.254640413128585
 10
5.02439901189653
 20
4.254640413128585
 42
1.0
  0
LWPOLYLINE
  5
7DE1B343D9D01CB
330
7DE1B343D9D01FE
100
AcDbEntity
  8
TEXT
100
AcDbPolyline
 90
        2
 70
     0
 43
0.0
 10
4.910504059335046
 20
4.194074975648421
 10
5.044521476966423
 20
4.194074975648421
 42
0.9999999999999998
  0
LINE
  5
7DE1B343D9D01CF
330
7DE1B343D9D01FE
100
AcDbEntity
  8
TEXT
100
AcDbLine
 10
5.170858498952062
 20
4.396271313980166
 30
0.0
 11
5.24750648024462
 21
4.396271313980166
 31
0.0
  0
LINE
  5
7DE1B343D9D01D0
330
7DE1B343D9D01FE
100
AcDbEntity
  8
TEXT
100
AcDbLine
 10
5.24750648024462
 20
4.396271313980166
 30
0.0
 11
5.247506480244625
 21
4.194074975648421
 31
0.0
  0
ARC
  5
7DE1B343D9D01D1
330
7DE1B343D9D01FE
100
AcDbEntity
  8
TEXT
100
AcDbCircle
 10
5.17085849895206
 20
4.371365438697504
 30
0.0
 40
0.0249058752826653
100
AcDbArc
 50
89.99971217465335
 51
179.9999999999985
  0
LINE
  5
7DE1B343D9D01D2
330
7DE1B343D9D01FE
100
AcDbEntity
  8
TEXT
100
AcDbLine
 10
5.145952623669403
 20
4.194074975648421
 30
0.0
 11
5.145952623669398
 21
4.371365481079889
 31
0.0
  0
LWPOLYLINE
  5
7DE1B343D9D01D3
330
7DE1B343D9D01FE
100
AcDbEntity
  8
TEXT
100
AcDbPolyline
 90
        2
 70
     0
 43
0.0
 10
5.087597409834067
 20
4.194074975648421
 10
5.145952623669401
 20
4.194074975648421
  0
LWPOLYLINE
  5
7DE1B343D9D01D7
330
7DE1B343D9D01FE
100
AcDbEntity
  8
TEXT
100
AcDbPolyline
 90
        2
 70
     0
 43
0.0
 10
5.087597409834067
 20
4.237565920598859
 10
5.087597409834067
 20
4.194074975648421
  0
LINE
  5
7DE1B343D9D01DB
330
7DE1B343D9D01FE
100
AcDbEntity
  8
TEXT
100
AcDbLine
 10
5.464366570150916
 20
4.194074975648421
 30
0.0
 11
5.368874346787306
 21
4.350654765695958
 31
0.0
  0
LINE
  5
7DE1B343D9D01DC
330
7DE1B343D9D01FE
100
AcDbEntity
  8
TEXT
100
AcDbLine
 10
5.38778819777471
 20
4.194074975648421
 30
0.0
 11
5.464366570150916
 21
4.194074975648421
 31
0.0
  0
LINE
  5
7DE1B343D9D01DD
330
7DE1B343D9D01FE
100
AcDbEntity
  8
TEXT
100
AcDbLine
 10
5.311884664563246
 20
4.325654544124601
 30
0.0
 11
5.38778819777471
 21
4.194074975648421
 31
0.0
  0
LINE
  5
7DE1B343D9D01DE
330
7DE1B343D9D01FE
100
AcDbEntity
  8
TEXT
100
AcDbLine
 10
5.311884664563246
 20
4.194074975648421
 30
0.0
 11
5.311884664563246
 21
4.325654544124601
 31
0.0
  0
LINE
  5
7DE1B343D9D01DF
330
7DE1B343D9D01FE
100
AcDbEntity
  8
TEXT
100
AcDbLine
 10
5.311341471467398
 20
4.526012214404532
 30
0.0
 11
5.243026592918125
 21
4.526012214404532
 31
0.0
  0
ARC
  5
7DE1B343D9D01E0
330
7DE1B343D9D01FE
100
AcDbEntity
  8
TEXT
100
AcDbCircle
 10
5.002670853876919
 20
4.418964441516029
 30
0.0
 40
0.0416329381542859
100
AcDbArc
 50
26.56974201007528
 51
87.20939649401342
  0
LINE
  5
7DE1B343D9D01E1
330
7DE1B343D9D01FE
100
AcDbEntity
  8
TEXT
100
AcDbLine
 10
5.14755463882853
 20
4.460548008636932
 30
0.0
 11
5.083657732529029
 21
4.460548008636932
 31
0.0
  0
LINE
  5
7DE1B343D9D01E2
330
7DE1B343D9D01FE
100
AcDbEntity
  8
TEXT
100
AcDbLine
 10
5.14755463882853
 20
4.433000358776057
 30
0.0
 11
5.14755463882853
 21
4.460548008636932
 31
0.0
  0
ARC
  5
7DE1B343D9D01E3
330
7DE1B343D9D01FE
100
AcDbEntity
  8
TEXT
100
AcDbCircle
 10
5.178747455891638
 20
4.429302281354667
 30
0.0
 40
0.0314112657011332
100
AcDbArc
 50
95.88484768694724
 51
173.2388340632136
  0
LINE
  5
7DE1B343D9D01E4
330
7DE1B343D9D01FE
100
AcDbEntity
  8
TEXT
100
AcDbLine
 10
5.24302659291812
 20
4.460548008636932
 30
0.0
 11
5.175526875268603
 21
4.460548008636932
 31
0.0
  0
LINE
  5
7DE1B343D9D01E5
330
7DE1B343D9D01FE
100
AcDbEntity
  8
TEXT
100
AcDbLine
 10
5.243026592918125
 20
4.526012214404532
 30
0.0
 11
5.24302659291812
 21
4.460548008636932
 31
0.0
  0
LINE
  5
7DE1B343D9D01E6
330
7DE1B343D9D01FE
100
AcDbEntity
  8
TEXT
100
AcDbLine
 10
5.433431462753011
 20
4.460548008636932
 30
0.0
 11
5.358439630023385
 21
4.460548008636932
 31
0.0
  0
ENDSEC
  0
SECTION
  2
OBJECTS
  0
DICTIONARY
  5
7DE1B343D9D01F2
330
0
100
AcDbDictionary
  3
ACAD_GROUP
350
7DE1B343D9D01F3
  3
ACAD_LAYOUT
350
7DE1B343D9D0218
  3
ACAD_MLINESTYLE
350
7DE1B343D9D01F4
  3
ACAD_PLOTSETTINGS
350
7DE1B343D9D0219
  3
ACAD_PLOTSTYLENAME
350
7DE1B343D9D0216
  3
ACDBHEADERROUNDTRIPXREC
350
7DE1B343D9D0223
  3
ACDBVARIABLEDICTIONARY
350
7DE1B343D9D0220
  0
DICTIONARY
  5
7DE1B343D9D0245
330
7DE1B343D9D01FE
100
AcDbDictionary
280
     1
  3
ACAD_LAYOUTSELFREF
360
7DE1B343D9D0246
  0
DICTIONARY
  5
7DE1B343D9D0243
330
7DE1B343D9D01FB
100
AcDbDictionary
280
     1
  3
ACAD_LAYOUTSELFREF
360
7DE1B343D9D0244
  0
DICTIONARY
  5
7DE1B343D9D01F3
102
{ACAD_REACTORS
330
7DE1B343D9D01F2
102
}
330
7DE1B343D9D01F2
100
AcDbDictionary
  0
DICTIONARY
  5
7DE1B343D9D0218
102
{ACAD_REACTORS
330
7DE1B343D9D01F2
102
}
330
7DE1B343D9D01F2
100
AcDbDictionary
  0
DICTIONARY
  5
7DE1B343D9D01F4
102
{ACAD_REACTORS
330
7DE1B343D9D01F2
102
}
330
7DE1B343D9D01F2
100
AcDbDictionary
  3
STANDARD
350
7DE1B343D9D0201
  0
DICTIONARY
  5
7DE1B343D9D0219
102
{ACAD_REACTORS
330
7DE1B343D9D01F2
102
}
330
7DE1B343D9D01F2
100
AcDbDictionary
  0
ACDBDICTIONARYWDFLT
  5
7DE1B343D9D0216
102
{ACAD_REACTORS
330
7DE1B343D9D01F2
102
}
330
7DE1B343D9D01F2
100
AcDbDictionary
281
     1
  3
Normal
350
7DE1B343D9D0217
100
AcDbDictionaryWithDefault
340
7DE1B343D9D0217
  0
DICTIONARY
  5
7DE1B343D9D0223
102
{ACAD_REACTORS
330
7DE1B343D9D01F2
102
}
330
7DE1B343D9D01F2
100
AcDbDictionary
  3
CEPSNTYPE
350
7DE1B343D9D022D
  3
FINGERPRINTGUID
350
7DE1B343D9D022E
  3
HYPERLINKBASE
350
7DE1B343D9D0226
  3
INSUNITS
350
7DE1B343D9D022C
  3
LAYOUTDICT
350
7DE1B343D9D0228
  3
LWETCUNION
350
7DE1B343D9D022B
  3
PLOTSETDICT
350
7DE1B343D9D0229
  3
PLOTSTYLNAMDICT
350
7DE1B343D9D022A
  3
PSVPSCALE
350
7DE1B343D9D0230
  3
PUCSBASE
350
7DE1B343D9D0233
  3
PUCSORGBACK
350
7DE1B343D9D0239
  3
PUCSORGBOTTOM
350
7DE1B343D9D0235
  3
PUCSORGFRONT
350
7DE1B343D9D0238
  3
PUCSORGLEFT
350
7DE1B343D9D0236
  3
PUCSORGRIGHT
350
7DE1B343D9D0237
  3
PUCSORGTOP
350
7DE1B343D9D0234
  3
PUCSORTHOREF
350
7DE1B343D9D0231
  3
PUCSORTHOVIEW
350
7DE1B343D9D0232
  3
STYLESHEET
350
7DE1B343D9D0227
  3
TSTACKALIGN
350
7DE1B343D9D0224
  3
TSTACKSIZE
350
7DE1B343D9D0225
  3
UCSBASE
350
7DE1B343D9D023C
  3
UCSORGBACK
350
7DE1B343D9D0242
  3
UCSORGBOTTOM
350
7DE1B343D9D023E
  3
UCSORGFRONT
350
7DE1B343D9D0241
  3
UCSORGLEFT
350
7DE1B343D9D023F
  3
UCSORGRIGHT
350
7DE1B343D9D0240
  3
UCSORGTOP
350
7DE1B343D9D023D
  3
UCSORTHOREF
350
7DE1B343D9D023A
  3
UCSORTHOVIEW
350
7DE1B343D9D023B
  3
VERSIONGUID
350
7DE1B343D9D022F
  0
DICTIONARY
  5
7DE1B343D9D0220
102
{ACAD_REACTORS
330
7DE1B343D9D01F2
102
}
330
7DE1B343D9D01F2
100
AcDbDictionary
  3
DIMASSOC
350
7DE1B343D9D0221
  0
XRECORD
  5
7DE1B343D9D0246
102
{ACAD_REACTORS
330
7DE1B343D9D0245
102
}
330
7DE1B343D9D0245
100
AcDbXrecord
340
7DE1B343D9D01FE
  0
XRECORD
  5
7DE1B343D9D0244
102
{ACAD_REACTORS
330
7DE1B343D9D0243
102
}
330
7DE1B343D9D0243
100
AcDbXrecord
340
7DE1B343D9D01FB
  0
MLINESTYLE
  5
7DE1B343D9D0201
102
{ACAD_REACTORS
330
7DE1B343D9D01F4
102
}
330
7DE1B343D9D01F4
100
AcDbMlineStyle
  2
STANDARD
 70
     0
  3

 62
     0
 51
90.0
 52
90.0
 71
     2
 49
0.5
 62
   256
  6
BYLAYER
 49
-0.5
 62
   256
  6
BYLAYER
  0
ACDBPLACEHOLDER
  5
7DE1B343D9D0217
102
{ACAD_REACTORS
330
7DE1B343D9D0216
102
}
330
7DE1B343D9D0216
100
AcDbPlaceHolder
280
     0
  0
XRECORD
  5
7DE1B343D9D022D
102
{ACAD_REACTORS
330
7DE1B343D9D0223
102
}
330
7DE1B343D9D0223
100
AcDbXrecord
 90
        0
  0
XRECORD
  5
7DE1B343D9D022E
102
{ACAD_REACTORS
330
7DE1B343D9D0223
102
}
330
7DE1B343D9D0223
100
AcDbXrecord
  1
{6ED2EBB0-8DB4-11D6-88E6-0090279574E7}
  0
XRECORD
  5
7DE1B343D9D0226
102
{ACAD_REACTORS
330
7DE1B343D9D0223
102
}
330
7DE1B343D9D0223
100
AcDbXrecord
  1

  0
XRECORD
  5
7DE1B343D9D022C
102
{ACAD_REACTORS
330
7DE1B343D9D0223
102
}
330
7DE1B343D9D0223
100
AcDbXrecord
 90
        0
  0
XRECORD
  5
7DE1B343D9D0228
102
{ACAD_REACTORS
330
7DE1B343D9D0223
102
}
330
7DE1B343D9D0223
100
AcDbXrecord
340
7DE1B343D9D0218
  0
XRECORD
  5
7DE1B343D9D022B
102
{ACAD_REACTORS
330
7DE1B343D9D0223
102
}
330
7DE1B343D9D0223
100
AcDbXrecord
 90
    14877
  0
XRECORD
  5
7DE1B343D9D0229
102
{ACAD_REACTORS
330
7DE1B343D9D0223
102
}
330
7DE1B343D9D0223
100
AcDbXrecord
340
7DE1B343D9D0219
  0
XRECORD
  5
7DE1B343D9D022A
102
{ACAD_REACTORS
330
7DE1B343D9D0223
102
}
330
7DE1B343D9D0223
100
AcDbXrecord
340
7DE1B343D9D0216
  0
XRECORD
  5
7DE1B343D9D0230
102
{ACAD_REACTORS
330
7DE1B343D9D0223
102
}
330
7DE1B343D9D0223
100
AcDbXrecord
 40
0.0
  0
XRECORD
  5
7DE1B343D9D0233
102
{ACAD_REACTORS
330
7DE1B343D9D0223
102
}
330
7DE1B343D9D0223
100
AcDbXrecord
340
0
  0
XRECORD
  5
7DE1B343D9D0239
102
{ACAD_REACTORS
330
7DE1B343D9D0223
102
}
330
7DE1B343D9D0223
100
AcDbXrecord
 10
0.0
 20
0.0
 30
0.0
  0
XRECORD
  5
7DE1B343D9D0235
102
{ACAD_REACTORS
330
7DE1B343D9D0223
102
}
330
7DE1B343D9D0223
100
AcDbXrecord
 10
0.0
 20
0.0
 30
0.0
  0
XRECORD
  5
7DE1B343D9D0238
102
{ACAD_REACTORS
330
7DE1B343D9D0223
102
}
330
7DE1B343D9D0223
100
AcDbXrecord
 10
0.0
 20
0.0
 30
0.0
  0
XRECORD
  5
7DE1B343D9D0236
102
{ACAD_REACTORS
330
7DE1B343D9D0223
102
}
330
7DE1B343D9D0223
100
AcDbXrecord
 10
0.0
 20
0.0
 30
0.0
  0
XRECORD
  5
7DE1B343D9D0237
102
{ACAD_REACTORS
330
7DE1B343D9D0223
102
}
330
7DE1B343D9D0223
100
AcDbXrecord
 10
0.0
 20
0.0
 30
0.0
  0
XRECORD
  5
7DE1B343D9D0234
102
{ACAD_REACTORS
330
7DE1B343D9D0223
102
}
330
7DE1B343D9D0223
100
AcDbXrecord
 10
0.0
 20
0.0
 30
0.0
  0
XRECORD
  5
7DE1B343D9D0231
102
{ACAD_REACTORS
330
7DE1B343D9D0223
102
}
330
7DE1B343D9D0223
100
AcDbXrecord
340
0
  0
XRECORD
  5
7DE1B343D9D0232
102
{ACAD_REACTORS
330
7DE1B343D9D0223
102
}
330
7DE1B343D9D0223
100
AcDbXrecord
 70
     0
  0
XRECORD
  5
7DE1B343D9D0227
102
{ACAD_REACTORS
330
7DE1B343D9D0223
102
}
330
7DE1B343D9D0223
100
AcDbXrecord
  1

  0
XRECORD
  5
7DE1B343D9D0224
102
{ACAD_REACTORS
330
7DE1B343D9D0223
102
}
330
7DE1B343D9D0223
100
AcDbXrecord
 90
        1
  0
XRECORD
  5
7DE1B343D9D0225
102
{ACAD_REACTORS
330
7DE1B343D9D0223
102
}
330
7DE1B343D9D0223
100
AcDbXrecord
 90
       70
  0
XRECORD
  5
7DE1B343D9D023C
102
{ACAD_REACTORS
330
7DE1B343D9D0223
102
}
330
7DE1B343D9D0223
100
AcDbXrecord
340
0
  0
XRECORD
  5
7DE1B343D9D0242
102
{ACAD_REACTORS
330
7DE1B343D9D0223
102
}
330
7DE1B343D9D0223
100
AcDbXrecord
 10
0.0
 20
0.0
 30
0.0
  0
XRECORD
  5
7DE1B343D9D023E
102
{ACAD_REACTORS
330
7DE1B343D9D0223
102
}
330
7DE1B343D9D0223
100
AcDbXrecord
 10
0.0
 20
0.0
 30
0.0
  0
XRECORD
  5
7DE1B343D9D0241
102
{ACAD_REACTORS
330
7DE1B343D9D0223
102
}
330
7DE1B343D9D0223
100
AcDbXrecord
 10
0.0
 20
0.0
 30
0.0
  0
XRECORD
  5
7DE1B343D9D023F
102
{ACAD_REACTORS
330
7DE1B343D9D0223
102
}
330
7DE1B343D9D0223
100
AcDbXrecord
 10
0.0
 20
0.0
 30
0.0
  0
XRECORD
  5
7DE1B343D9D0240
102
{ACAD_REACTORS
330
7DE1B343D9D0223
102
}
330
7DE1B343D9D0223
100
AcDbXrecord
 10
0.0
 20
0.0
 30
0.0
  0
XRECORD
  5
7DE1B343D9D023D
102
{ACAD_REACTORS
330
7DE1B343D9D0223
102
}
330
7DE1B343D9D0223
100
AcDbXrecord
 10
0.0
 20
0.0
 30
0.0
  0
XRECORD
  5
7DE1B343D9D023A
102
{ACAD_REACTORS
330
7DE1B343D9D0223
102
}
330
7DE1B343D9D0223
100
AcDbXrecord
340
0
  0
XRECORD
  5
7DE1B343D9D023B
102
{ACAD_REACTORS
330
7DE1B343D9D0223
102
}
330
7DE1B343D9D0223
100
AcDbXrecord
 70
     0
  0
XRECORD
  5
7DE1B343D9D022F
102
{ACAD_REACTORS
330
7DE1B343D9D0223
102
}
330
7DE1B343D9D0223
100
AcDbXrecord
  1
{6ED2EBB2-8DB4-11D6-88E6-0090279574E7}
  0
DICTIONARYVAR
  5
7DE1B343D9D0221
102
{ACAD_REACTORS
330
7DE1B343D9D0220
102
}
330
7DE1B343D9D0220
100
DictionaryVariables
280
     0
  1
1
  0
ENDSEC
  0
EOF
