  0
SECTION
  2
HEADER
  9
$ACADVER
  1
AC1014
  9
$ACADMAINTVER
 70
     9
  9
$DWGCODEPAGE
  3
ANSI_1252
  9
$INSBASE
 10
0.0
 20
0.0
 30
0.0
  9
$EXTMIN
 10
-0.2953922629590829
 20
0.5266598705308134
 30
0.0
  9
$EXTMAX
 10
3.189827058788045
 20
1.671874999999997
 30
0.0
  9
$LIMMIN
 10
0.0
 20
0.0
  9
$LIMMAX
 10
8.5
 20
11.0
  9
$ORTHOMODE
 70
     0
  9
$REGENMODE
 70
     1
  9
$FILLMODE
 70
     1
  9
$QTEXTMODE
 70
     0
  9
$MIRRTEXT
 70
     0
  9
$DRAGMODE
 70
     2
  9
$LTSCALE
 40
1.0
  9
$OSMODE
 70
    39
  9
$ATTMODE
 70
     1
  9
$TEXTSIZE
 40
0.125
  9
$TRACEWID
 40
0.05
  9
$TEXTSTYLE
  7
ROMANS
  9
$CLAYER
  8
DIMENSIONS
  9
$CELTYPE
  6
BYLAYER
  9
$CECOLOR
 62
   256
  9
$CELTSCALE
 40
1.0
  9
$DELOBJ
 70
     1
  9
$DISPSILH
 70
     1
  9
$DIMSCALE
 40
1.0
  9
$DIMASZ
 40
0.125
  9
$DIMEXO
 40
0.125
  9
$DIMDLI
 40
0.375
  9
$DIMRND
 40
0.0
  9
$DIMDLE
 40
0.0
  9
$DIMEXE
 40
0.125
  9
$DIMTP
 40
0.02
  9
$DIMTM
 40
0.0
  9
$DIMTXT
 40
0.125
  9
$DIMCEN
 40
-0.125
  9
$DIMTSZ
 40
0.0
  9
$DIMTOL
 70
     0
  9
$DIMLIM
 70
     0
  9
$DIMTIH
 70
     1
  9
$DIMTOH
 70
     1
  9
$DIMSE1
 70
     0
  9
$DIMSE2
 70
     0
  9
$DIMTAD
 70
     0
  9
$DIMZIN
 70
     4
  9
$DIMBLK
  1

  9
$DIMASO
 70
     1
  9
$DIMSHO
 70
     1
  9
$DIMPOST
  1

  9
$DIMAPOST
  1

  9
$DIMALT
 70
     0
  9
$DIMALTD
 70
     2
  9
$DIMALTF
 40
25.4
  9
$DIMLFAC
 40
0.5
  9
$DIMTOFL
 70
     0
  9
$DIMTVP
 40
0.0
  9
$DIMTIX
 70
     0
  9
$DIMSOXD
 70
     0
  9
$DIMSAH
 70
     0
  9
$DIMBLK1
  1

  9
$DIMBLK2
  1

  9
$DIMSTYLE
  2
STANDARD
  9
$DIMCLRD
 70
     0
  9
$DIMCLRE
 70
     0
  9
$DIMCLRT
 70
     0
  9
$DIMTFAC
 40
1.0
  9
$DIMGAP
 40
0.09
  9
$DIMJUST
 70
     0
  9
$DIMSD1
 70
     0
  9
$DIMSD2
 70
     0
  9
$DIMTOLJ
 70
     1
  9
$DIMTZIN
 70
     0
  9
$DIMALTZ
 70
     0
  9
$DIMALTTZ
 70
     0
  9
$DIMFIT
 70
     3
  9
$DIMUPT
 70
     0
  9
$DIMUNIT
 70
     2
  9
$DIMDEC
 70
     3
  9
$DIMTDEC
 70
     4
  9
$DIMALTU
 70
     2
  9
$DIMALTTD
 70
     2
  9
$DIMTXSTY
  7
ROMANS
  9
$DIMAUNIT
 70
     0
  9
$LUNITS
 70
     2
  9
$LUPREC
 70
     5
  9
$SKETCHINC
 40
0.1
  9
$FILLETRAD
 40
0.0
  9
$AUNITS
 70
     0
  9
$AUPREC
 70
     0
  9
$MENU
  1
AUTOMSTR
  9
$ELEVATION
 40
0.0
  9
$PELEVATION
 40
0.0
  9
$THICKNESS
 40
0.0
  9
$LIMCHECK
 70
     0
  9
$BLIPMODE
 70
     0
  9
$CHAMFERA
 40
0.0
  9
$CHAMFERB
 40
0.0
  9
$CHAMFERC
 40
0.0
  9
$CHAMFERD
 40
0.0
  9
$SKPOLY
 70
     0
  9
$TDCREATE
 40
2448086.454029051
  9
$TDUPDATE
 40
2452458.297593750
  9
$TDINDWG
 40
0.2226687153
  9
$TDUSRTIMER
 40
0.2226687153
  9
$USRTIMER
 70
     1
  9
$ANGBASE
 50
0.0
  9
$ANGDIR
 70
     0
  9
$PDMODE
 70
     0
  9
$PDSIZE
 40
0.0
  9
$PLINEWID
 40
0.0
  9
$COORDS
 70
     2
  9
$SPLFRAME
 70
     0
  9
$SPLINETYPE
 70
     6
  9
$SPLINESEGS
 70
     8
  9
$ATTDIA
 70
     0
  9
$ATTREQ
 70
     1
  9
$HANDLING
 70
 22529
  9
$HANDSEED
  5
388
  9
$SURFTAB1
 70
     6
  9
$SURFTAB2
 70
     6
  9
$SURFTYPE
 70
     6
  9
$SURFU
 70
     6
  9
$SURFV
 70
     6
  9
$UCSNAME
  2

  9
$UCSORG
 10
0.0
 20
0.0
 30
0.0
  9
$UCSXDIR
 10
1.0
 20
0.0
 30
0.0
  9
$UCSYDIR
 10
0.0
 20
1.0
 30
0.0
  9
$PUCSNAME
  2

  9
$PUCSORG
 10
0.0
 20
0.0
 30
0.0
  9
$PUCSXDIR
 10
1.0
 20
0.0
 30
0.0
  9
$PUCSYDIR
 10
0.0
 20
1.0
 30
0.0
  9
$USERI1
 70
     0
  9
$USERI2
 70
     0
  9
$USERI3
 70
     0
  9
$USERI4
 70
     0
  9
$USERI5
 70
     0
  9
$USERR1
 40
0.0
  9
$USERR2
 40
0.0
  9
$USERR3
 40
0.0
  9
$USERR4
 40
0.0
  9
$USERR5
 40
0.0
  9
$WORLDVIEW
 70
     1
  9
$SHADEDGE
 70
     3
  9
$SHADEDIF
 70
    70
  9
$TILEMODE
 70
     1
  9
$MAXACTVP
 70
    16
  9
$PINSBASE
 10
0.0
 20
0.0
 30
0.0
  9
$PLIMCHECK
 70
     0
  9
$PEXTMIN
 10
1.000000000000000E+20
 20
1.000000000000000E+20
 30
1.000000000000000E+20
  9
$PEXTMAX
 10
-1.000000000000000E+20
 20
-1.000000000000000E+20
 30
-1.000000000000000E+20
  9
$PLIMMIN
 10
0.0
 20
0.0
  9
$PLIMMAX
 10
12.0
 20
9.0
  9
$UNITMODE
 70
     0
  9
$VISRETAIN
 70
     0
  9
$PLINEGEN
 70
     1
  9
$PSLTSCALE
 70
     0
  9
$TREEDEPTH
 70
  3020
  9
$PICKSTYLE
 70
     1
  9
$CMLSTYLE
  2
STANDARD
  9
$CMLJUST
 70
     0
  9
$CMLSCALE
 40
1.0
  9
$PROXYGRAPHICS
 70
     1
  9
$MEASUREMENT
 70
     0
  0
ENDSEC
  0
SECTION
  2
CLASSES
  0
CLASS
  1
LWPOLYLINE
  2
AcDbPolyline
  3
AutoCAD 2000
 90
        0
280
     0
281
     1
  0
CLASS
  1
ACDBDICTIONARYWDFLT
  2
AcDbDictionaryWithDefault
  3
AutoCAD 2000
 90
        0
280
     0
281
     0
  0
CLASS
  1
ACDBPLACEHOLDER
  2
AcDbPlaceHolder
  3
AutoCAD 2000
 90
        0
280
     0
281
     0
  0
CLASS
  1
LAYOUT
  2
AcDbLayout
  3
AutoCAD 2000
 90
        0
280
     0
281
     0
  0
CLASS
  1
DICTIONARYVAR
  2
AcDbDictionaryVar
  3
AutoCAD 2000
 90
        0
280
     0
281
     0
  0
CLASS
  1
LONG_TRANSACTION
  2
AcDbLongTransaction
  3
AutoCAD 2000
 90
        0
280
     0
281
     0
  0
CLASS
  1
LWPOLYLINE
  2
AcDbPolyline
  3
AutoCAD 2000
 90
        0
280
     0
281
     1
  0
CLASS
  1
HATCH
  2
AcDbHatch
  3
AutoCAD 2000
 90
        0
280
     0
281
     1
  0
CLASS
  1
XRECORD
  2
AcDbXrecord
  3
AutoCAD 2000
 90
        0
280
     0
281
     0
  0
ENDSEC
  0
SECTION
  2
TABLES
  0
TABLE
  2
VPORT
  5
8
330
0
100
AcDbSymbolTable
 70
     2
  0
VPORT
  5
363
330
8
100
AcDbSymbolTableRecord
100
AcDbViewportTableRecord
  2
*ACTIVE
 70
     0
 10
0.0
 20
0.0
 11
1.0
 21
1.0
 12
4.369703433121053
 22
1.099279386078737
 13
0.0
 23
0.0
 14
0.015625
 24
0.015625
 15
0.0
 25
0.0
 16
0.0
 26
0.0
 36
1.0
 17
0.0
 27
0.0
 37
0.0
 40
2.163783105556754
 41
4.320930232558139
 42
50.0
 43
0.0
 44
0.0
 50
0.0
 51
0.0
 71
     0
 72
  2000
 73
     1
 74
     1
 75
     0
 76
     0
 77
     0
 78
     0
  0
ENDTAB
  0
TABLE
  2
LTYPE
  5
5
330
0
100
AcDbSymbolTable
 70
     1
  0
LTYPE
  5
12
330
5
100
AcDbSymbolTableRecord
100
AcDbLinetypeTableRecord
  2
BYBLOCK
 70
     0
  3

 72
    65
 73
     0
 40
0.0
  0
LTYPE
  5
13
330
5
100
AcDbSymbolTableRecord
100
AcDbLinetypeTableRecord
  2
BYLAYER
 70
     0
  3

 72
    65
 73
     0
 40
0.0
  0
LTYPE
  5
14
330
5
100
AcDbSymbolTableRecord
100
AcDbLinetypeTableRecord
  2
CONTINUOUS
 70
     0
  3
Solid line
 72
    65
 73
     0
 40
0.0
  0
ENDTAB
  0
TABLE
  2
LAYER
  5
2
330
0
100
AcDbSymbolTable
 70
     3
  0
LAYER
  5
F
330
2
100
AcDbSymbolTableRecord
100
AcDbLayerTableRecord
  2
0
 70
     0
 62
     7
  6
CONTINUOUS
  0
LAYER
  5
2C
330
2
100
AcDbSymbolTableRecord
100
AcDbLayerTableRecord
  2
DIMENSIONS
 70
     0
 62
     4
  6
CONTINUOUS
  0
LAYER
  5
2D
330
2
100
AcDbSymbolTableRecord
100
AcDbLayerTableRecord
  2
TEXT
 70
     0
 62
     3
  6
CONTINUOUS
  0
ENDTAB
  0
TABLE
  2
STYLE
  5
3
330
0
100
AcDbSymbolTable
 70
     3
  0
STYLE
  5
10
330
3
100
AcDbSymbolTableRecord
100
AcDbTextStyleTableRecord
  2
STANDARD
 70
     0
 40
0.0
 41
1.0
 50
0.0
 71
     0
 42
0.125
  3
txt
  4

  0
STYLE
  5
24F
330
3
100
AcDbSymbolTableRecord
100
AcDbTextStyleTableRecord
  2
ITALICC
 70
     0
 40
0.0
 41
1.0
 50
0.0
 71
     0
 42
0.125
  3
italicc
  4

  0
STYLE
  5
35F
330
3
100
AcDbSymbolTableRecord
100
AcDbTextStyleTableRecord
  2
ROMANS
 70
     0
 40
0.0
 41
1.0
 50
0.0
 71
     0
 42
0.125
  3
romans.shx
  4

  0
ENDTAB
  0
TABLE
  2
VIEW
  5
6
330
0
100
AcDbSymbolTable
 70
     0
  0
ENDTAB
  0
TABLE
  2
UCS
  5
7
330
0
100
AcDbSymbolTable
 70
     0
  0
ENDTAB
  0
TABLE
  2
APPID
  5
9
330
0
100
AcDbSymbolTable
 70
     1
  0
APPID
  5
11
330
9
100
AcDbSymbolTableRecord
100
AcDbRegAppTableRecord
  2
ACAD
 70
     0
  0
ENDTAB
  0
TABLE
  2
DIMSTYLE
  5
A
330
0
100
AcDbSymbolTable
 70
     1
  0
DIMSTYLE
105
243
330
A
100
AcDbSymbolTableRecord
100
AcDbDimStyleTableRecord
  2
STANDARD
 70
     0
  3

  4

  5

  6

  7

 40
1.0
 41
0.18
 42
0.0625
 43
0.38
 44
0.18
 45
0.0
 46
0.0
 47
0.0
 48
0.0
140
0.18
141
0.09
142
0.0
143
25.4
144
1.0
145
0.0
146
1.0
147
0.09
 71
     0
 72
     0
 73
     1
 74
     1
 75
     0
 76
     0
 77
     0
 78
     0
170
     0
171
     2
172
     0
173
     0
174
     0
175
     0
176
     0
177
     0
178
     0
270
     2
271
     4
272
     4
273
     2
274
     2
340
10
275
     0
280
     0
281
     0
282
     0
283
     1
284
     0
285
     0
286
     0
287
     3
288
     0
  0
ENDTAB
  0
TABLE
  2
BLOCK_RECORD
  5
1
330
0
100
AcDbSymbolTable
 70
     0
  0
BLOCK_RECORD
  5
18
102
{ACAD_XDICTIONARY
360
386
102
}
330
1
100
AcDbSymbolTableRecord
100
AcDbBlockTableRecord
  2
*MODEL_SPACE
  0
BLOCK_RECORD
  5
15
102
{ACAD_XDICTIONARY
360
384
102
}
330
1
100
AcDbSymbolTableRecord
100
AcDbBlockTableRecord
  2
*PAPER_SPACE
  0
ENDTAB
  0
ENDSEC
  0
SECTION
  2
BLOCKS
  0
BLOCK
  5
36
330
18
100
AcDbEntity
  8
0
100
AcDbBlockBegin
  2
*MODEL_SPACE
 70
     0
 10
0.0
 20
0.0
 30
0.0
  3
*MODEL_SPACE
  1

  0
ENDBLK
  5
37
330
18
100
AcDbEntity
  8
0
100
AcDbBlockEnd
  0
BLOCK
  5
34
330
15
100
AcDbEntity
 67
     1
  8
0
100
AcDbBlockBegin
  2
*PAPER_SPACE
 70
     0
 10
0.0
 20
0.0
 30
0.0
  3
*PAPER_SPACE
  1

  0
ENDBLK
  5
35
330
15
100
AcDbEntity
 67
     1
  8
0
100
AcDbBlockEnd
  0
ENDSEC
  0
SECTION
  2
ENTITIES
  0
LWPOLYLINE
  5
6C
330
18
100
AcDbEntity
  8
0
100
AcDbPolyline
 90
       17
 70
     1
 43
0.0
 10
1.875624999999999
 20
1.421874999999997
 10
2.015625
 20
1.421874999999997
 10
2.015625
 20
1.671874999999997
 10
1.015625
 20
1.671874999999996
 10
1.015625
 20
1.359374999999996
 10
1.078125
 20
1.359374999999997
 10
1.078125
 20
1.609374999999997
 10
1.505625
 20
1.609374999999997
 10
1.515625
 20
1.619374999999996
 10
1.525624999999999
 20
1.609374999999997
 10
1.953125
 20
1.609374999999997
 10
1.953124999999999
 20
1.484374999999997
 10
1.875624999999999
 20
1.484374999999997
 10
1.813124999999999
 20
1.484374999999997
 10
1.813124999999999
 20
1.421874999999997
 10
1.813124999999999
 20
1.359374999999997
 10
1.875624999999999
 20
1.359374999999997
  0
TEXT
  5
2D5
330
18
100
AcDbEntity
  8
TEXT
100
AcDbText
 10
0.6916369353156793
 20
0.9846784746133948
 30
0.0
 40
0.125
  1
PART #110147
  7
ITALICC
 72
     1
 11
1.44758931626806
 21
0.9846784746133948
 31
0.0
100
AcDbText
  0
LINE
  5
2D6
330
18
100
AcDbEntity
  8
TEXT
100
AcDbLine
 10
1.602903946291443
 20
0.8046014832503267
 30
0.0
 11
1.555805787735459
 21
0.7287361568387887
 31
0.0
  0
LINE
  5
2D7
330
18
100
AcDbEntity
  8
TEXT
100
AcDbLine
 10
1.555805787735459
 20
0.7287361568387887
 30
0.0
 11
1.555805787735459
 21
0.8700656890179274
 31
0.0
  0
LINE
  5
2D8
330
18
100
AcDbEntity
  8
TEXT
100
AcDbLine
 10
1.555805787735459
 20
0.8700656890179274
 30
0.0
 11
1.487490909186186
 21
0.8700656890179274
 31
0.0
  0
LINE
  5
2D9
330
18
100
AcDbEntity
  8
TEXT
100
AcDbLine
 10
1.487490909186186
 20
0.8700656890179274
 30
0.0
 11
1.48749090918618
 21
0.8046014832503267
 31
0.0
  0
LINE
  5
2DA
330
18
100
AcDbEntity
  8
TEXT
100
AcDbLine
 10
1.613338663055366
 20
0.6947082403093532
 30
0.0
 11
1.677895779021072
 21
0.8046014832503267
 31
0.0
  0
LINE
  5
2DB
330
18
100
AcDbEntity
  8
TEXT
100
AcDbLine
 10
1.677895779021072
 20
0.8046014832503267
 30
0.0
 11
1.602903946291445
 21
0.8046014832503267
 31
0.0
  0
LINE
  5
2DC
330
18
100
AcDbEntity
  8
TEXT
100
AcDbLine
 10
1.491970796512686
 20
0.5381284502618158
 30
0.0
 11
1.556348980831306
 21
0.5381284502618158
 31
0.0
  0
LINE
  5
2DD
330
18
100
AcDbEntity
  8
TEXT
100
AcDbLine
 10
1.556348980831306
 20
0.5381284502618158
 30
0.0
 11
1.556348980831306
 21
0.6697080187379961
 31
0.0
  0
LINE
  5
2DE
330
18
100
AcDbEntity
  8
TEXT
100
AcDbLine
 10
1.556348980831306
 20
0.6697080187379961
 30
0.0
 11
1.632252514042771
 21
0.5381284502618158
 31
0.0
  0
LINE
  5
2DF
330
18
100
AcDbEntity
  8
TEXT
100
AcDbLine
 10
1.632252514042771
 20
0.5381284502618158
 30
0.0
 11
1.708830886418977
 21
0.5381284502618158
 31
0.0
  0
LINE
  5
2E0
330
18
100
AcDbEntity
  8
TEXT
100
AcDbLine
 10
1.49197079651268
 20
0.7403247885935614
 30
0.0
 11
1.491970796512686
 21
0.5381284502618158
 31
0.0
  0
LINE
  5
2E1
330
18
100
AcDbEntity
  8
TEXT
100
AcDbLine
 10
1.708830886418977
 20
0.5381284502618158
 30
0.0
 11
1.613338663055366
 21
0.6947082403093532
 31
0.0
  0
ARC
  5
2E2
330
18
100
AcDbEntity
  8
TEXT
100
AcDbCircle
 10
1.415322815220122
 20
0.7154189133108986
 30
0.0
 40
0.0249058752826653
100
AcDbArc
 50
89.99971217465335
 51
179.9999999999985
  0
ARC
  5
2E3
330
18
100
AcDbEntity
  8
TEXT
100
AcDbCircle
 10
1.423211772159699
 20
0.773355755968062
 30
0.0
 40
0.0314112657011332
100
AcDbArc
 50
95.88484768694724
 51
173.2388340632136
  0
LINE
  5
2E4
330
18
100
AcDbEntity
  8
TEXT
100
AcDbLine
 10
1.392018955096591
 20
0.7770538333894521
 30
0.0
 11
1.392018955096591
 21
0.8046014832503267
 31
0.0
  0
LINE
  5
2E5
330
18
100
AcDbEntity
  8
TEXT
100
AcDbLine
 10
1.392018955096591
 20
0.8046014832503267
 30
0.0
 11
1.32812204879709
 21
0.8046014832503267
 31
0.0
  0
LINE
  5
2E6
330
18
100
AcDbEntity
  8
TEXT
100
AcDbLine
 10
1.32812204879709
 20
0.8046014832503267
 30
0.0
 11
1.32812204879709
 21
0.6993895046968995
 31
0.0
  0
LINE
  5
2E7
330
18
100
AcDbEntity
  8
TEXT
100
AcDbLine
 10
1.249162109922049
 20
0.8046014832503267
 30
0.0
 11
1.11433020070499
 21
0.8046014832503267
 31
0.0
  0
LINE
  5
2E8
330
18
100
AcDbEntity
  8
TEXT
100
AcDbLine
 10
1.11433020070499
 20
0.8046014832503267
 30
0.0
 11
1.11433020070499
 21
0.7762789374806829
 31
0.0
  0
LINE
  5
2E9
330
18
100
AcDbEntity
  8
TEXT
100
AcDbLine
 10
1.173644297098308
 20
0.7030498151314291
 30
0.0
 11
1.255932286881692
 21
0.7030498151314291
 31
0.0
  0
LINE
  5
2EA
330
18
100
AcDbEntity
  8
TEXT
100
AcDbLine
 10
1.255932286881692
 20
0.7030498151314291
 30
0.0
 11
1.245667526468127
 21
0.7243003547041234
 31
0.0
  0
LINE
  5
2EB
330
18
100
AcDbEntity
  8
TEXT
100
AcDbLine
 10
1.22013121157757
 20
0.7403247885935614
 30
0.0
 11
1.112924938190281
 21
0.7403247885935614
 31
0.0
  0
ARC
  5
2EC
330
18
100
AcDbEntity
  8
TEXT
100
AcDbCircle
 10
1.220131211577569
 20
0.7119654135935641
 30
0.0
 40
0.028359375
100
AcDbArc
 50
25.78218179591245
 51
90.0
  0
LINE
  5
2ED
330
18
100
AcDbEntity
  8
TEXT
100
AcDbLine
 10
1.32812204879709
 20
0.6993895046968995
 30
0.0
 11
1.284371277615188
 21
0.7816397806930447
 31
0.0
  0
ARC
  5
2EE
330
18
100
AcDbEntity
  8
TEXT
100
AcDbCircle
 10
1.24713517014498
 20
0.7630179161294244
 30
0.0
 40
0.0416329381542859
100
AcDbArc
 50
26.56974201007528
 51
87.20939649401342
  0
LWPOLYLINE
  5
2EF
330
18
100
AcDbEntity
  8
TEXT
100
AcDbPolyline
 90
        2
 70
     0
 43
0.0
 10
1.332061726102129
 20
0.581619395212254
 42
-0.2901071551932486
 10
1.288985793234484
 20
0.5381284502618158
 42
-5.328517124445184
  0
LWPOLYLINE
  5
2F0
330
18
100
AcDbEntity
  8
TEXT
100
AcDbPolyline
 90
        2
 70
     0
 43
0.0
 10
1.332061726102129
 20
0.581619395212254
 10
1.332061726102129
 20
0.5381284502618158
  0
LWPOLYLINE
  5
2F1
330
18
100
AcDbEntity
  8
TEXT
100
AcDbPolyline
 90
        2
 70
     0
 43
0.0
 10
1.332061726102129
 20
0.5381284502618158
 10
1.390416939937463
 20
0.5381284502618158
  0
LWPOLYLINE
  5
2F2
330
18
100
AcDbEntity
  8
TEXT
100
AcDbPolyline
 90
        2
 70
     0
 43
0.0
 10
1.111892442735472
 20
0.581619395212254
 42
0.2901071551932823
 10
1.154968375603107
 20
0.5381284502618158
 42
5.328517124445801
  0
LWPOLYLINE
  5
2F3
330
18
100
AcDbEntity
  8
TEXT
100
AcDbPolyline
 90
        2
 70
     0
 43
0.0
 10
1.154968375603107
 20
0.5381284502618158
 10
1.288985793234484
 20
0.5381284502618158
 42
0.9999999999999998
  0
LWPOLYLINE
  5
2F4
330
18
100
AcDbEntity
  8
TEXT
100
AcDbPolyline
 90
        4
 70
     1
 43
0.0
 10
1.268863328164592
 20
0.641092428245841
 10
1.180203009504733
 20
0.641092428245841
 42
0.9999999999999998
 10
1.180203009504733
 20
0.5986938877419803
 10
1.268863328164592
 20
0.5986938877419803
 42
1.0
  0
ARC
  5
2F5
330
18
100
AcDbEntity
  8
TEXT
100
AcDbCircle
 10
1.173644297098308
 20
0.6353642339873105
 30
0.0
 40
0.0676855811441166
100
AcDbArc
 50
90.0
 51
153.7768192527749
  0
LINE
  5
2F6
330
18
100
AcDbEntity
  8
TEXT
100
AcDbLine
 10
1.390416939937463
 20
0.5381284502618158
 30
0.0
 11
1.390416939937458
 21
0.7154189556932842
 31
0.0
  0
LINE
  5
2F7
330
18
100
AcDbEntity
  8
TEXT
100
AcDbLine
 10
1.112924938190281
 20
0.7403247885935614
 30
0.0
 11
1.112924938190281
 21
0.6652723825193548
 31
0.0
  0
LINE
  5
2F8
330
18
100
AcDbEntity
  8
TEXT
100
AcDbLine
 10
1.415322815220123
 20
0.7403247885935614
 30
0.0
 11
1.49197079651268
 21
0.7403247885935614
 31
0.0
  0
LINE
  5
2F9
330
18
100
AcDbEntity
  8
TEXT
100
AcDbLine
 10
1.48749090918618
 20
0.8046014832503267
 30
0.0
 11
1.419991191536664
 21
0.8046014832503267
 31
0.0
  0
LWPOLYLINE
  5
2FA
330
18
100
AcDbEntity
  8
TEXT
100
AcDbPolyline
 90
        2
 70
     0
 43
0.0
 10
0.9071149374125972
 20
0.7403247885935614
 42
-0.4142135623731017
 10
0.9146687265787107
 20
0.7327709994274514
 42
-0.9999999999999998
  0
LWPOLYLINE
  5
2FB
330
18
100
AcDbEntity
  8
TEXT
100
AcDbPolyline
 90
        2
 70
     0
 43
0.0
 10
1.035860370281501
 20
0.7403247885935614
 42
-0.4142135623731017
 10
1.043414159447614
 20
0.7327709994274514
 42
-0.9999999999999998
  0
LWPOLYLINE
  5
2FC
330
18
100
AcDbEntity
  8
TEXT
100
AcDbPolyline
 90
        2
 70
     0
 43
0.0
 10
0.9244666604626186
 20
0.8046014832503303
 42
-0.3328679258950098
 10
0.96024835117578
 20
0.7774339864894344
 42
6.772930709997214
  0
LWPOLYLINE
  5
2FD
330
18
100
AcDbEntity
  8
TEXT
100
AcDbPolyline
 90
        3
 70
     0
 43
0.0
 10
1.078548509991824
 20
0.8046014832503303
 10
0.96024835117578
 20
0.8046014832503303
 10
0.96024835117578
 20
0.7774339864894344
 42
-1.960274751411753
  0
LINE
  5
2FE
330
18
100
AcDbEntity
  8
TEXT
100
AcDbLine
 10
0.9817267733605516
 20
0.7403247885935614
 30
0.0
 11
1.035860370281501
 21
0.7403247885935614
 31
0.0
  0
LINE
  5
2FF
330
18
100
AcDbEntity
  8
TEXT
100
AcDbLine
 10
0.8572796575894505
 20
0.7403247885935614
 30
0.0
 11
0.9071149374125981
 21
0.7403247885935614
 31
0.0
  0
LINE
  5
300
330
18
100
AcDbEntity
  8
TEXT
100
AcDbLine
 10
0.9244666604626177
 20
0.8046014832503267
 30
0.0
 11
0.7904486045314814
 21
0.8046014832503267
 31
0.0
  0
LINE
  5
301
330
18
100
AcDbEntity
  8
TEXT
100
AcDbLine
 10
0.9146687265787116
 20
0.5381284502618158
 30
0.0
 11
0.9817267733605516
 21
0.5381284502618158
 31
0.0
  0
LINE
  5
302
330
18
100
AcDbEntity
  8
TEXT
100
AcDbLine
 10
0.759276323890016
 20
0.5381284502618158
 30
0.0
 11
0.8572796575894505
 21
0.5381284502618158
 31
0.0
  0
LINE
  5
303
330
18
100
AcDbEntity
  8
TEXT
100
AcDbLine
 10
0.7904486045314814
 20
0.6037372765179186
 30
0.0
 11
0.7734549676468801
 21
0.6037372765179186
 31
0.0
  0
ARC
  5
304
330
18
100
AcDbEntity
  8
TEXT
100
AcDbCircle
 10
0.7734549676468792
 20
0.619119082761344
 30
0.0
 40
0.0153818062434269
100
AcDbArc
 50
174.7883570302258
 51
270.0
  0
LINE
  5
305
330
18
100
AcDbEntity
  8
TEXT
100
AcDbLine
 10
0.8572796575894505
 20
0.5381284502618158
 30
0.0
 11
0.8572796575894505
 21
0.7403247885935614
 31
0.0
  0
LINE
  5
306
330
18
100
AcDbEntity
  8
TEXT
100
AcDbLine
 10
0.9146687265787116
 20
0.7327709994274514
 30
0.0
 11
0.9146687265787116
 21
0.5381284502618158
 31
0.0
  0
LINE
  5
307
330
18
100
AcDbEntity
  8
TEXT
100
AcDbLine
 10
0.9817267733605516
 20
0.5381284502618158
 30
0.0
 11
0.9817267733605516
 21
0.7403247885935614
 31
0.0
  0
LINE
  5
308
330
18
100
AcDbEntity
  8
TEXT
100
AcDbLine
 10
0.7904486045314814
 20
0.8046014832503267
 30
0.0
 11
0.7904486045314814
 21
0.6037372765179186
 31
0.0
  0
LINE
  5
309
330
18
100
AcDbEntity
  8
TEXT
100
AcDbLine
 10
0.7581367503938213
 20
0.620516288364815
 30
0.0
 11
0.7581367503938213
 21
0.8726129609891373
 31
0.0
  0
LINE
  5
30A
330
18
100
AcDbEntity
  8
TEXT
100
AcDbLine
 10
0.6913280378274563
 20
0.8726129609891373
 30
0.0
 11
0.6913280378274563
 21
0.8046014832503267
 31
0.0
  0
LINE
  5
30B
330
18
100
AcDbEntity
  8
TEXT
100
AcDbLine
 10
0.6913280378274563
 20
0.8046014832503267
 30
0.0
 11
0.66120612503408
 21
0.8046014832503267
 31
0.0
  0
LINE
  5
30C
330
18
100
AcDbEntity
  8
TEXT
100
AcDbLine
 10
0.66120612503408
 20
0.8046014832503267
 30
0.0
 11
0.6024575622282145
 21
0.7037294871372062
 31
0.0
  0
LINE
  5
30D
330
18
100
AcDbEntity
  8
TEXT
100
AcDbLine
 10
0.6024575622282145
 20
0.7037294871372062
 30
0.0
 11
0.5438272411962766
 21
0.8046014832503267
 31
0.0
  0
LINE
  5
30E
330
18
100
AcDbEntity
  8
TEXT
100
AcDbLine
 10
0.4720282750523693
 20
0.8046014832503267
 30
0.0
 11
0.4720282750523693
 21
0.8389894008444649
 31
0.0
  0
LINE
  5
30F
330
18
100
AcDbEntity
  8
TEXT
100
AcDbLine
 10
0.4720282750523693
 20
0.8389894008444649
 30
0.0
 11
0.4119856702083622
 21
0.8389894008444649
 31
0.0
  0
LINE
  5
310
330
18
100
AcDbEntity
  8
TEXT
100
AcDbLine
 10
0.4119856702083622
 20
0.8389894008444649
 30
0.0
 11
0.4119856702083622
 21
0.8046014832503267
 31
0.0
  0
LINE
  5
311
330
18
100
AcDbEntity
  8
TEXT
100
AcDbLine
 10
0.5438272411962766
 20
0.8046014832503267
 30
0.0
 11
0.4720282750523693
 21
0.8046014832503267
 31
0.0
  0
ARC
  5
312
330
18
100
AcDbEntity
  8
TEXT
100
AcDbCircle
 10
0.5588137653190462
 20
0.5776761725355116
 30
0.0
 40
0.0392772371940762
100
AcDbArc
 50
270.1604552698595
 51
330.0831797321295
  0
ARC
  5
313
330
18
100
AcDbEntity
  8
TEXT
100
AcDbCircle
 10
0.4685129194268214
 20
0.5979208415998656
 30
0.0
 40
0.0601160179737537
100
AcDbArc
 50
180.0000000000003
 51
264.0521544866073
  0
LINE
  5
314
330
18
100
AcDbEntity
  8
TEXT
100
AcDbLine
 10
0.462283508933175
 20
0.5381284502618158
 30
0.0
 11
0.5589237600081694
 21
0.5383990893600981
 31
0.0
  0
LWPOLYLINE
  5
315
330
18
100
AcDbEntity
  8
TEXT
100
AcDbPolyline
 90
        6
 70
     1
 43
0.0
 10
0.5048073125083246
 20
0.7403247885935614
 10
0.4744907182881164
 20
0.7403247885935614
 10
0.4744907182881164
 20
0.617213790538667
 42
0.407328721240804
 10
0.4860343694495928
 20
0.605394875862281
 10
0.5466560684943236
 20
0.605394875862281
 10
0.5641214089016416
 20
0.6382071049057601
  0
LINE
  5
316
330
18
100
AcDbEntity
  8
TEXT
100
AcDbLine
 10
0.4083969014530693
 20
0.7403247885935614
 30
0.0
 11
0.4083969014530693
 21
0.5979208415998656
 31
0.0
  0
LINE
  5
317
330
18
100
AcDbEntity
  8
TEXT
100
AcDbLine
 10
0.5928573252312602
 20
0.5580869563668287
 30
0.0
 11
0.6901570313247048
 21
0.7224371673020969
 31
0.0
  0
LINE
  5
318
330
18
100
AcDbEntity
  8
TEXT
100
AcDbLine
 10
0.6901570313247048
 20
0.7224371673020969
 30
0.0
 11
0.6901570313247048
 21
0.5896797924767406
 31
0.0
  0
LWPOLYLINE
  5
319
330
18
100
AcDbEntity
  8
TEXT
100
AcDbPolyline
 90
        2
 70
     0
 43
0.0
 10
0.6901570313247039
 20
0.5896797924767441
 42
0.3318488747599744
 10
0.7592763238900169
 20
0.5381284502618158
 42
-6.868794160588311
  0
LINE
  5
31A
330
18
100
AcDbEntity
  8
TEXT
100
AcDbLine
 10
0.7581367503938213
 20
0.8726129609891373
 30
0.0
 11
0.6913280378274563
 21
0.8726129609891373
 31
0.0
  0
LWPOLYLINE
  5
31B
330
18
100
AcDbEntity
  8
TEXT
100
AcDbPolyline
 90
        4
 70
     0
 43
0.0
 10
1.043414159447614
 20
0.7327709994274514
 10
1.043414159447614
 20
0.5381284502618158
 10
1.111892442735472
 20
0.5381284502618158
 10
1.111892442735472
 20
0.581619395212254
 42
-1.714843617202739
  0
LWPOLYLINE
  5
31C
330
18
100
AcDbEntity
  8
TEXT
100
AcDbPolyline
 90
        2
 70
     0
 43
0.0
 10
1.078548509991824
 20
0.8046014832503303
 42
-0.3277054968067132
 10
1.114330200704989
 20
0.7762789374806865
 42
6.667889725900311
  0
TEXT
  5
31D
330
18
100
AcDbEntity
  8
TEXT
100
AcDbText
 10
1.860894474518381
 20
0.631014258907312
 30
0.0
 40
0.0522247191011236
  1
Minneapolis, MN 55432-0008
 41
1.11444212721585
 72
     5
 11
3.189827058788045
 21
0.631014258907312
 31
0.0
100
AcDbText
  0
TEXT
  5
31E
330
18
100
AcDbEntity
  8
TEXT
100
AcDbText
 10
1.860894474518381
 20
0.7242726858736042
 30
0.0
 40
0.0522247191011236
  1
6536 Main St. N.E. * P.O. Box 32008
 41
0.8388932496075353
 72
     5
 11
3.189827058788045
 21
0.7242726858736042
 31
0.0
100
AcDbText
  0
TEXT
  5
31F
330
18
100
AcDbEntity
  8
TEXT
100
AcDbText
 10
1.860894474518381
 20
0.8175311128398963
 30
0.0
 40
0.0522247191011236
  1
Stylmark  Incorporated
 41
1.221428571428571
 72
     5
 11
3.189827058788045
 21
0.8175311128398963
 31
0.0
100
AcDbText
  0
TEXT
  5
320
330
18
100
AcDbEntity
  8
TEXT
100
AcDbText
 10
1.860894474518381
 20
0.5377558319410199
 30
0.0
 40
0.0522247191011236
  1
Phone  1-800-328-2495
 41
1.272321428571429
 72
     5
 11
3.189827058788045
 21
0.5377558319410199
 31
0.0
100
AcDbText
  0
LINE
  5
321
330
18
100
AcDbEntity
  8
TEXT
100
AcDbLine
 10
0.3070913836683999
 20
0.7045200669829335
 30
0.0
 11
0.2414912474240989
 21
0.7045200669829335
 31
0.0
  0
ARC
  5
322
330
18
100
AcDbEntity
  8
TEXT
100
AcDbCircle
 10
0.2414912474240989
 20
0.7224224277882492
 30
0.0
 40
0.017902360805315
100
AcDbArc
 50
90.0
 51
270.0
  0
LINE
  5
323
330
18
100
AcDbEntity
  8
TEXT
100
AcDbLine
 10
0.2362539173098508
 20
0.6404265643573197
 30
0.0
 11
0.3120317575746796
 21
0.6404265643573197
 31
0.0
  0
LINE
  5
324
330
18
100
AcDbEntity
  8
TEXT
100
AcDbLine
 10
0.3120317575746796
 20
0.6064854565952551
 30
0.0
 11
0.1541664578633455
 21
0.6064854565952551
 31
0.0
  0
LINE
  5
325
330
18
100
AcDbEntity
  8
TEXT
100
AcDbLine
 10
0.1541664578633473
 20
0.5381284502618158
 30
0.0
 11
0.3070913836683999
 21
0.5381284502618158
 31
0.0
  0
ARC
  5
326
330
18
100
AcDbEntity
  8
TEXT
100
AcDbCircle
 10
0.2362539173098508
 20
0.7225140238038251
 30
0.0
 40
0.0820874594465043
100
AcDbArc
 50
90.0
 51
270.0
  0
LINE
  5
327
330
18
100
AcDbEntity
  8
TEXT
100
AcDbLine
 10
0.4119856702083622
 20
0.8046014832503267
 30
0.0
 11
0.2362539173098508
 21
0.8046014832503267
 31
0.0
  0
ARC
  5
328
330
18
100
AcDbEntity
  8
TEXT
100
AcDbCircle
 10
0.3120317575746796
 20
0.6234560104762892
 30
0.0
 40
0.0169705538810321
100
AcDbArc
 50
270.0
 51
90.0
  0
ARC
  5
329
330
18
100
AcDbEntity
  8
TEXT
100
AcDbCircle
 10
0.3070913836683999
 20
0.6213242586223729
 30
0.0
 40
0.0831958083605586
100
AcDbArc
 50
270.0
 51
90.0
  0
LINE
  5
32A
330
18
100
AcDbEntity
  8
TEXT
100
AcDbLine
 10
0.2414912474240989
 20
0.7403247885935614
 30
0.0
 11
0.4083969014530693
 21
0.7403247885935614
 31
0.0
  0
LWPOLYLINE
  5
32B
330
18
100
AcDbEntity
  8
TEXT
100
AcDbPolyline
 90
        2
 70
     0
 43
0.0006660908203125
 10
-0.0552665222364279
 20
0.6913660437972027
 10
-0.0286228894239269
 20
0.6913660437972027
  0
LINE
  5
32C
330
18
100
AcDbEntity
  8
TEXT
100
AcDbLine
 10
0.1541664578633455
 20
0.6064854565952551
 30
0.0
 11
0.1541664578633473
 21
0.5381284502618158
 31
0.0
  0
LWPOLYLINE
  5
32D
330
18
100
AcDbEntity
  8
TEXT
100
AcDbPolyline
 90
        2
 70
     0
 43
0.0006660908203125
 10
-0.0552665222364279
 20
0.6514005945784547
 10
-0.0286228894239269
 20
0.6514005945784547
  0
LWPOLYLINE
  5
32E
330
18
100
AcDbEntity
  8
TEXT
100
AcDbPolyline
 90
        2
 70
     0
 43
0.0001332181640625
 10
-0.1418583288770527
 20
0.8046014832503303
 10
-0.1518496911817415
 20
0.7313314930159507
  0
LWPOLYLINE
  5
32F
330
18
100
AcDbEntity
  8
TEXT
100
AcDbPolyline
 90
        2
 70
     0
 43
0.0001332181640625
 10
-0.1418583288770527
 20
0.7779578504378293
 10
-0.1518496911817415
 20
0.7180096766097038
  0
LWPOLYLINE
  5
330
330
18
100
AcDbEntity
  8
TEXT
100
AcDbPolyline
 90
        2
 70
     0
 43
0.0006660908203125
 10
-0.1418583288770527
 20
0.7779578504378293
 10
-0.1418583288770527
 20
0.8046014832503303
  0
LWPOLYLINE
  5
331
330
18
100
AcDbEntity
  8
TEXT
100
AcDbPolyline
 90
        5
 70
     0
 43
0.0001332181640625
 10
-0.1518496911817415
 20
0.7313314930159507
 10
-0.1518496911817415
 20
0.7180096766097038
 10
-0.1152146960645517
 20
0.7180096766097038
 10
-0.1152146960645517
 20
0.6813746814925139
 10
-0.101892879658303
 20
0.6813746814925139
  0
LWPOLYLINE
  5
332
330
18
100
AcDbEntity
  8
TEXT
100
AcDbPolyline
 90
        2
 70
     0
 43
0.0001332181640625
 10
-0.1818237780958043
 20
0.7779578504378293
 10
-0.1718324157911137
 20
0.7180096766097038
  0
LWPOLYLINE
  5
333
330
18
100
AcDbEntity
  8
TEXT
100
AcDbPolyline
 90
        2
 70
     0
 43
0.0001332181640625
 10
-0.1718324157911137
 20
0.7313314930159507
 10
-0.1818237780958043
 20
0.8046014832503303
  0
LWPOLYLINE
  5
334
330
18
100
AcDbEntity
  8
TEXT
100
AcDbPolyline
 90
        2
 70
     0
 43
0.0006660908203125
 10
-0.1818237780958043
 20
0.7779578504378293
 10
-0.1818237780958043
 20
0.8046014832503303
  0
LWPOLYLINE
  5
335
330
18
100
AcDbEntity
  8
TEXT
100
AcDbPolyline
 90
        5
 70
     0
 43
0.0001332181640625
 10
-0.2217892273145523
 20
0.6813746814925139
 10
-0.2084674109083036
 20
0.6813746814925139
 10
-0.2084674109083036
 20
0.7180096766097038
 10
-0.1718324157911137
 20
0.7180096766097038
 10
-0.1718324157911137
 20
0.7313314930159507
  0
LWPOLYLINE
  5
336
330
18
100
AcDbEntity
  8
TEXT
100
AcDbPolyline
 90
        2
 70
     0
 43
0.0006660908203125
 10
-0.2684155847364291
 20
0.6913660437972027
 10
-0.2950592175489266
 20
0.6913660437972027
  0
LWPOLYLINE
  5
337
330
18
100
AcDbEntity
  8
TEXT
100
AcDbPolyline
 90
        2
 70
     0
 43
0.0001332181640625
 10
-0.2950592175489266
 20
0.6913660437972027
 10
-0.2217892273145523
 20
0.6813746814925139
  0
LWPOLYLINE
  5
338
330
18
100
AcDbEntity
  8
TEXT
100
AcDbPolyline
 90
        2
 70
     0
 43
0.0001332181640625
 10
-0.2684155847364291
 20
0.6913660437972027
 10
-0.2084674109083036
 20
0.6813746814925139
  0
LWPOLYLINE
  5
339
330
18
100
AcDbEntity
  8
TEXT
100
AcDbPolyline
 90
        2
 70
     0
 43
0.0001332181640625
 10
-0.2684155847364291
 20
0.7779578504378293
 10
-0.2084674109083036
 20
0.7180096766097038
  0
LWPOLYLINE
  5
33A
330
18
100
AcDbEntity
  8
TEXT
100
AcDbPolyline
 90
        3
 70
     0
 43
0.0006660908203125
 10
-0.1818237780958043
 20
0.7779578504378293
 10
-0.2684155847364291
 20
0.7779578504378293
 10
-0.2684155847364291
 20
0.6913660437972027
  0
LWPOLYLINE
  5
33B
330
18
100
AcDbEntity
  8
TEXT
100
AcDbPolyline
 90
        3
 70
     0
 43
0.0006660908203125
 10
-0.1818237780958043
 20
0.8046014832503303
 10
-0.2950592175489266
 20
0.8046014832503303
 10
-0.2950592175489266
 20
0.6913660437972027
  0
LWPOLYLINE
  5
33C
330
18
100
AcDbEntity
  8
TEXT
100
AcDbPolyline
 90
        5
 70
     0
 43
0.0001332181640625
 10
-0.101892879658303
 20
0.6613919568831399
 10
-0.1152146960645517
 20
0.6613919568831399
 10
-0.1152146960645517
 20
0.6247569617659537
 10
-0.1518496911817415
 20
0.6247569617659537
 10
-0.1518496911817415
 20
0.6114351453597032
  0
LWPOLYLINE
  5
33D
330
18
100
AcDbEntity
  8
TEXT
100
AcDbPolyline
 90
        2
 70
     0
 43
0.0006660908203125
 10
-0.1418583288770527
 20
0.5648087879378281
 10
-0.1418583288770527
 20
0.5381651551253271
  0
LWPOLYLINE
  5
33E
330
18
100
AcDbEntity
  8
TEXT
100
AcDbPolyline
 90
        2
 70
     0
 43
0.0001332181640625
 10
-0.1518496911817415
 20
0.6114351453597032
 10
-0.1418583288770527
 20
0.5381651551253271
  0
LWPOLYLINE
  5
33F
330
18
100
AcDbEntity
  8
TEXT
100
AcDbPolyline
 90
        2
 70
     0
 43
0.0001332181640625
 10
-0.1418583288770527
 20
0.5648087879378281
 10
-0.1518496911817415
 20
0.6247569617659537
  0
LWPOLYLINE
  5
340
330
18
100
AcDbEntity
  8
TEXT
100
AcDbPolyline
 90
        2
 70
     0
 43
0.0001332181640625
 10
-0.1818237780958043
 20
0.5381651551253271
 10
-0.1718324157911137
 20
0.6114351453597032
  0
LWPOLYLINE
  5
341
330
18
100
AcDbEntity
  8
TEXT
100
AcDbPolyline
 90
        2
 70
     0
 43
0.0001332181640625
 10
-0.1818237780958043
 20
0.5648087879378281
 10
-0.1718324157911137
 20
0.6247569617659537
  0
LWPOLYLINE
  5
342
330
18
100
AcDbEntity
  8
TEXT
100
AcDbPolyline
 90
        2
 70
     0
 43
0.0006660908203125
 10
-0.1818237780958043
 20
0.5648087879378281
 10
-0.1818237780958043
 20
0.5381651551253271
  0
LWPOLYLINE
  5
343
330
18
100
AcDbEntity
  8
TEXT
100
AcDbPolyline
 90
        5
 70
     0
 43
0.0001332181640625
 10
-0.1718324157911137
 20
0.6114351453597032
 10
-0.1718324157911137
 20
0.6247569617659537
 10
-0.2084674109083018
 20
0.6247569617659537
 10
-0.2084674109083018
 20
0.6613919568831399
 10
-0.2217892273145523
 20
0.6613919568831399
  0
LWPOLYLINE
  5
344
330
18
100
AcDbEntity
  8
TEXT
100
AcDbPolyline
 90
        2
 70
     0
 43
0.0006660908203125
 10
-0.2684155847364291
 20
0.6514005945784547
 10
-0.2950592175489266
 20
0.6514005945784547
  0
LWPOLYLINE
  5
345
330
18
100
AcDbEntity
  8
TEXT
100
AcDbPolyline
 90
        2
 70
     0
 43
0.0001332181640625
 10
-0.2684155847364291
 20
0.5648087879378281
 10
-0.2084674109083018
 20
0.6247569617659537
  0
LWPOLYLINE
  5
346
330
18
100
AcDbEntity
  8
TEXT
100
AcDbPolyline
 90
        2
 70
     0
 43
0.0001332181640625
 10
-0.2684155847364291
 20
0.6514005945784547
 10
-0.2084674109083018
 20
0.6613919568831399
  0
LWPOLYLINE
  5
347
330
18
100
AcDbEntity
  8
TEXT
100
AcDbPolyline
 90
        2
 70
     0
 43
0.0001332181640625
 10
-0.2217892273145523
 20
0.6613919568831399
 10
-0.2950592175489266
 20
0.6514005945784547
  0
LWPOLYLINE
  5
348
330
18
100
AcDbEntity
  8
TEXT
100
AcDbPolyline
 90
        3
 70
     0
 43
0.0006660908203125
 10
-0.2684155847364291
 20
0.6514005945784547
 10
-0.2684155847364291
 20
0.5648087879378281
 10
-0.1818237780958043
 20
0.5648087879378281
  0
LWPOLYLINE
  5
349
330
18
100
AcDbEntity
  8
TEXT
100
AcDbPolyline
 90
        3
 70
     0
 43
0.0006660908203125
 10
-0.2950592175489266
 20
0.6514005945784547
 10
-0.2950592175489266
 20
0.5381651551253271
 10
-0.1818237780958043
 20
0.5381651551253271
  0
LWPOLYLINE
  5
34A
330
18
100
AcDbEntity
  8
TEXT
100
AcDbPolyline
 90
        3
 70
     0
 43
0.0006660908203125
 10
-0.1418583288770527
 20
0.5381651551253271
 10
-0.0286228894239269
 20
0.5381651551253271
 10
-0.0286228894239269
 20
0.6514005945784547
  0
LWPOLYLINE
  5
34B
330
18
100
AcDbEntity
  8
TEXT
100
AcDbPolyline
 90
        3
 70
     0
 43
0.0006660908203125
 10
-0.1418583288770527
 20
0.5648087879378281
 10
-0.0552665222364279
 20
0.5648087879378281
 10
-0.0552665222364279
 20
0.6514005945784547
  0
LWPOLYLINE
  5
34C
330
18
100
AcDbEntity
  8
TEXT
100
AcDbPolyline
 90
        2
 70
     0
 43
0.0001332181640625
 10
-0.0552665222364279
 20
0.5648087879378281
 10
-0.1152146960645517
 20
0.6247569617659537
  0
LWPOLYLINE
  5
34D
330
18
100
AcDbEntity
  8
TEXT
100
AcDbPolyline
 90
        2
 70
     0
 43
0.0001332181640625
 10
-0.0552665222364279
 20
0.6514005945784547
 10
-0.1152146960645517
 20
0.6613919568831399
  0
LWPOLYLINE
  5
34E
330
18
100
AcDbEntity
  8
TEXT
100
AcDbPolyline
 90
        2
 70
     0
 43
0.0001332181640625
 10
-0.0286228894239269
 20
0.6514005945784547
 10
-0.101892879658303
 20
0.6613919568831399
  0
LWPOLYLINE
  5
34F
330
18
100
AcDbEntity
  8
TEXT
100
AcDbPolyline
 90
        2
 70
     0
 43
0.0001332181640625
 10
-0.0552665222364279
 20
0.7779578504378293
 10
-0.1152146960645517
 20
0.7180096766097038
  0
LWPOLYLINE
  5
350
330
18
100
AcDbEntity
  8
TEXT
100
AcDbPolyline
 90
        2
 70
     0
 43
0.0001332181640625
 10
-0.0552665222364279
 20
0.6913660437972027
 10
-0.1152146960645517
 20
0.6813746814925139
  0
LWPOLYLINE
  5
351
330
18
100
AcDbEntity
  8
TEXT
100
AcDbPolyline
 90
        2
 70
     0
 43
0.0001332181640625
 10
-0.101892879658303
 20
0.6813746814925139
 10
-0.0286228894239269
 20
0.6913660437972027
  0
LWPOLYLINE
  5
352
330
18
100
AcDbEntity
  8
TEXT
100
AcDbPolyline
 90
        3
 70
     0
 43
0.0006660908203125
 10
-0.0552665222364279
 20
0.6913660437972027
 10
-0.0552665222364279
 20
0.7779578504378293
 10
-0.1418583288770527
 20
0.7779578504378293
  0
LWPOLYLINE
  5
353
330
18
100
AcDbEntity
  8
TEXT
100
AcDbPolyline
 90
        3
 70
     0
 43
0.0006660908203125
 10
-0.0286228894239269
 20
0.6913660437972027
 10
-0.0286228894239269
 20
0.8046014832503303
 10
-0.1418583288770527
 20
0.8046014832503303
  0
ENDSEC
  0
SECTION
  2
OBJECTS
  0
DICTIONARY
  5
C
330
0
100
AcDbDictionary
  3
ACAD_GROUP
350
D
  3
ACAD_LAYOUT
350
358
  3
ACAD_MLINESTYLE
350
E
  3
ACAD_PLOTSETTINGS
350
359
  3
ACAD_PLOTSTYLENAME
350
356
  3
ACDBHEADERROUNDTRIPXREC
350
364
  3
ACDBVARIABLEDICTIONARY
350
361
  0
DICTIONARY
  5
386
330
18
100
AcDbDictionary
280
     1
  3
ACAD_LAYOUTSELFREF
360
387
  0
DICTIONARY
  5
384
330
15
100
AcDbDictionary
280
     1
  3
ACAD_LAYOUTSELFREF
360
385
  0
DICTIONARY
  5
D
102
{ACAD_REACTORS
330
C
102
}
330
C
100
AcDbDictionary
  0
DICTIONARY
  5
358
102
{ACAD_REACTORS
330
C
102
}
330
C
100
AcDbDictionary
  0
DICTIONARY
  5
E
102
{ACAD_REACTORS
330
C
102
}
330
C
100
AcDbDictionary
  3
STANDARD
350
1B
  0
DICTIONARY
  5
359
102
{ACAD_REACTORS
330
C
102
}
330
C
100
AcDbDictionary
  0
ACDBDICTIONARYWDFLT
  5
356
102
{ACAD_REACTORS
330
C
102
}
330
C
100
AcDbDictionary
281
     1
  3
Normal
350
357
100
AcDbDictionaryWithDefault
340
357
  0
DICTIONARY
  5
364
102
{ACAD_REACTORS
330
C
102
}
330
C
100
AcDbDictionary
  3
CEPSNTYPE
350
36E
  3
FINGERPRINTGUID
350
36F
  3
HYPERLINKBASE
350
367
  3
INSUNITS
350
36D
  3
LAYOUTDICT
350
369
  3
LWETCUNION
350
36C
  3
PLOTSETDICT
350
36A
  3
PLOTSTYLNAMDICT
350
36B
  3
PSVPSCALE
350
371
  3
PUCSBASE
350
374
  3
PUCSORGBACK
350
37A
  3
PUCSORGBOTTOM
350
376
  3
PUCSORGFRONT
350
379
  3
PUCSORGLEFT
350
377
  3
PUCSORGRIGHT
350
378
  3
PUCSORGTOP
350
375
  3
PUCSORTHOREF
350
372
  3
PUCSORTHOVIEW
350
373
  3
STYLESHEET
350
368
  3
TSTACKALIGN
350
365
  3
TSTACKSIZE
350
366
  3
UCSBASE
350
37D
  3
UCSORGBACK
350
383
  3
UCSORGBOTTOM
350
37F
  3
UCSORGFRONT
350
382
  3
UCSORGLEFT
350
380
  3
UCSORGRIGHT
350
381
  3
UCSORGTOP
350
37E
  3
UCSORTHOREF
350
37B
  3
UCSORTHOVIEW
350
37C
  3
VERSIONGUID
350
370
  0
DICTIONARY
  5
361
102
{ACAD_REACTORS
330
C
102
}
330
C
100
AcDbDictionary
  3
DIMASSOC
350
362
  0
XRECORD
  5
387
102
{ACAD_REACTORS
330
386
102
}
330
386
100
AcDbXrecord
340
18
  0
XRECORD
  5
385
102
{ACAD_REACTORS
330
384
102
}
330
384
100
AcDbXrecord
340
15
  0
MLINESTYLE
  5
1B
102
{ACAD_REACTORS
330
E
102
}
330
E
100
AcDbMlineStyle
  2
STANDARD
 70
     0
  3

 62
     0
 51
90.0
 52
90.0
 71
     2
 49
0.5
 62
   256
  6
BYLAYER
 49
-0.5
 62
   256
  6
BYLAYER
  0
ACDBPLACEHOLDER
  5
357
102
{ACAD_REACTORS
330
356
102
}
330
356
100
AcDbPlaceHolder
280
     0
  0
XRECORD
  5
36E
102
{ACAD_REACTORS
330
364
102
}
330
364
100
AcDbXrecord
 90
        0
  0
XRECORD
  5
36F
102
{ACAD_REACTORS
330
364
102
}
330
364
100
AcDbXrecord
  1
{6AD31C10-8DB4-11D6-88E6-0090279574E7}
  0
XRECORD
  5
367
102
{ACAD_REACTORS
330
364
102
}
330
364
100
AcDbXrecord
  1

  0
XRECORD
  5
36D
102
{ACAD_REACTORS
330
364
102
}
330
364
100
AcDbXrecord
 90
        0
  0
XRECORD
  5
369
102
{ACAD_REACTORS
330
364
102
}
330
364
100
AcDbXrecord
340
358
  0
XRECORD
  5
36C
102
{ACAD_REACTORS
330
364
102
}
330
364
100
AcDbXrecord
 90
    14877
  0
XRECORD
  5
36A
102
{ACAD_REACTORS
330
364
102
}
330
364
100
AcDbXrecord
340
359
  0
XRECORD
  5
36B
102
{ACAD_REACTORS
330
364
102
}
330
364
100
AcDbXrecord
340
356
  0
XRECORD
  5
371
102
{ACAD_REACTORS
330
364
102
}
330
364
100
AcDbXrecord
 40
0.0
  0
XRECORD
  5
374
102
{ACAD_REACTORS
330
364
102
}
330
364
100
AcDbXrecord
340
0
  0
XRECORD
  5
37A
102
{ACAD_REACTORS
330
364
102
}
330
364
100
AcDbXrecord
 10
0.0
 20
0.0
 30
0.0
  0
XRECORD
  5
376
102
{ACAD_REACTORS
330
364
102
}
330
364
100
AcDbXrecord
 10
0.0
 20
0.0
 30
0.0
  0
XRECORD
  5
379
102
{ACAD_REACTORS
330
364
102
}
330
364
100
AcDbXrecord
 10
0.0
 20
0.0
 30
0.0
  0
XRECORD
  5
377
102
{ACAD_REACTORS
330
364
102
}
330
364
100
AcDbXrecord
 10
0.0
 20
0.0
 30
0.0
  0
XRECORD
  5
378
102
{ACAD_REACTORS
330
364
102
}
330
364
100
AcDbXrecord
 10
0.0
 20
0.0
 30
0.0
  0
XRECORD
  5
375
102
{ACAD_REACTORS
330
364
102
}
330
364
100
AcDbXrecord
 10
0.0
 20
0.0
 30
0.0
  0
XRECORD
  5
372
102
{ACAD_REACTORS
330
364
102
}
330
364
100
AcDbXrecord
340
0
  0
XRECORD
  5
373
102
{ACAD_REACTORS
330
364
102
}
330
364
100
AcDbXrecord
 70
     0
  0
XRECORD
  5
368
102
{ACAD_REACTORS
330
364
102
}
330
364
100
AcDbXrecord
  1

  0
XRECORD
  5
365
102
{ACAD_REACTORS
330
364
102
}
330
364
100
AcDbXrecord
 90
        1
  0
XRECORD
  5
366
102
{ACAD_REACTORS
330
364
102
}
330
364
100
AcDbXrecord
 90
       70
  0
XRECORD
  5
37D
102
{ACAD_REACTORS
330
364
102
}
330
364
100
AcDbXrecord
340
0
  0
XRECORD
  5
383
102
{ACAD_REACTORS
330
364
102
}
330
364
100
AcDbXrecord
 10
0.0
 20
0.0
 30
0.0
  0
XRECORD
  5
37F
102
{ACAD_REACTORS
330
364
102
}
330
364
100
AcDbXrecord
 10
0.0
 20
0.0
 30
0.0
  0
XRECORD
  5
382
102
{ACAD_REACTORS
330
364
102
}
330
364
100
AcDbXrecord
 10
0.0
 20
0.0
 30
0.0
  0
XRECORD
  5
380
102
{ACAD_REACTORS
330
364
102
}
330
364
100
AcDbXrecord
 10
0.0
 20
0.0
 30
0.0
  0
XRECORD
  5
381
102
{ACAD_REACTORS
330
364
102
}
330
364
100
AcDbXrecord
 10
0.0
 20
0.0
 30
0.0
  0
XRECORD
  5
37E
102
{ACAD_REACTORS
330
364
102
}
330
364
100
AcDbXrecord
 10
0.0
 20
0.0
 30
0.0
  0
XRECORD
  5
37B
102
{ACAD_REACTORS
330
364
102
}
330
364
100
AcDbXrecord
340
0
  0
XRECORD
  5
37C
102
{ACAD_REACTORS
330
364
102
}
330
364
100
AcDbXrecord
 70
     0
  0
XRECORD
  5
370
102
{ACAD_REACTORS
330
364
102
}
330
364
100
AcDbXrecord
  1
{6AD31C12-8DB4-11D6-88E6-0090279574E7}
  0
DICTIONARYVAR
  5
362
102
{ACAD_REACTORS
330
361
102
}
330
361
100
DictionaryVariables
280
     0
  1
1
  0
ENDSEC
  0
EOF
