  0
SECTION
  2
HEADER
  9
$ACADVER
  1
AC1014
  9
$ACADMAINTVER
 70
     9
  9
$DWGCODEPAGE
  3
ANSI_1252
  9
$INSBASE
 10
0.0
 20
0.0
 30
0.0
  9
$EXTMIN
 10
-0.8194224519522842
 20
-0.0778706854621542
 30
0.0
  9
$EXTMAX
 10
2.665796869794844
 20
1.205858882671718
 30
0.0
  9
$LIMMIN
 10
0.0
 20
0.0
  9
$LIMMAX
 10
11.0
 20
8.5
  9
$ORTHOMODE
 70
     1
  9
$REGENMODE
 70
     1
  9
$FILLMODE
 70
     1
  9
$QTEXTMODE
 70
     0
  9
$MIRRTEXT
 70
     0
  9
$DRAGMODE
 70
     2
  9
$LTSCALE
 40
1.0
  9
$OSMODE
 70
    39
  9
$ATTMODE
 70
     1
  9
$TEXTSIZE
 40
0.125
  9
$TRACEWID
 40
0.05
  9
$TEXTSTYLE
  7
ROMANS
  9
$CLAYER
  8
DIM
  9
$CELTYPE
  6
BYLAYER
  9
$CECOLOR
 62
   256
  9
$CELTSCALE
 40
1.0
  9
$DELOBJ
 70
     1
  9
$DISPSILH
 70
     1
  9
$DIMSCALE
 40
1.0
  9
$DIMASZ
 40
0.125
  9
$DIMEXO
 40
0.125
  9
$DIMDLI
 40
0.375
  9
$DIMRND
 40
0.0
  9
$DIMDLE
 40
0.0
  9
$DIMEXE
 40
0.125
  9
$DIMTP
 40
0.007
  9
$DIMTM
 40
0.007
  9
$DIMTXT
 40
0.125
  9
$DIMCEN
 40
-0.125
  9
$DIMTSZ
 40
0.0
  9
$DIMTOL
 70
     0
  9
$DIMLIM
 70
     0
  9
$DIMTIH
 70
     1
  9
$DIMTOH
 70
     1
  9
$DIMSE1
 70
     0
  9
$DIMSE2
 70
     0
  9
$DIMTAD
 70
     0
  9
$DIMZIN
 70
     4
  9
$DIMBLK
  1

  9
$DIMASO
 70
     1
  9
$DIMSHO
 70
     1
  9
$DIMPOST
  1

  9
$DIMAPOST
  1

  9
$DIMALT
 70
     0
  9
$DIMALTD
 70
     2
  9
$DIMALTF
 40
25.4
  9
$DIMLFAC
 40
0.5
  9
$DIMTOFL
 70
     0
  9
$DIMTVP
 40
0.0
  9
$DIMTIX
 70
     1
  9
$DIMSOXD
 70
     0
  9
$DIMSAH
 70
     0
  9
$DIMBLK1
  1

  9
$DIMBLK2
  1

  9
$DIMSTYLE
  2
STANDARD
  9
$DIMCLRD
 70
     0
  9
$DIMCLRE
 70
     0
  9
$DIMCLRT
 70
     0
  9
$DIMTFAC
 40
1.0
  9
$DIMGAP
 40
0.09
  9
$DIMJUST
 70
     0
  9
$DIMSD1
 70
     0
  9
$DIMSD2
 70
     0
  9
$DIMTOLJ
 70
     1
  9
$DIMTZIN
 70
     0
  9
$DIMALTZ
 70
     0
  9
$DIMALTTZ
 70
     0
  9
$DIMFIT
 70
     3
  9
$DIMUPT
 70
     0
  9
$DIMUNIT
 70
     2
  9
$DIMDEC
 70
     3
  9
$DIMTDEC
 70
     4
  9
$DIMALTU
 70
     2
  9
$DIMALTTD
 70
     2
  9
$DIMTXSTY
  7
ROMANS
  9
$DIMAUNIT
 70
     0
  9
$LUNITS
 70
     2
  9
$LUPREC
 70
     3
  9
$SKETCHINC
 40
0.1
  9
$FILLETRAD
 40
0.0
  9
$AUNITS
 70
     0
  9
$AUPREC
 70
     0
  9
$MENU
  1
AUTOMSTR
  9
$ELEVATION
 40
0.0
  9
$PELEVATION
 40
0.0
  9
$THICKNESS
 40
0.0
  9
$LIMCHECK
 70
     0
  9
$BLIPMODE
 70
     0
  9
$CHAMFERA
 40
0.0
  9
$CHAMFERB
 40
0.0
  9
$CHAMFERC
 40
0.0
  9
$CHAMFERD
 40
0.0
  9
$SKPOLY
 70
     0
  9
$TDCREATE
 40
2448336.622570833
  9
$TDUPDATE
 40
2452458.297436226
  9
$TDINDWG
 40
0.0362225810
  9
$TDUSRTIMER
 40
0.0362225810
  9
$USRTIMER
 70
     1
  9
$ANGBASE
 50
0.0
  9
$ANGDIR
 70
     0
  9
$PDMODE
 70
     0
  9
$PDSIZE
 40
0.0
  9
$PLINEWID
 40
0.0
  9
$COORDS
 70
     2
  9
$SPLFRAME
 70
     0
  9
$SPLINETYPE
 70
     6
  9
$SPLINESEGS
 70
     8
  9
$ATTDIA
 70
     0
  9
$ATTREQ
 70
     1
  9
$HANDLING
 70
 22529
  9
$HANDSEED
  5
52A
  9
$SURFTAB1
 70
     6
  9
$SURFTAB2
 70
     6
  9
$SURFTYPE
 70
     6
  9
$SURFU
 70
     6
  9
$SURFV
 70
     6
  9
$UCSNAME
  2

  9
$UCSORG
 10
0.0
 20
0.0
 30
0.0
  9
$UCSXDIR
 10
1.0
 20
0.0
 30
0.0
  9
$UCSYDIR
 10
0.0
 20
1.0
 30
0.0
  9
$PUCSNAME
  2

  9
$PUCSORG
 10
0.0
 20
0.0
 30
0.0
  9
$PUCSXDIR
 10
1.0
 20
0.0
 30
0.0
  9
$PUCSYDIR
 10
0.0
 20
1.0
 30
0.0
  9
$USERI1
 70
     0
  9
$USERI2
 70
     0
  9
$USERI3
 70
     0
  9
$USERI4
 70
     0
  9
$USERI5
 70
     0
  9
$USERR1
 40
0.0
  9
$USERR2
 40
0.0
  9
$USERR3
 40
0.0
  9
$USERR4
 40
0.0
  9
$USERR5
 40
0.0
  9
$WORLDVIEW
 70
     1
  9
$SHADEDGE
 70
     3
  9
$SHADEDIF
 70
    70
  9
$TILEMODE
 70
     1
  9
$MAXACTVP
 70
    16
  9
$PINSBASE
 10
0.0
 20
0.0
 30
0.0
  9
$PLIMCHECK
 70
     0
  9
$PEXTMIN
 10
1.000000000000000E+20
 20
1.000000000000000E+20
 30
1.000000000000000E+20
  9
$PEXTMAX
 10
-1.000000000000000E+20
 20
-1.000000000000000E+20
 30
-1.000000000000000E+20
  9
$PLIMMIN
 10
0.0
 20
0.0
  9
$PLIMMAX
 10
12.0
 20
9.0
  9
$UNITMODE
 70
     0
  9
$VISRETAIN
 70
     0
  9
$PLINEGEN
 70
     1
  9
$PSLTSCALE
 70
     0
  9
$TREEDEPTH
 70
  3020
  9
$PICKSTYLE
 70
     1
  9
$CMLSTYLE
  2
STANDARD
  9
$CMLJUST
 70
     0
  9
$CMLSCALE
 40
1.0
  9
$PROXYGRAPHICS
 70
     1
  9
$MEASUREMENT
 70
     0
  0
ENDSEC
  0
SECTION
  2
CLASSES
  0
CLASS
  1
LWPOLYLINE
  2
AcDbPolyline
  3
AutoCAD 2000
 90
        0
280
     0
281
     1
  0
CLASS
  1
ACDBDICTIONARYWDFLT
  2
AcDbDictionaryWithDefault
  3
AutoCAD 2000
 90
        0
280
     0
281
     0
  0
CLASS
  1
ACDBPLACEHOLDER
  2
AcDbPlaceHolder
  3
AutoCAD 2000
 90
        0
280
     0
281
     0
  0
CLASS
  1
LAYOUT
  2
AcDbLayout
  3
AutoCAD 2000
 90
        0
280
     0
281
     0
  0
CLASS
  1
DICTIONARYVAR
  2
AcDbDictionaryVar
  3
AutoCAD 2000
 90
        0
280
     0
281
     0
  0
CLASS
  1
LONG_TRANSACTION
  2
AcDbLongTransaction
  3
AutoCAD 2000
 90
        0
280
     0
281
     0
  0
CLASS
  1
LWPOLYLINE
  2
AcDbPolyline
  3
AutoCAD 2000
 90
        0
280
     0
281
     1
  0
CLASS
  1
HATCH
  2
AcDbHatch
  3
AutoCAD 2000
 90
        0
280
     0
281
     1
  0
CLASS
  1
XRECORD
  2
AcDbXrecord
  3
AutoCAD 2000
 90
        0
280
     0
281
     0
  0
ENDSEC
  0
SECTION
  2
TABLES
  0
TABLE
  2
VPORT
  5
8
330
0
100
AcDbSymbolTable
 70
     2
  0
VPORT
  5
505
330
8
100
AcDbSymbolTableRecord
100
AcDbViewportTableRecord
  2
*ACTIVE
 70
     0
 10
0.0
 20
0.0
 11
1.0
 21
1.0
 12
3.845551516074393
 22
0.5640178636452653
 13
0.0
 23
0.0
 14
0.25
 24
0.25
 15
0.0
 25
0.0
 16
0.0
 26
0.0
 36
1.0
 17
0.0
 27
0.0
 37
0.0
 40
2.163856723709062
 41
4.320930232558139
 42
50.0
 43
0.0
 44
0.0
 50
0.0
 51
0.0
 71
     0
 72
  2000
 73
     1
 74
     1
 75
     0
 76
     0
 77
     0
 78
     0
  0
ENDTAB
  0
TABLE
  2
LTYPE
  5
5
330
0
100
AcDbSymbolTable
 70
     1
  0
LTYPE
  5
12
330
5
100
AcDbSymbolTableRecord
100
AcDbLinetypeTableRecord
  2
BYBLOCK
 70
     0
  3

 72
    65
 73
     0
 40
0.0
  0
LTYPE
  5
13
330
5
100
AcDbSymbolTableRecord
100
AcDbLinetypeTableRecord
  2
BYLAYER
 70
     0
  3

 72
    65
 73
     0
 40
0.0
  0
LTYPE
  5
14
330
5
100
AcDbSymbolTableRecord
100
AcDbLinetypeTableRecord
  2
CONTINUOUS
 70
     0
  3
Solid line
 72
    65
 73
     0
 40
0.0
  0
ENDTAB
  0
TABLE
  2
LAYER
  5
2
330
0
100
AcDbSymbolTable
 70
     3
  0
LAYER
  5
F
330
2
100
AcDbSymbolTableRecord
100
AcDbLayerTableRecord
  2
0
 70
     0
 62
     7
  6
CONTINUOUS
  0
LAYER
  5
2C
330
2
100
AcDbSymbolTableRecord
100
AcDbLayerTableRecord
  2
DIM
 70
     0
 62
     4
  6
CONTINUOUS
  0
LAYER
  5
2D
330
2
100
AcDbSymbolTableRecord
100
AcDbLayerTableRecord
  2
TEXT
 70
     0
 62
     3
  6
CONTINUOUS
  0
ENDTAB
  0
TABLE
  2
STYLE
  5
3
330
0
100
AcDbSymbolTable
 70
     3
  0
STYLE
  5
10
330
3
100
AcDbSymbolTableRecord
100
AcDbTextStyleTableRecord
  2
STANDARD
 70
     0
 40
0.0
 41
1.0
 50
0.0
 71
     0
 42
0.125
  3
txt
  4

  0
STYLE
  5
3F0
330
3
100
AcDbSymbolTableRecord
100
AcDbTextStyleTableRecord
  2
ITALICC
 70
     0
 40
0.0
 41
1.0
 50
0.0
 71
     0
 42
0.125
  3
italicc
  4

  0
STYLE
  5
501
330
3
100
AcDbSymbolTableRecord
100
AcDbTextStyleTableRecord
  2
ROMANS
 70
     0
 40
0.0
 41
1.0
 50
0.0
 71
     0
 42
0.125
  3
romans.shx
  4

  0
ENDTAB
  0
TABLE
  2
VIEW
  5
6
330
0
100
AcDbSymbolTable
 70
     0
  0
ENDTAB
  0
TABLE
  2
UCS
  5
7
330
0
100
AcDbSymbolTable
 70
     0
  0
ENDTAB
  0
TABLE
  2
APPID
  5
9
330
0
100
AcDbSymbolTable
 70
     1
  0
APPID
  5
11
330
9
100
AcDbSymbolTableRecord
100
AcDbRegAppTableRecord
  2
ACAD
 70
     0
  0
ENDTAB
  0
TABLE
  2
DIMSTYLE
  5
A
330
0
100
AcDbSymbolTable
 70
     1
  0
DIMSTYLE
105
3E4
330
A
100
AcDbSymbolTableRecord
100
AcDbDimStyleTableRecord
  2
STANDARD
 70
     0
  3

  4

  5

  6

  7

 40
1.0
 41
0.18
 42
0.0625
 43
0.38
 44
0.18
 45
0.0
 46
0.0
 47
0.0
 48
0.0
140
0.18
141
0.09
142
0.0
143
25.4
144
1.0
145
0.0
146
1.0
147
0.09
 71
     0
 72
     0
 73
     1
 74
     1
 75
     0
 76
     0
 77
     0
 78
     0
170
     0
171
     2
172
     0
173
     0
174
     0
175
     0
176
     0
177
     0
178
     0
270
     2
271
     4
272
     4
273
     2
274
     2
340
10
275
     0
280
     0
281
     0
282
     0
283
     1
284
     0
285
     0
286
     0
287
     3
288
     0
  0
ENDTAB
  0
TABLE
  2
BLOCK_RECORD
  5
1
330
0
100
AcDbSymbolTable
 70
     0
  0
BLOCK_RECORD
  5
18
102
{ACAD_XDICTIONARY
360
528
102
}
330
1
100
AcDbSymbolTableRecord
100
AcDbBlockTableRecord
  2
*MODEL_SPACE
  0
BLOCK_RECORD
  5
15
102
{ACAD_XDICTIONARY
360
526
102
}
330
1
100
AcDbSymbolTableRecord
100
AcDbBlockTableRecord
  2
*PAPER_SPACE
  0
ENDTAB
  0
ENDSEC
  0
SECTION
  2
BLOCKS
  0
BLOCK
  5
36
330
18
100
AcDbEntity
  8
0
100
AcDbBlockBegin
  2
*MODEL_SPACE
 70
     0
 10
0.0
 20
0.0
 30
0.0
  3
*MODEL_SPACE
  1

  0
ENDBLK
  5
37
330
18
100
AcDbEntity
  8
0
100
AcDbBlockEnd
  0
BLOCK
  5
34
330
15
100
AcDbEntity
 67
     1
  8
0
100
AcDbBlockBegin
  2
*PAPER_SPACE
 70
     0
 10
0.0
 20
0.0
 30
0.0
  3
*PAPER_SPACE
  1

  0
ENDBLK
  5
35
330
15
100
AcDbEntity
 67
     1
  8
0
100
AcDbBlockEnd
  0
ENDSEC
  0
SECTION
  2
ENTITIES
  0
LWPOLYLINE
  5
3B6
330
18
100
AcDbEntity
  8
0
100
AcDbPolyline
 90
       33
 70
     1
 43
0.0
 10
0.464061007422496
 20
1.174608882671718
 10
0.464061007422496
 20
1.105564829201353
 10
0.4236491978735355
 20
1.116393140934639
 42
0.7673269879790685
 10
0.4139899396106306
 20
1.099662814859853
 10
0.4588478039867457
 20
1.054804950483583
 42
-0.6681786379193127
 10
0.4517767361748804
 20
1.037733882671717
 10
0.4196860074224964
 20
1.037733882671718
 42
0.4142135623730951
 10
0.4040610074224964
 20
1.022108882671718
 10
0.4040610074224964
 20
0.7839838826717176
 42
0.4142135623730951
 10
0.4353110074224964
 20
0.7527338826717176
 10
0.9830610074224953
 20
0.7527338826717176
 10
0.9930610074224958
 20
0.7627338826717174
 10
1.003061007422496
 20
0.7527338826717176
 10
1.550811007422495
 20
0.7527338826717176
 42
0.4142135623730951
 10
1.582061007422495
 20
0.7839838826717176
 10
1.582061007422495
 20
1.022108882671718
 42
0.4142135623730951
 10
1.566436007422495
 20
1.037733882671718
 10
1.534345278670112
 20
1.037733882671717
 42
-0.668178637919315
 10
1.527274210858246
 20
1.054804950483583
 10
1.572132075234361
 20
1.099662814859853
 42
0.7673269879790685
 10
1.562472816971447
 20
1.116393140934675
 10
1.522061007422495
 20
1.105564829201354
 10
1.522061007422495
 20
1.174608882671718
 42
1.0
 10
1.459561007422495
 20
1.174608882671718
 10
1.459561007422496
 20
0.9908588826717174
 42
0.4142135623730951
 10
1.475186007422496
 20
0.9752338826717174
 10
1.522061007422495
 20
0.9752338826717174
 10
1.522061007422495
 20
0.8152338826717176
 10
0.464061007422496
 20
0.8152338826717176
 10
0.464061007422496
 20
0.9752338826717174
 10
0.510936007422496
 20
0.9752338826717174
 42
0.4142135623730951
 10
0.526561007422496
 20
0.9908588826717174
 10
0.526561007422496
 20
1.174608882671718
 42
1.0
  0
TEXT
  5
476
330
18
100
AcDbEntity
  8
TEXT
100
AcDbText
 10
0.167606746322478
 20
0.3801479186204273
 30
0.0
 40
0.125
  1
PART #110145
  7
ITALICC
 72
     1
 11
0.9235591272748591
 21
0.3801479186204273
 31
0.0
100
AcDbText
  0
LINE
  5
477
330
18
100
AcDbEntity
  8
TEXT
100
AcDbLine
 10
1.078873757298242
 20
0.2000709272573591
 30
0.0
 11
1.031775598742258
 21
0.124205600845821
 31
0.0
  0
LINE
  5
478
330
18
100
AcDbEntity
  8
TEXT
100
AcDbLine
 10
1.031775598742258
 20
0.124205600845821
 30
0.0
 11
1.031775598742258
 21
0.2655351330249598
 31
0.0
  0
LINE
  5
479
330
18
100
AcDbEntity
  8
TEXT
100
AcDbLine
 10
1.031775598742258
 20
0.2655351330249598
 30
0.0
 11
0.9634607201929847
 21
0.2655351330249598
 31
0.0
  0
LINE
  5
47A
330
18
100
AcDbEntity
  8
TEXT
100
AcDbLine
 10
0.9634607201929847
 20
0.2655351330249598
 30
0.0
 11
0.9634607201929794
 21
0.2000709272573591
 31
0.0
  0
LINE
  5
47B
330
18
100
AcDbEntity
  8
TEXT
100
AcDbLine
 10
1.089308474062165
 20
0.0901776843163855
 30
0.0
 11
1.15386559002787
 21
0.2000709272573591
 31
0.0
  0
LINE
  5
47C
330
18
100
AcDbEntity
  8
TEXT
100
AcDbLine
 10
1.15386559002787
 20
0.2000709272573591
 30
0.0
 11
1.078873757298244
 21
0.2000709272573591
 31
0.0
  0
LINE
  5
47D
330
18
100
AcDbEntity
  8
TEXT
100
AcDbLine
 10
0.9679406075194849
 20
-0.0664021057311519
 30
0.0
 11
1.032318791838105
 21
-0.0664021057311519
 31
0.0
  0
LINE
  5
47E
330
18
100
AcDbEntity
  8
TEXT
100
AcDbLine
 10
1.032318791838105
 20
-0.0664021057311519
 30
0.0
 11
1.032318791838105
 21
0.0651774627450283
 31
0.0
  0
LINE
  5
47F
330
18
100
AcDbEntity
  8
TEXT
100
AcDbLine
 10
1.032318791838105
 20
0.0651774627450283
 30
0.0
 11
1.108222325049569
 21
-0.0664021057311519
 31
0.0
  0
LINE
  5
480
330
18
100
AcDbEntity
  8
TEXT
100
AcDbLine
 10
1.108222325049569
 20
-0.0664021057311519
 30
0.0
 11
1.184800697425775
 21
-0.0664021057311519
 31
0.0
  0
LINE
  5
481
330
18
100
AcDbEntity
  8
TEXT
100
AcDbLine
 10
0.9679406075194796
 20
0.1357942326005936
 30
0.0
 11
0.9679406075194849
 21
-0.0664021057311519
 31
0.0
  0
LINE
  5
482
330
18
100
AcDbEntity
  8
TEXT
100
AcDbLine
 10
1.184800697425775
 20
-0.0664021057311519
 30
0.0
 11
1.089308474062165
 21
0.0901776843163855
 31
0.0
  0
ARC
  5
483
330
18
100
AcDbEntity
  8
TEXT
100
AcDbCircle
 10
0.8912926262269209
 20
0.1108883573179309
 30
0.0
 40
0.0249058752826653
100
AcDbArc
 50
89.99971217465335
 51
179.9999999999985
  0
ARC
  5
484
330
18
100
AcDbEntity
  8
TEXT
100
AcDbCircle
 10
0.8991815831664986
 20
0.1688251999750943
 30
0.0
 40
0.0314112657011332
100
AcDbArc
 50
95.88484768694724
 51
173.2388340632136
  0
LINE
  5
485
330
18
100
AcDbEntity
  8
TEXT
100
AcDbLine
 10
0.86798876610339
 20
0.1725232773964844
 30
0.0
 11
0.86798876610339
 21
0.2000709272573591
 31
0.0
  0
LINE
  5
486
330
18
100
AcDbEntity
  8
TEXT
100
AcDbLine
 10
0.86798876610339
 20
0.2000709272573591
 30
0.0
 11
0.804091859803889
 21
0.2000709272573591
 31
0.0
  0
LINE
  5
487
330
18
100
AcDbEntity
  8
TEXT
100
AcDbLine
 10
0.804091859803889
 20
0.2000709272573591
 30
0.0
 11
0.804091859803889
 21
0.0948589487039318
 31
0.0
  0
LINE
  5
488
330
18
100
AcDbEntity
  8
TEXT
100
AcDbLine
 10
0.7251319209288481
 20
0.2000709272573591
 30
0.0
 11
0.590300011711789
 21
0.2000709272573591
 31
0.0
  0
LINE
  5
489
330
18
100
AcDbEntity
  8
TEXT
100
AcDbLine
 10
0.590300011711789
 20
0.2000709272573591
 30
0.0
 11
0.590300011711789
 21
0.1717483814877152
 31
0.0
  0
LINE
  5
48A
330
18
100
AcDbEntity
  8
TEXT
100
AcDbLine
 10
0.6496141081051077
 20
0.0985192591384614
 30
0.0
 11
0.731902097888491
 21
0.0985192591384614
 31
0.0
  0
LINE
  5
48B
330
18
100
AcDbEntity
  8
TEXT
100
AcDbLine
 10
0.731902097888491
 20
0.0985192591384614
 30
0.0
 11
0.7216373374749266
 21
0.1197697987111557
 31
0.0
  0
LINE
  5
48C
330
18
100
AcDbEntity
  8
TEXT
100
AcDbLine
 10
0.6961010225843696
 20
0.1357942326005936
 30
0.0
 11
0.5888947491970802
 21
0.1357942326005936
 31
0.0
  0
ARC
  5
48D
330
18
100
AcDbEntity
  8
TEXT
100
AcDbCircle
 10
0.6961010225843687
 20
0.1074348576005963
 30
0.0
 40
0.028359375
100
AcDbArc
 50
25.78218179591245
 51
90.0
  0
LINE
  5
48E
330
18
100
AcDbEntity
  8
TEXT
100
AcDbLine
 10
0.804091859803889
 20
0.0948589487039318
 30
0.0
 11
0.7603410886219875
 21
0.1771092247000769
 31
0.0
  0
ARC
  5
48F
330
18
100
AcDbEntity
  8
TEXT
100
AcDbCircle
 10
0.7231049811517796
 20
0.1584873601364567
 30
0.0
 40
0.0416329381542859
100
AcDbArc
 50
26.56974201007528
 51
87.20939649401342
  0
LWPOLYLINE
  5
490
330
18
100
AcDbEntity
  8
TEXT
100
AcDbPolyline
 90
        2
 70
     0
 43
0.0
 10
0.8080315371089277
 20
-0.0229111607807138
 42
-0.2901071551932486
 10
0.7649556042412833
 20
-0.0664021057311519
 42
-5.328517124445184
  0
LWPOLYLINE
  5
491
330
18
100
AcDbEntity
  8
TEXT
100
AcDbPolyline
 90
        2
 70
     0
 43
0.0
 10
0.8080315371089277
 20
-0.0229111607807138
 10
0.8080315371089277
 20
-0.0664021057311519
  0
LWPOLYLINE
  5
492
330
18
100
AcDbEntity
  8
TEXT
100
AcDbPolyline
 90
        2
 70
     0
 43
0.0
 10
0.8080315371089277
 20
-0.0664021057311519
 10
0.8663867509442617
 20
-0.0664021057311519
  0
LWPOLYLINE
  5
493
330
18
100
AcDbEntity
  8
TEXT
100
AcDbPolyline
 90
        2
 70
     0
 43
0.0
 10
0.5878622537422711
 20
-0.0229111607807138
 42
0.2901071551932823
 10
0.6309381866099067
 20
-0.0664021057311519
 42
5.328517124445801
  0
LWPOLYLINE
  5
494
330
18
100
AcDbEntity
  8
TEXT
100
AcDbPolyline
 90
        2
 70
     0
 43
0.0
 10
0.6309381866099067
 20
-0.0664021057311519
 10
0.7649556042412833
 20
-0.0664021057311519
 42
0.9999999999999998
  0
LWPOLYLINE
  5
495
330
18
100
AcDbEntity
  8
TEXT
100
AcDbPolyline
 90
        4
 70
     1
 43
0.0
 10
0.7448331391713908
 20
0.0365618722528733
 10
0.6561728205115323
 20
0.0365618722528733
 42
0.9999999999999998
 10
0.6561728205115323
 20
-0.0058366682509874
 10
0.7448331391713908
 20
-0.0058366682509874
 42
1.0
  0
ARC
  5
496
330
18
100
AcDbEntity
  8
TEXT
100
AcDbCircle
 10
0.6496141081051068
 20
0.0308336779943428
 30
0.0
 40
0.0676855811441166
100
AcDbArc
 50
90.0
 51
153.7768192527749
  0
LINE
  5
497
330
18
100
AcDbEntity
  8
TEXT
100
AcDbLine
 10
0.8663867509442626
 20
-0.0664021057311519
 30
0.0
 11
0.8663867509442573
 21
0.1108883997003165
 31
0.0
  0
LINE
  5
498
330
18
100
AcDbEntity
  8
TEXT
100
AcDbLine
 10
0.5888947491970802
 20
0.1357942326005936
 30
0.0
 11
0.5888947491970802
 21
0.0607418265263871
 31
0.0
  0
LINE
  5
499
330
18
100
AcDbEntity
  8
TEXT
100
AcDbLine
 10
0.8912926262269218
 20
0.1357942326005936
 30
0.0
 11
0.9679406075194796
 21
0.1357942326005936
 31
0.0
  0
LINE
  5
49A
330
18
100
AcDbEntity
  8
TEXT
100
AcDbLine
 10
0.9634607201929794
 20
0.2000709272573591
 30
0.0
 11
0.895961002543463
 21
0.2000709272573591
 31
0.0
  0
LWPOLYLINE
  5
49B
330
18
100
AcDbEntity
  8
TEXT
100
AcDbPolyline
 90
        2
 70
     0
 43
0.0
 10
0.383084748419396
 20
0.1357942326005936
 42
-0.4142135623731017
 10
0.3906385375855095
 20
0.1282404434344837
 42
-0.9999999999999998
  0
LWPOLYLINE
  5
49C
330
18
100
AcDbEntity
  8
TEXT
100
AcDbPolyline
 90
        2
 70
     0
 43
0.0
 10
0.5118301812882998
 20
0.1357942326005936
 42
-0.4142135623731017
 10
0.5193839704544132
 20
0.1282404434344837
 42
-0.9999999999999998
  0
LWPOLYLINE
  5
49D
330
18
100
AcDbEntity
  8
TEXT
100
AcDbPolyline
 90
        2
 70
     0
 43
0.0
 10
0.4004364714694173
 20
0.2000709272573626
 42
-0.3328679258950098
 10
0.4362181621825787
 20
0.1729034304964667
 42
6.772930709997214
  0
LWPOLYLINE
  5
49E
330
18
100
AcDbEntity
  8
TEXT
100
AcDbPolyline
 90
        3
 70
     0
 43
0.0
 10
0.5545183209986231
 20
0.2000709272573626
 10
0.4362181621825787
 20
0.2000709272573626
 10
0.4362181621825787
 20
0.1729034304964667
 42
-1.960274751411753
  0
LINE
  5
49F
330
18
100
AcDbEntity
  8
TEXT
100
AcDbLine
 10
0.4576965843673504
 20
0.1357942326005936
 30
0.0
 11
0.5118301812883006
 21
0.1357942326005936
 31
0.0
  0
LINE
  5
4A0
330
18
100
AcDbEntity
  8
TEXT
100
AcDbLine
 10
0.3332494685962493
 20
0.1357942326005936
 30
0.0
 11
0.3830847484193969
 21
0.1357942326005936
 31
0.0
  0
LINE
  5
4A1
330
18
100
AcDbEntity
  8
TEXT
100
AcDbLine
 10
0.4004364714694164
 20
0.2000709272573591
 30
0.0
 11
0.26641841553828
 21
0.2000709272573591
 31
0.0
  0
LINE
  5
4A2
330
18
100
AcDbEntity
  8
TEXT
100
AcDbLine
 10
0.3906385375855104
 20
-0.0664021057311519
 30
0.0
 11
0.4576965843673504
 21
-0.0664021057311519
 31
0.0
  0
LINE
  5
4A3
330
18
100
AcDbEntity
  8
TEXT
100
AcDbLine
 10
0.2352461348968147
 20
-0.0664021057311519
 30
0.0
 11
0.3332494685962493
 21
-0.0664021057311519
 31
0.0
  0
LINE
  5
4A4
330
18
100
AcDbEntity
  8
TEXT
100
AcDbLine
 10
0.26641841553828
 20
-0.0007932794750491
 30
0.0
 11
0.2494247786536787
 21
-0.0007932794750491
 31
0.0
  0
ARC
  5
4A5
330
18
100
AcDbEntity
  8
TEXT
100
AcDbCircle
 10
0.2494247786536778
 20
0.0145885267683763
 30
0.0
 40
0.0153818062434269
100
AcDbArc
 50
174.7883570302258
 51
270.0
  0
LINE
  5
4A6
330
18
100
AcDbEntity
  8
TEXT
100
AcDbLine
 10
0.3332494685962493
 20
-0.0664021057311519
 30
0.0
 11
0.3332494685962493
 21
0.1357942326005936
 31
0.0
  0
LINE
  5
4A7
330
18
100
AcDbEntity
  8
TEXT
100
AcDbLine
 10
0.3906385375855104
 20
0.1282404434344837
 30
0.0
 11
0.3906385375855104
 21
-0.0664021057311519
 31
0.0
  0
LINE
  5
4A8
330
18
100
AcDbEntity
  8
TEXT
100
AcDbLine
 10
0.4576965843673504
 20
-0.0664021057311519
 30
0.0
 11
0.4576965843673504
 21
0.1357942326005936
 31
0.0
  0
LINE
  5
4A9
330
18
100
AcDbEntity
  8
TEXT
100
AcDbLine
 10
0.26641841553828
 20
0.2000709272573591
 30
0.0
 11
0.26641841553828
 21
-0.0007932794750491
 31
0.0
  0
LINE
  5
4AA
330
18
100
AcDbEntity
  8
TEXT
100
AcDbLine
 10
0.2341065614006199
 20
0.0159857323718473
 30
0.0
 11
0.2341065614006199
 21
0.2680824049961696
 31
0.0
  0
LINE
  5
4AB
330
18
100
AcDbEntity
  8
TEXT
100
AcDbLine
 10
0.1672978488342549
 20
0.2680824049961696
 30
0.0
 11
0.1672978488342549
 21
0.2000709272573591
 31
0.0
  0
LINE
  5
4AC
330
18
100
AcDbEntity
  8
TEXT
100
AcDbLine
 10
0.1672978488342549
 20
0.2000709272573591
 30
0.0
 11
0.1371759360408786
 21
0.2000709272573591
 31
0.0
  0
LINE
  5
4AD
330
18
100
AcDbEntity
  8
TEXT
100
AcDbLine
 10
0.1371759360408786
 20
0.2000709272573591
 30
0.0
 11
0.0784273732350132
 21
0.0991989311442385
 31
0.0
  0
LINE
  5
4AE
330
18
100
AcDbEntity
  8
TEXT
100
AcDbLine
 10
0.0784273732350132
 20
0.0991989311442385
 30
0.0
 11
0.0197970522030753
 21
0.2000709272573591
 31
0.0
  0
LINE
  5
4AF
330
18
100
AcDbEntity
  8
TEXT
100
AcDbLine
 10
-0.0520019139408321
 20
0.2000709272573591
 30
0.0
 11
-0.0520019139408321
 21
0.2344588448514973
 31
0.0
  0
LINE
  5
4B0
330
18
100
AcDbEntity
  8
TEXT
100
AcDbLine
 10
-0.0520019139408321
 20
0.2344588448514973
 30
0.0
 11
-0.1120445187848391
 21
0.2344588448514973
 31
0.0
  0
LINE
  5
4B1
330
18
100
AcDbEntity
  8
TEXT
100
AcDbLine
 10
-0.1120445187848391
 20
0.2344588448514973
 30
0.0
 11
-0.1120445187848391
 21
0.2000709272573591
 31
0.0
  0
LINE
  5
4B2
330
18
100
AcDbEntity
  8
TEXT
100
AcDbLine
 10
0.0197970522030753
 20
0.2000709272573591
 30
0.0
 11
-0.0520019139408321
 21
0.2000709272573591
 31
0.0
  0
ARC
  5
4B3
330
18
100
AcDbEntity
  8
TEXT
100
AcDbCircle
 10
0.0347835763258448
 20
-0.0268543834574562
 30
0.0
 40
0.0392772371940762
100
AcDbArc
 50
270.1604552698595
 51
330.0831797321295
  0
ARC
  5
4B4
330
18
100
AcDbEntity
  8
TEXT
100
AcDbCircle
 10
-0.0555172695663799
 20
-0.0066097143931021
 30
0.0
 40
0.0601160179737537
100
AcDbArc
 50
180.0000000000003
 51
264.0521544866073
  0
LINE
  5
4B5
330
18
100
AcDbEntity
  8
TEXT
100
AcDbLine
 10
-0.0617466800600264
 20
-0.0664021057311519
 30
0.0
 11
0.0348935710149681
 21
-0.0661314666328696
 31
0.0
  0
LWPOLYLINE
  5
4B6
330
18
100
AcDbEntity
  8
TEXT
100
AcDbPolyline
 90
        6
 70
     1
 43
0.0
 10
-0.0192228764848768
 20
0.1357942326005936
 10
-0.0495394707050849
 20
0.1357942326005936
 10
-0.0495394707050849
 20
0.0126832345456993
 42
0.407328721240804
 10
-0.0379958195436085
 20
0.0008643198693132
 10
0.0226258795011223
 20
0.0008643198693132
 10
0.0400912199084402
 20
0.0336765489127924
  0
LINE
  5
4B7
330
18
100
AcDbEntity
  8
TEXT
100
AcDbLine
 10
-0.115633287540132
 20
0.1357942326005936
 30
0.0
 11
-0.115633287540132
 21
-0.0066097143931021
 31
0.0
  0
LINE
  5
4B8
330
18
100
AcDbEntity
  8
TEXT
100
AcDbLine
 10
0.0688271362380588
 20
-0.046443599626139
 30
0.0
 11
0.1661268423315034
 21
0.1179066113091292
 31
0.0
  0
LINE
  5
4B9
330
18
100
AcDbEntity
  8
TEXT
100
AcDbLine
 10
0.1661268423315034
 20
0.1179066113091292
 30
0.0
 11
0.1661268423315034
 21
-0.0148507635162272
 31
0.0
  0
LWPOLYLINE
  5
4BA
330
18
100
AcDbEntity
  8
TEXT
100
AcDbPolyline
 90
        2
 70
     0
 43
0.0
 10
0.1661268423315025
 20
-0.0148507635162236
 42
0.3318488747599744
 10
0.2352461348968156
 20
-0.0664021057311519
 42
-6.868794160588311
  0
LINE
  5
4BB
330
18
100
AcDbEntity
  8
TEXT
100
AcDbLine
 10
0.2341065614006199
 20
0.2680824049961696
 30
0.0
 11
0.1672978488342549
 21
0.2680824049961696
 31
0.0
  0
LWPOLYLINE
  5
4BC
330
18
100
AcDbEntity
  8
TEXT
100
AcDbPolyline
 90
        4
 70
     0
 43
0.0
 10
0.5193839704544132
 20
0.1282404434344837
 10
0.5193839704544132
 20
-0.0664021057311519
 10
0.5878622537422711
 20
-0.0664021057311519
 10
0.5878622537422711
 20
-0.0229111607807138
 42
-1.714843617202739
  0
LWPOLYLINE
  5
4BD
330
18
100
AcDbEntity
  8
TEXT
100
AcDbPolyline
 90
        2
 70
     0
 43
0.0
 10
0.5545183209986231
 20
0.2000709272573626
 42
-0.3277054968067132
 10
0.5903000117117881
 20
0.1717483814877188
 42
6.667889725900311
  0
TEXT
  5
4BE
330
18
100
AcDbEntity
  8
TEXT
100
AcDbText
 10
1.33686428552518
 20
0.0264837029143443
 30
0.0
 40
0.0522247191011236
  1
Minneapolis, MN 55432-0008
 41
1.11444212721585
 72
     5
 11
2.665796869794844
 21
0.0264837029143443
 31
0.0
100
AcDbText
  0
TEXT
  5
4BF
330
18
100
AcDbEntity
  8
TEXT
100
AcDbText
 10
1.33686428552518
 20
0.1197421298806365
 30
0.0
 40
0.0522247191011236
  1
6536 Main St. N.E. * P.O. Box 32008
 41
0.8388932496075353
 72
     5
 11
2.665796869794844
 21
0.1197421298806365
 31
0.0
100
AcDbText
  0
TEXT
  5
4C0
330
18
100
AcDbEntity
  8
TEXT
100
AcDbText
 10
1.33686428552518
 20
0.2130005568469286
 30
0.0
 40
0.0522247191011236
  1
Stylmark  Incorporated
 41
1.221428571428571
 72
     5
 11
2.665796869794844
 21
0.2130005568469286
 31
0.0
100
AcDbText
  0
TEXT
  5
4C1
330
18
100
AcDbEntity
  8
TEXT
100
AcDbText
 10
1.33686428552518
 20
-0.0667747240519479
 30
0.0
 40
0.0522247191011236
  1
Phone  1-800-328-2495
 41
1.272321428571429
 72
     5
 11
2.665796869794844
 21
-0.0667747240519479
 31
0.0
100
AcDbText
  0
LINE
  5
4C2
330
18
100
AcDbEntity
  8
TEXT
100
AcDbLine
 10
-0.2169388053248014
 20
0.0999895109899658
 30
0.0
 11
-0.2825389415691024
 21
0.0999895109899658
 31
0.0
  0
ARC
  5
4C3
330
18
100
AcDbEntity
  8
TEXT
100
AcDbCircle
 10
-0.2825389415691024
 20
0.1178918717952815
 30
0.0
 40
0.017902360805315
100
AcDbArc
 50
90.0
 51
270.0
  0
LINE
  5
4C4
330
18
100
AcDbEntity
  8
TEXT
100
AcDbLine
 10
-0.2877762716833505
 20
0.035896008364352
 30
0.0
 11
-0.2119984314185217
 21
0.035896008364352
 31
0.0
  0
LINE
  5
4C5
330
18
100
AcDbEntity
  8
TEXT
100
AcDbLine
 10
-0.2119984314185217
 20
0.0019549006022874
 30
0.0
 11
-0.3698637311298558
 21
0.0019549006022874
 31
0.0
  0
LINE
  5
4C6
330
18
100
AcDbEntity
  8
TEXT
100
AcDbLine
 10
-0.369863731129854
 20
-0.0664021057311519
 30
0.0
 11
-0.2169388053248014
 21
-0.0664021057311519
 31
0.0
  0
ARC
  5
4C7
330
18
100
AcDbEntity
  8
TEXT
100
AcDbCircle
 10
-0.2877762716833505
 20
0.1179834678108573
 30
0.0
 40
0.0820874594465043
100
AcDbArc
 50
90.0
 51
270.0
  0
LINE
  5
4C8
330
18
100
AcDbEntity
  8
TEXT
100
AcDbLine
 10
-0.1120445187848391
 20
0.2000709272573591
 30
0.0
 11
-0.2877762716833505
 21
0.2000709272573591
 31
0.0
  0
ARC
  5
4C9
330
18
100
AcDbEntity
  8
TEXT
100
AcDbCircle
 10
-0.2119984314185217
 20
0.0189254544833215
 30
0.0
 40
0.0169705538810321
100
AcDbArc
 50
270.0
 51
90.0
  0
ARC
  5
4CA
330
18
100
AcDbEntity
  8
TEXT
100
AcDbCircle
 10
-0.2169388053248014
 20
0.0167937026294052
 30
0.0
 40
0.0831958083605586
100
AcDbArc
 50
270.0
 51
90.0
  0
LINE
  5
4CB
330
18
100
AcDbEntity
  8
TEXT
100
AcDbLine
 10
-0.2825389415691024
 20
0.1357942326005936
 30
0.0
 11
-0.115633287540132
 21
0.1357942326005936
 31
0.0
  0
LWPOLYLINE
  5
4CC
330
18
100
AcDbEntity
  8
TEXT
100
AcDbPolyline
 90
        2
 70
     0
 43
0.0006660908203125
 10
-0.5792967112296293
 20
0.086835487804235
 10
-0.5526530784171282
 20
0.086835487804235
  0
LINE
  5
4CD
330
18
100
AcDbEntity
  8
TEXT
100
AcDbLine
 10
-0.3698637311298558
 20
0.0019549006022874
 30
0.0
 11
-0.369863731129854
 21
-0.0664021057311519
 31
0.0
  0
LWPOLYLINE
  5
4CE
330
18
100
AcDbEntity
  8
TEXT
100
AcDbPolyline
 90
        2
 70
     0
 43
0.0006660908203125
 10
-0.5792967112296293
 20
0.046870038585487
 10
-0.5526530784171282
 20
0.046870038585487
  0
LWPOLYLINE
  5
4CF
330
18
100
AcDbEntity
  8
TEXT
100
AcDbPolyline
 90
        2
 70
     0
 43
0.0001332181640625
 10
-0.6658885178702541
 20
0.2000709272573626
 10
-0.6758798801749429
 20
0.126800937022983
  0
LWPOLYLINE
  5
4D0
330
18
100
AcDbEntity
  8
TEXT
100
AcDbPolyline
 90
        2
 70
     0
 43
0.0001332181640625
 10
-0.6658885178702541
 20
0.1734272944448616
 10
-0.6758798801749429
 20
0.113479120616736
  0
LWPOLYLINE
  5
4D1
330
18
100
AcDbEntity
  8
TEXT
100
AcDbPolyline
 90
        2
 70
     0
 43
0.0006660908203125
 10
-0.6658885178702541
 20
0.1734272944448616
 10
-0.6658885178702541
 20
0.2000709272573626
  0
LWPOLYLINE
  5
4D2
330
18
100
AcDbEntity
  8
TEXT
100
AcDbPolyline
 90
        5
 70
     0
 43
0.0001332181640625
 10
-0.6758798801749429
 20
0.126800937022983
 10
-0.6758798801749429
 20
0.113479120616736
 10
-0.639244885057753
 20
0.113479120616736
 10
-0.639244885057753
 20
0.0768441254995462
 10
-0.6259230686515043
 20
0.0768441254995462
  0
LWPOLYLINE
  5
4D3
330
18
100
AcDbEntity
  8
TEXT
100
AcDbPolyline
 90
        2
 70
     0
 43
0.0001332181640625
 10
-0.7058539670890056
 20
0.1734272944448616
 10
-0.6958626047843151
 20
0.113479120616736
  0
LWPOLYLINE
  5
4D4
330
18
100
AcDbEntity
  8
TEXT
100
AcDbPolyline
 90
        2
 70
     0
 43
0.0001332181640625
 10
-0.6958626047843151
 20
0.126800937022983
 10
-0.7058539670890056
 20
0.2000709272573626
  0
LWPOLYLINE
  5
4D5
330
18
100
AcDbEntity
  8
TEXT
100
AcDbPolyline
 90
        2
 70
     0
 43
0.0006660908203125
 10
-0.7058539670890056
 20
0.1734272944448616
 10
-0.7058539670890056
 20
0.2000709272573626
  0
LWPOLYLINE
  5
4D6
330
18
100
AcDbEntity
  8
TEXT
100
AcDbPolyline
 90
        5
 70
     0
 43
0.0001332181640625
 10
-0.7458194163077537
 20
0.0768441254995462
 10
-0.7324975999015049
 20
0.0768441254995462
 10
-0.7324975999015049
 20
0.113479120616736
 10
-0.6958626047843151
 20
0.113479120616736
 10
-0.6958626047843151
 20
0.126800937022983
  0
LWPOLYLINE
  5
4D7
330
18
100
AcDbEntity
  8
TEXT
100
AcDbPolyline
 90
        2
 70
     0
 43
0.0006660908203125
 10
-0.7924457737296305
 20
0.086835487804235
 10
-0.8190894065421279
 20
0.086835487804235
  0
LWPOLYLINE
  5
4D8
330
18
100
AcDbEntity
  8
TEXT
100
AcDbPolyline
 90
        2
 70
     0
 43
0.0001332181640625
 10
-0.8190894065421279
 20
0.086835487804235
 10
-0.7458194163077537
 20
0.0768441254995462
  0
LWPOLYLINE
  5
4D9
330
18
100
AcDbEntity
  8
TEXT
100
AcDbPolyline
 90
        2
 70
     0
 43
0.0001332181640625
 10
-0.7924457737296305
 20
0.086835487804235
 10
-0.7324975999015049
 20
0.0768441254995462
  0
LWPOLYLINE
  5
4DA
330
18
100
AcDbEntity
  8
TEXT
100
AcDbPolyline
 90
        2
 70
     0
 43
0.0001332181640625
 10
-0.7924457737296305
 20
0.1734272944448616
 10
-0.7324975999015049
 20
0.113479120616736
  0
LWPOLYLINE
  5
4DB
330
18
100
AcDbEntity
  8
TEXT
100
AcDbPolyline
 90
        3
 70
     0
 43
0.0006660908203125
 10
-0.7058539670890056
 20
0.1734272944448616
 10
-0.7924457737296305
 20
0.1734272944448616
 10
-0.7924457737296305
 20
0.086835487804235
  0
LWPOLYLINE
  5
4DC
330
18
100
AcDbEntity
  8
TEXT
100
AcDbPolyline
 90
        3
 70
     0
 43
0.0006660908203125
 10
-0.7058539670890056
 20
0.2000709272573626
 10
-0.8190894065421279
 20
0.2000709272573626
 10
-0.8190894065421279
 20
0.086835487804235
  0
LWPOLYLINE
  5
4DD
330
18
100
AcDbEntity
  8
TEXT
100
AcDbPolyline
 90
        5
 70
     0
 43
0.0001332181640625
 10
-0.6259230686515043
 20
0.0568614008901722
 10
-0.639244885057753
 20
0.0568614008901722
 10
-0.639244885057753
 20
0.020226405772986
 10
-0.6758798801749429
 20
0.020226405772986
 10
-0.6758798801749429
 20
0.0069045893667354
  0
LWPOLYLINE
  5
4DE
330
18
100
AcDbEntity
  8
TEXT
100
AcDbPolyline
 90
        2
 70
     0
 43
0.0006660908203125
 10
-0.6658885178702541
 20
-0.0397217680551396
 10
-0.6658885178702541
 20
-0.0663654008676407
  0
LWPOLYLINE
  5
4DF
330
18
100
AcDbEntity
  8
TEXT
100
AcDbPolyline
 90
        2
 70
     0
 43
0.0001332181640625
 10
-0.6758798801749429
 20
0.0069045893667354
 10
-0.6658885178702541
 20
-0.0663654008676407
  0
LWPOLYLINE
  5
4E0
330
18
100
AcDbEntity
  8
TEXT
100
AcDbPolyline
 90
        2
 70
     0
 43
0.0001332181640625
 10
-0.6658885178702541
 20
-0.0397217680551396
 10
-0.6758798801749429
 20
0.020226405772986
  0
LWPOLYLINE
  5
4E1
330
18
100
AcDbEntity
  8
TEXT
100
AcDbPolyline
 90
        2
 70
     0
 43
0.0001332181640625
 10
-0.7058539670890056
 20
-0.0663654008676407
 10
-0.6958626047843151
 20
0.0069045893667354
  0
LWPOLYLINE
  5
4E2
330
18
100
AcDbEntity
  8
TEXT
100
AcDbPolyline
 90
        2
 70
     0
 43
0.0001332181640625
 10
-0.7058539670890056
 20
-0.0397217680551396
 10
-0.6958626047843151
 20
0.020226405772986
  0
LWPOLYLINE
  5
4E3
330
18
100
AcDbEntity
  8
TEXT
100
AcDbPolyline
 90
        2
 70
     0
 43
0.0006660908203125
 10
-0.7058539670890056
 20
-0.0397217680551396
 10
-0.7058539670890056
 20
-0.0663654008676407
  0
LWPOLYLINE
  5
4E4
330
18
100
AcDbEntity
  8
TEXT
100
AcDbPolyline
 90
        5
 70
     0
 43
0.0001332181640625
 10
-0.6958626047843151
 20
0.0069045893667354
 10
-0.6958626047843151
 20
0.020226405772986
 10
-0.7324975999015031
 20
0.020226405772986
 10
-0.7324975999015031
 20
0.0568614008901722
 10
-0.7458194163077537
 20
0.0568614008901722
  0
LWPOLYLINE
  5
4E5
330
18
100
AcDbEntity
  8
TEXT
100
AcDbPolyline
 90
        2
 70
     0
 43
0.0006660908203125
 10
-0.7924457737296305
 20
0.046870038585487
 10
-0.8190894065421279
 20
0.046870038585487
  0
LWPOLYLINE
  5
4E6
330
18
100
AcDbEntity
  8
TEXT
100
AcDbPolyline
 90
        2
 70
     0
 43
0.0001332181640625
 10
-0.7924457737296305
 20
-0.0397217680551396
 10
-0.7324975999015031
 20
0.020226405772986
  0
LWPOLYLINE
  5
4E7
330
18
100
AcDbEntity
  8
TEXT
100
AcDbPolyline
 90
        2
 70
     0
 43
0.0001332181640625
 10
-0.7924457737296305
 20
0.046870038585487
 10
-0.7324975999015031
 20
0.0568614008901722
  0
LWPOLYLINE
  5
4E8
330
18
100
AcDbEntity
  8
TEXT
100
AcDbPolyline
 90
        2
 70
     0
 43
0.0001332181640625
 10
-0.7458194163077537
 20
0.0568614008901722
 10
-0.8190894065421279
 20
0.046870038585487
  0
LWPOLYLINE
  5
4E9
330
18
100
AcDbEntity
  8
TEXT
100
AcDbPolyline
 90
        3
 70
     0
 43
0.0006660908203125
 10
-0.7924457737296305
 20
0.046870038585487
 10
-0.7924457737296305
 20
-0.0397217680551396
 10
-0.7058539670890056
 20
-0.0397217680551396
  0
LWPOLYLINE
  5
4EA
330
18
100
AcDbEntity
  8
TEXT
100
AcDbPolyline
 90
        3
 70
     0
 43
0.0006660908203125
 10
-0.8190894065421279
 20
0.046870038585487
 10
-0.8190894065421279
 20
-0.0663654008676407
 10
-0.7058539670890056
 20
-0.0663654008676407
  0
LWPOLYLINE
  5
4EB
330
18
100
AcDbEntity
  8
TEXT
100
AcDbPolyline
 90
        3
 70
     0
 43
0.0006660908203125
 10
-0.6658885178702541
 20
-0.0663654008676407
 10
-0.5526530784171282
 20
-0.0663654008676407
 10
-0.5526530784171282
 20
0.046870038585487
  0
LWPOLYLINE
  5
4EC
330
18
100
AcDbEntity
  8
TEXT
100
AcDbPolyline
 90
        3
 70
     0
 43
0.0006660908203125
 10
-0.6658885178702541
 20
-0.0397217680551396
 10
-0.5792967112296293
 20
-0.0397217680551396
 10
-0.5792967112296293
 20
0.046870038585487
  0
LWPOLYLINE
  5
4ED
330
18
100
AcDbEntity
  8
TEXT
100
AcDbPolyline
 90
        2
 70
     0
 43
0.0001332181640625
 10
-0.5792967112296293
 20
-0.0397217680551396
 10
-0.639244885057753
 20
0.020226405772986
  0
LWPOLYLINE
  5
4EE
330
18
100
AcDbEntity
  8
TEXT
100
AcDbPolyline
 90
        2
 70
     0
 43
0.0001332181640625
 10
-0.5792967112296293
 20
0.046870038585487
 10
-0.639244885057753
 20
0.0568614008901722
  0
LWPOLYLINE
  5
4EF
330
18
100
AcDbEntity
  8
TEXT
100
AcDbPolyline
 90
        2
 70
     0
 43
0.0001332181640625
 10
-0.5526530784171282
 20
0.046870038585487
 10
-0.6259230686515043
 20
0.0568614008901722
  0
LWPOLYLINE
  5
4F0
330
18
100
AcDbEntity
  8
TEXT
100
AcDbPolyline
 90
        2
 70
     0
 43
0.0001332181640625
 10
-0.5792967112296293
 20
0.1734272944448616
 10
-0.639244885057753
 20
0.113479120616736
  0
LWPOLYLINE
  5
4F1
330
18
100
AcDbEntity
  8
TEXT
100
AcDbPolyline
 90
        2
 70
     0
 43
0.0001332181640625
 10
-0.5792967112296293
 20
0.086835487804235
 10
-0.639244885057753
 20
0.0768441254995462
  0
LWPOLYLINE
  5
4F2
330
18
100
AcDbEntity
  8
TEXT
100
AcDbPolyline
 90
        2
 70
     0
 43
0.0001332181640625
 10
-0.6259230686515043
 20
0.0768441254995462
 10
-0.5526530784171282
 20
0.086835487804235
  0
LWPOLYLINE
  5
4F3
330
18
100
AcDbEntity
  8
TEXT
100
AcDbPolyline
 90
        3
 70
     0
 43
0.0006660908203125
 10
-0.5792967112296293
 20
0.086835487804235
 10
-0.5792967112296293
 20
0.1734272944448616
 10
-0.6658885178702541
 20
0.1734272944448616
  0
LWPOLYLINE
  5
4F4
330
18
100
AcDbEntity
  8
TEXT
100
AcDbPolyline
 90
        3
 70
     0
 43
0.0006660908203125
 10
-0.5526530784171282
 20
0.086835487804235
 10
-0.5526530784171282
 20
0.2000709272573626
 10
-0.6658885178702541
 20
0.2000709272573626
  0
ENDSEC
  0
SECTION
  2
OBJECTS
  0
DICTIONARY
  5
C
330
0
100
AcDbDictionary
  3
ACAD_GROUP
350
D
  3
ACAD_LAYOUT
350
4FA
  3
ACAD_MLINESTYLE
350
E
  3
ACAD_PLOTSETTINGS
350
4FB
  3
ACAD_PLOTSTYLENAME
350
4F8
  3
ACDBHEADERROUNDTRIPXREC
350
506
  3
ACDBVARIABLEDICTIONARY
350
503
  0
DICTIONARY
  5
528
330
18
100
AcDbDictionary
280
     1
  3
ACAD_LAYOUTSELFREF
360
529
  0
DICTIONARY
  5
526
330
15
100
AcDbDictionary
280
     1
  3
ACAD_LAYOUTSELFREF
360
527
  0
DICTIONARY
  5
D
102
{ACAD_REACTORS
330
C
102
}
330
C
100
AcDbDictionary
  0
DICTIONARY
  5
4FA
102
{ACAD_REACTORS
330
C
102
}
330
C
100
AcDbDictionary
  0
DICTIONARY
  5
E
102
{ACAD_REACTORS
330
C
102
}
330
C
100
AcDbDictionary
  3
STANDARD
350
1B
  0
DICTIONARY
  5
4FB
102
{ACAD_REACTORS
330
C
102
}
330
C
100
AcDbDictionary
  0
ACDBDICTIONARYWDFLT
  5
4F8
102
{ACAD_REACTORS
330
C
102
}
330
C
100
AcDbDictionary
281
     1
  3
Normal
350
4F9
100
AcDbDictionaryWithDefault
340
4F9
  0
DICTIONARY
  5
506
102
{ACAD_REACTORS
330
C
102
}
330
C
100
AcDbDictionary
  3
CEPSNTYPE
350
510
  3
FINGERPRINTGUID
350
511
  3
HYPERLINKBASE
350
509
  3
INSUNITS
350
50F
  3
LAYOUTDICT
350
50B
  3
LWETCUNION
350
50E
  3
PLOTSETDICT
350
50C
  3
PLOTSTYLNAMDICT
350
50D
  3
PSVPSCALE
350
513
  3
PUCSBASE
350
516
  3
PUCSORGBACK
350
51C
  3
PUCSORGBOTTOM
350
518
  3
PUCSORGFRONT
350
51B
  3
PUCSORGLEFT
350
519
  3
PUCSORGRIGHT
350
51A
  3
PUCSORGTOP
350
517
  3
PUCSORTHOREF
350
514
  3
PUCSORTHOVIEW
350
515
  3
STYLESHEET
350
50A
  3
TSTACKALIGN
350
507
  3
TSTACKSIZE
350
508
  3
UCSBASE
350
51F
  3
UCSORGBACK
350
525
  3
UCSORGBOTTOM
350
521
  3
UCSORGFRONT
350
524
  3
UCSORGLEFT
350
522
  3
UCSORGRIGHT
350
523
  3
UCSORGTOP
350
520
  3
UCSORTHOREF
350
51D
  3
UCSORTHOVIEW
350
51E
  3
VERSIONGUID
350
512
  0
DICTIONARY
  5
503
102
{ACAD_REACTORS
330
C
102
}
330
C
100
AcDbDictionary
  3
DIMASSOC
350
504
  0
XRECORD
  5
529
102
{ACAD_REACTORS
330
528
102
}
330
528
100
AcDbXrecord
340
18
  0
XRECORD
  5
527
102
{ACAD_REACTORS
330
526
102
}
330
526
100
AcDbXrecord
340
15
  0
MLINESTYLE
  5
1B
102
{ACAD_REACTORS
330
E
102
}
330
E
100
AcDbMlineStyle
  2
STANDARD
 70
     0
  3

 62
     0
 51
90.0
 52
90.0
 71
     2
 49
0.5
 62
   256
  6
BYLAYER
 49
-0.5
 62
   256
  6
BYLAYER
  0
ACDBPLACEHOLDER
  5
4F9
102
{ACAD_REACTORS
330
4F8
102
}
330
4F8
100
AcDbPlaceHolder
280
     0
  0
XRECORD
  5
510
102
{ACAD_REACTORS
330
506
102
}
330
506
100
AcDbXrecord
 90
        0
  0
XRECORD
  5
511
102
{ACAD_REACTORS
330
506
102
}
330
506
100
AcDbXrecord
  1
{62CEE740-8DB4-11D6-88E6-0090279574E7}
  0
XRECORD
  5
509
102
{ACAD_REACTORS
330
506
102
}
330
506
100
AcDbXrecord
  1

  0
XRECORD
  5
50F
102
{ACAD_REACTORS
330
506
102
}
330
506
100
AcDbXrecord
 90
        0
  0
XRECORD
  5
50B
102
{ACAD_REACTORS
330
506
102
}
330
506
100
AcDbXrecord
340
4FA
  0
XRECORD
  5
50E
102
{ACAD_REACTORS
330
506
102
}
330
506
100
AcDbXrecord
 90
    14877
  0
XRECORD
  5
50C
102
{ACAD_REACTORS
330
506
102
}
330
506
100
AcDbXrecord
340
4FB
  0
XRECORD
  5
50D
102
{ACAD_REACTORS
330
506
102
}
330
506
100
AcDbXrecord
340
4F8
  0
XRECORD
  5
513
102
{ACAD_REACTORS
330
506
102
}
330
506
100
AcDbXrecord
 40
0.0
  0
XRECORD
  5
516
102
{ACAD_REACTORS
330
506
102
}
330
506
100
AcDbXrecord
340
0
  0
XRECORD
  5
51C
102
{ACAD_REACTORS
330
506
102
}
330
506
100
AcDbXrecord
 10
0.0
 20
0.0
 30
0.0
  0
XRECORD
  5
518
102
{ACAD_REACTORS
330
506
102
}
330
506
100
AcDbXrecord
 10
0.0
 20
0.0
 30
0.0
  0
XRECORD
  5
51B
102
{ACAD_REACTORS
330
506
102
}
330
506
100
AcDbXrecord
 10
0.0
 20
0.0
 30
0.0
  0
XRECORD
  5
519
102
{ACAD_REACTORS
330
506
102
}
330
506
100
AcDbXrecord
 10
0.0
 20
0.0
 30
0.0
  0
XRECORD
  5
51A
102
{ACAD_REACTORS
330
506
102
}
330
506
100
AcDbXrecord
 10
0.0
 20
0.0
 30
0.0
  0
XRECORD
  5
517
102
{ACAD_REACTORS
330
506
102
}
330
506
100
AcDbXrecord
 10
0.0
 20
0.0
 30
0.0
  0
XRECORD
  5
514
102
{ACAD_REACTORS
330
506
102
}
330
506
100
AcDbXrecord
340
0
  0
XRECORD
  5
515
102
{ACAD_REACTORS
330
506
102
}
330
506
100
AcDbXrecord
 70
     0
  0
XRECORD
  5
50A
102
{ACAD_REACTORS
330
506
102
}
330
506
100
AcDbXrecord
  1

  0
XRECORD
  5
507
102
{ACAD_REACTORS
330
506
102
}
330
506
100
AcDbXrecord
 90
        1
  0
XRECORD
  5
508
102
{ACAD_REACTORS
330
506
102
}
330
506
100
AcDbXrecord
 90
       70
  0
XRECORD
  5
51F
102
{ACAD_REACTORS
330
506
102
}
330
506
100
AcDbXrecord
340
0
  0
XRECORD
  5
525
102
{ACAD_REACTORS
330
506
102
}
330
506
100
AcDbXrecord
 10
0.0
 20
0.0
 30
0.0
  0
XRECORD
  5
521
102
{ACAD_REACTORS
330
506
102
}
330
506
100
AcDbXrecord
 10
0.0
 20
0.0
 30
0.0
  0
XRECORD
  5
524
102
{ACAD_REACTORS
330
506
102
}
330
506
100
AcDbXrecord
 10
0.0
 20
0.0
 30
0.0
  0
XRECORD
  5
522
102
{ACAD_REACTORS
330
506
102
}
330
506
100
AcDbXrecord
 10
0.0
 20
0.0
 30
0.0
  0
XRECORD
  5
523
102
{ACAD_REACTORS
330
506
102
}
330
506
100
AcDbXrecord
 10
0.0
 20
0.0
 30
0.0
  0
XRECORD
  5
520
102
{ACAD_REACTORS
330
506
102
}
330
506
100
AcDbXrecord
 10
0.0
 20
0.0
 30
0.0
  0
XRECORD
  5
51D
102
{ACAD_REACTORS
330
506
102
}
330
506
100
AcDbXrecord
340
0
  0
XRECORD
  5
51E
102
{ACAD_REACTORS
330
506
102
}
330
506
100
AcDbXrecord
 70
     0
  0
XRECORD
  5
512
102
{ACAD_REACTORS
330
506
102
}
330
506
100
AcDbXrecord
  1
{62CEE742-8DB4-11D6-88E6-0090279574E7}
  0
DICTIONARYVAR
  5
504
102
{ACAD_REACTORS
330
503
102
}
330
503
100
DictionaryVariables
280
     0
  1
1
  0
ENDSEC
  0
EOF
