  0
SECTION
  2
HEADER
  9
$ACADVER
  1
AC1014
  9
$ACADMAINTVER
 70
     9
  9
$DWGCODEPAGE
  3
ANSI_1252
  9
$INSBASE
 10
0.0
 20
0.0
 30
0.0
  9
$EXTMIN
 10
-0.7500000007223941
 20
-0.2298459620839075
 30
0.0
  9
$EXTMAX
 10
2.735219321024734
 20
1.151884738391252
 30
0.0
  9
$LIMMIN
 10
0.0
 20
0.0
  9
$LIMMAX
 10
12.0
 20
9.0
  9
$ORTHOMODE
 70
     1
  9
$REGENMODE
 70
     1
  9
$FILLMODE
 70
     1
  9
$QTEXTMODE
 70
     0
  9
$MIRRTEXT
 70
     0
  9
$DRAGMODE
 70
     2
  9
$LTSCALE
 40
1.0
  9
$OSMODE
 70
    39
  9
$ATTMODE
 70
     1
  9
$TEXTSIZE
 40
0.125
  9
$TRACEWID
 40
0.05
  9
$TEXTSTYLE
  7
ROMANS
  9
$CLAYER
  8
0
  9
$CELTYPE
  6
BYLAYER
  9
$CECOLOR
 62
   256
  9
$CELTSCALE
 40
1.0
  9
$DELOBJ
 70
     1
  9
$DISPSILH
 70
     1
  9
$DIMSCALE
 40
1.0
  9
$DIMASZ
 40
0.125
  9
$DIMEXO
 40
0.125
  9
$DIMDLI
 40
0.38
  9
$DIMRND
 40
0.0
  9
$DIMDLE
 40
0.0
  9
$DIMEXE
 40
0.125
  9
$DIMTP
 40
0.0
  9
$DIMTM
 40
0.0
  9
$DIMTXT
 40
0.125
  9
$DIMCEN
 40
0.09
  9
$DIMTSZ
 40
0.0
  9
$DIMTOL
 70
     0
  9
$DIMLIM
 70
     0
  9
$DIMTIH
 70
     1
  9
$DIMTOH
 70
     1
  9
$DIMSE1
 70
     1
  9
$DIMSE2
 70
     1
  9
$DIMTAD
 70
     0
  9
$DIMZIN
 70
     4
  9
$DIMBLK
  1

  9
$DIMASO
 70
     1
  9
$DIMSHO
 70
     1
  9
$DIMPOST
  1

  9
$DIMAPOST
  1

  9
$DIMALT
 70
     0
  9
$DIMALTD
 70
     2
  9
$DIMALTF
 40
25.4
  9
$DIMLFAC
 40
0.5
  9
$DIMTOFL
 70
     0
  9
$DIMTVP
 40
0.0
  9
$DIMTIX
 70
     0
  9
$DIMSOXD
 70
     0
  9
$DIMSAH
 70
     0
  9
$DIMBLK1
  1

  9
$DIMBLK2
  1

  9
$DIMSTYLE
  2
STANDARD
  9
$DIMCLRD
 70
     0
  9
$DIMCLRE
 70
     0
  9
$DIMCLRT
 70
     0
  9
$DIMTFAC
 40
1.0
  9
$DIMGAP
 40
0.09
  9
$DIMJUST
 70
     0
  9
$DIMSD1
 70
     0
  9
$DIMSD2
 70
     0
  9
$DIMTOLJ
 70
     1
  9
$DIMTZIN
 70
     0
  9
$DIMALTZ
 70
     0
  9
$DIMALTTZ
 70
     0
  9
$DIMFIT
 70
     3
  9
$DIMUPT
 70
     0
  9
$DIMUNIT
 70
     2
  9
$DIMDEC
 70
     3
  9
$DIMTDEC
 70
     4
  9
$DIMALTU
 70
     2
  9
$DIMALTTD
 70
     2
  9
$DIMTXSTY
  7
ROMANS
  9
$DIMAUNIT
 70
     0
  9
$LUNITS
 70
     2
  9
$LUPREC
 70
     3
  9
$SKETCHINC
 40
0.1
  9
$FILLETRAD
 40
0.03125
  9
$AUNITS
 70
     0
  9
$AUPREC
 70
     0
  9
$MENU
  1
AUTOMSTR
  9
$ELEVATION
 40
0.0
  9
$PELEVATION
 40
0.0
  9
$THICKNESS
 40
0.0
  9
$LIMCHECK
 70
     0
  9
$BLIPMODE
 70
     0
  9
$CHAMFERA
 40
0.0
  9
$CHAMFERB
 40
0.0
  9
$CHAMFERC
 40
0.0
  9
$CHAMFERD
 40
0.0
  9
$SKPOLY
 70
     0
  9
$TDCREATE
 40
2447874.913750347
  9
$TDUPDATE
 40
2452458.297349294
  9
$TDINDWG
 40
0.1322253241
  9
$TDUSRTIMER
 40
0.1322253241
  9
$USRTIMER
 70
     1
  9
$ANGBASE
 50
0.0
  9
$ANGDIR
 70
     0
  9
$PDMODE
 70
     0
  9
$PDSIZE
 40
0.0
  9
$PLINEWID
 40
0.0
  9
$COORDS
 70
     2
  9
$SPLFRAME
 70
     0
  9
$SPLINETYPE
 70
     6
  9
$SPLINESEGS
 70
     8
  9
$ATTDIA
 70
     0
  9
$ATTREQ
 70
     1
  9
$HANDLING
 70
 22529
  9
$HANDSEED
  5
3A8
  9
$SURFTAB1
 70
     6
  9
$SURFTAB2
 70
     6
  9
$SURFTYPE
 70
     6
  9
$SURFU
 70
     6
  9
$SURFV
 70
     6
  9
$UCSNAME
  2

  9
$UCSORG
 10
0.0
 20
0.0
 30
0.0
  9
$UCSXDIR
 10
1.0
 20
0.0
 30
0.0
  9
$UCSYDIR
 10
0.0
 20
1.0
 30
0.0
  9
$PUCSNAME
  2

  9
$PUCSORG
 10
0.0
 20
0.0
 30
0.0
  9
$PUCSXDIR
 10
1.0
 20
0.0
 30
0.0
  9
$PUCSYDIR
 10
0.0
 20
1.0
 30
0.0
  9
$USERI1
 70
     0
  9
$USERI2
 70
     0
  9
$USERI3
 70
     0
  9
$USERI4
 70
     0
  9
$USERI5
 70
     0
  9
$USERR1
 40
0.0
  9
$USERR2
 40
0.0
  9
$USERR3
 40
0.0
  9
$USERR4
 40
0.0
  9
$USERR5
 40
0.0
  9
$WORLDVIEW
 70
     1
  9
$SHADEDGE
 70
     3
  9
$SHADEDIF
 70
    70
  9
$TILEMODE
 70
     1
  9
$MAXACTVP
 70
    16
  9
$PINSBASE
 10
0.0
 20
0.0
 30
0.0
  9
$PLIMCHECK
 70
     0
  9
$PEXTMIN
 10
1.000000000000000E+20
 20
1.000000000000000E+20
 30
1.000000000000000E+20
  9
$PEXTMAX
 10
-1.000000000000000E+20
 20
-1.000000000000000E+20
 30
-1.000000000000000E+20
  9
$PLIMMIN
 10
0.0
 20
0.0
  9
$PLIMMAX
 10
12.0
 20
9.0
  9
$UNITMODE
 70
     0
  9
$VISRETAIN
 70
     0
  9
$PLINEGEN
 70
     1
  9
$PSLTSCALE
 70
     0
  9
$TREEDEPTH
 70
  3020
  9
$PICKSTYLE
 70
     1
  9
$CMLSTYLE
  2
STANDARD
  9
$CMLJUST
 70
     0
  9
$CMLSCALE
 40
1.0
  9
$PROXYGRAPHICS
 70
     1
  9
$MEASUREMENT
 70
     0
  0
ENDSEC
  0
SECTION
  2
CLASSES
  0
CLASS
  1
LWPOLYLINE
  2
AcDbPolyline
  3
AutoCAD 2000
 90
        0
280
     0
281
     1
  0
CLASS
  1
ACDBDICTIONARYWDFLT
  2
AcDbDictionaryWithDefault
  3
AutoCAD 2000
 90
        0
280
     0
281
     0
  0
CLASS
  1
ACDBPLACEHOLDER
  2
AcDbPlaceHolder
  3
AutoCAD 2000
 90
        0
280
     0
281
     0
  0
CLASS
  1
LAYOUT
  2
AcDbLayout
  3
AutoCAD 2000
 90
        0
280
     0
281
     0
  0
CLASS
  1
DICTIONARYVAR
  2
AcDbDictionaryVar
  3
AutoCAD 2000
 90
        0
280
     0
281
     0
  0
CLASS
  1
LONG_TRANSACTION
  2
AcDbLongTransaction
  3
AutoCAD 2000
 90
        0
280
     0
281
     0
  0
CLASS
  1
LWPOLYLINE
  2
AcDbPolyline
  3
AutoCAD 2000
 90
        0
280
     0
281
     1
  0
CLASS
  1
HATCH
  2
AcDbHatch
  3
AutoCAD 2000
 90
        0
280
     0
281
     1
  0
CLASS
  1
XRECORD
  2
AcDbXrecord
  3
AutoCAD 2000
 90
        0
280
     0
281
     0
  0
ENDSEC
  0
SECTION
  2
TABLES
  0
TABLE
  2
VPORT
  5
8
330
0
100
AcDbSymbolTable
 70
     2
  0
VPORT
  5
383
330
8
100
AcDbSymbolTableRecord
100
AcDbViewportTableRecord
  2
*ACTIVE
 70
     0
 10
0.0
 20
0.0
 11
1.0
 21
1.0
 12
20.56696209684374
 22
3.718749991300868
 13
0.0
 23
0.0
 14
0.015625
 24
0.015625
 15
0.125
 25
0.125
 16
0.0
 26
0.0
 36
1.0
 17
0.0
 27
0.0
 37
0.0
 40
10.76039999916493
 41
4.320930232558139
 42
50.0
 43
0.0
 44
0.0
 50
0.0
 51
0.0
 71
     0
 72
  2000
 73
     1
 74
     1
 75
     1
 76
     0
 77
     0
 78
     0
  0
ENDTAB
  0
TABLE
  2
LTYPE
  5
5
330
0
100
AcDbSymbolTable
 70
     1
  0
LTYPE
  5
12
330
5
100
AcDbSymbolTableRecord
100
AcDbLinetypeTableRecord
  2
BYBLOCK
 70
     0
  3

 72
    65
 73
     0
 40
0.0
  0
LTYPE
  5
13
330
5
100
AcDbSymbolTableRecord
100
AcDbLinetypeTableRecord
  2
BYLAYER
 70
     0
  3

 72
    65
 73
     0
 40
0.0
  0
LTYPE
  5
14
330
5
100
AcDbSymbolTableRecord
100
AcDbLinetypeTableRecord
  2
CONTINUOUS
 70
     0
  3
Solid line
 72
    65
 73
     0
 40
0.0
  0
ENDTAB
  0
TABLE
  2
LAYER
  5
2
330
0
100
AcDbSymbolTable
 70
     2
  0
LAYER
  5
F
330
2
100
AcDbSymbolTableRecord
100
AcDbLayerTableRecord
  2
0
 70
     0
 62
     7
  6
CONTINUOUS
  0
LAYER
  5
2F
330
2
100
AcDbSymbolTableRecord
100
AcDbLayerTableRecord
  2
TEXT
 70
     0
 62
     3
  6
CONTINUOUS
  0
ENDTAB
  0
TABLE
  2
STYLE
  5
3
330
0
100
AcDbSymbolTable
 70
     3
  0
STYLE
  5
10
330
3
100
AcDbSymbolTableRecord
100
AcDbTextStyleTableRecord
  2
STANDARD
 70
     0
 40
0.0
 41
1.0
 50
0.0
 71
     0
 42
0.125
  3
txt
  4

  0
STYLE
  5
26F
330
3
100
AcDbSymbolTableRecord
100
AcDbTextStyleTableRecord
  2
ITALICC
 70
     0
 40
0.0
 41
1.0
 50
0.0
 71
     0
 42
0.125
  3
italicc
  4

  0
STYLE
  5
37F
330
3
100
AcDbSymbolTableRecord
100
AcDbTextStyleTableRecord
  2
ROMANS
 70
     0
 40
0.0
 41
1.0
 50
0.0
 71
     0
 42
0.125
  3
romans.shx
  4

  0
ENDTAB
  0
TABLE
  2
VIEW
  5
6
330
0
100
AcDbSymbolTable
 70
     0
  0
ENDTAB
  0
TABLE
  2
UCS
  5
7
330
0
100
AcDbSymbolTable
 70
     0
  0
ENDTAB
  0
TABLE
  2
APPID
  5
9
330
0
100
AcDbSymbolTable
 70
     1
  0
APPID
  5
11
330
9
100
AcDbSymbolTableRecord
100
AcDbRegAppTableRecord
  2
ACAD
 70
     0
  0
ENDTAB
  0
TABLE
  2
DIMSTYLE
  5
A
330
0
100
AcDbSymbolTable
 70
     1
  0
DIMSTYLE
105
263
330
A
100
AcDbSymbolTableRecord
100
AcDbDimStyleTableRecord
  2
STANDARD
 70
     0
  3

  4

  5

  6

  7

 40
1.0
 41
0.18
 42
0.0625
 43
0.38
 44
0.18
 45
0.0
 46
0.0
 47
0.0
 48
0.0
140
0.18
141
0.09
142
0.0
143
25.4
144
1.0
145
0.0
146
1.0
147
0.09
 71
     0
 72
     0
 73
     1
 74
     1
 75
     0
 76
     0
 77
     0
 78
     0
170
     0
171
     2
172
     0
173
     0
174
     0
175
     0
176
     0
177
     0
178
     0
270
     2
271
     4
272
     4
273
     2
274
     2
340
10
275
     0
280
     0
281
     0
282
     0
283
     1
284
     0
285
     0
286
     0
287
     3
288
     0
  0
ENDTAB
  0
TABLE
  2
BLOCK_RECORD
  5
1
330
0
100
AcDbSymbolTable
 70
     0
  0
BLOCK_RECORD
  5
18
102
{ACAD_XDICTIONARY
360
3A6
102
}
330
1
100
AcDbSymbolTableRecord
100
AcDbBlockTableRecord
  2
*MODEL_SPACE
  0
BLOCK_RECORD
  5
15
102
{ACAD_XDICTIONARY
360
3A4
102
}
330
1
100
AcDbSymbolTableRecord
100
AcDbBlockTableRecord
  2
*PAPER_SPACE
  0
ENDTAB
  0
ENDSEC
  0
SECTION
  2
BLOCKS
  0
BLOCK
  5
37
330
18
100
AcDbEntity
  8
0
100
AcDbBlockBegin
  2
*MODEL_SPACE
 70
     0
 10
0.0
 20
0.0
 30
0.0
  3
*MODEL_SPACE
  1

  0
ENDBLK
  5
38
330
18
100
AcDbEntity
  8
0
100
AcDbBlockEnd
  0
BLOCK
  5
35
330
15
100
AcDbEntity
 67
     1
  8
0
100
AcDbBlockBegin
  2
*PAPER_SPACE
 70
     0
 10
0.0
 20
0.0
 30
0.0
  3
*PAPER_SPACE
  1

  0
ENDBLK
  5
36
330
15
100
AcDbEntity
 67
     1
  8
0
100
AcDbBlockEnd
  0
ENDSEC
  0
SECTION
  2
ENTITIES
  0
LWPOLYLINE
  5
23A
330
18
100
AcDbEntity
  8
0
100
AcDbPolyline
 90
       17
 70
     0
 43
0.0
 10
1.457221917649254
 20
1.061124938208577
 10
0.9372219176492544
 20
1.061124938208577
 10
0.9272517120345238
 20
1.051154732593847
 10
0.9172815064197932
 20
1.061124938208577
 10
0.364531506419794
 20
1.061124938208577
 42
0.4142135623730951
 10
0.333281506419794
 20
1.029874938208577
 10
0.333281506419794
 20
0.6773749180394742
 42
1.0
 10
0.395781506419794
 20
0.6773749180394742
 10
0.395781506419794
 20
0.9361116734985172
 10
0.4582815064197941
 20
0.9361116734985172
 10
0.3962682417097336
 20
0.9991249382085776
 10
1.552221917649254
 20
0.9991249382085776
 42
0.4142135623730951
 10
1.583221917649254
 20
1.030124938208578
 10
1.583221917649254
 20
1.061124938208577
 10
1.583221917649254
 20
1.112284317775012
 42
0.6681786379192993
 10
1.530301607432472
 20
1.134204627991794
 10
1.457215489241811
 20
1.061118509801135
  0
TEXT
  5
2F5
330
18
100
AcDbEntity
  8
TEXT
100
AcDbText
 10
0.2400053880285586
 20
0.228172641998674
 30
0.0
 40
0.125
  1
PART #110144
  7
ITALICC
 72
     1
 11
0.9929815785047493
 21
0.228172641998674
 31
0.0
100
AcDbText
  0
LINE
  5
2F6
330
18
100
AcDbEntity
  8
TEXT
100
AcDbLine
 10
1.148296208528132
 20
0.0480956506356058
 30
0.0
 11
1.101198049972148
 21
-0.0277696757759323
 31
0.0
  0
LINE
  5
2F7
330
18
100
AcDbEntity
  8
TEXT
100
AcDbLine
 10
1.101198049972148
 20
-0.0277696757759323
 30
0.0
 11
1.101198049972148
 21
0.1135598564032065
 31
0.0
  0
LINE
  5
2F8
330
18
100
AcDbEntity
  8
TEXT
100
AcDbLine
 10
1.101198049972148
 20
0.1135598564032065
 30
0.0
 11
1.032883171422875
 21
0.1135598564032065
 31
0.0
  0
LINE
  5
2F9
330
18
100
AcDbEntity
  8
TEXT
100
AcDbLine
 10
1.032883171422875
 20
0.1135598564032065
 30
0.0
 11
1.032883171422869
 21
0.0480956506356058
 31
0.0
  0
LINE
  5
2FA
330
18
100
AcDbEntity
  8
TEXT
100
AcDbLine
 10
1.158730925292055
 20
-0.0617975923053678
 30
0.0
 11
1.22328804125776
 21
0.0480956506356058
 31
0.0
  0
LINE
  5
2FB
330
18
100
AcDbEntity
  8
TEXT
100
AcDbLine
 10
1.22328804125776
 20
0.0480956506356058
 30
0.0
 11
1.148296208528134
 21
0.0480956506356058
 31
0.0
  0
LINE
  5
2FC
330
18
100
AcDbEntity
  8
TEXT
100
AcDbLine
 10
1.037363058749375
 20
-0.2183773823529052
 30
0.0
 11
1.101741243067995
 21
-0.2183773823529052
 31
0.0
  0
LINE
  5
2FD
330
18
100
AcDbEntity
  8
TEXT
100
AcDbLine
 10
1.101741243067995
 20
-0.2183773823529052
 30
0.0
 11
1.101741243067995
 21
-0.0867978138767249
 31
0.0
  0
LINE
  5
2FE
330
18
100
AcDbEntity
  8
TEXT
100
AcDbLine
 10
1.101741243067995
 20
-0.0867978138767249
 30
0.0
 11
1.17764477627946
 21
-0.2183773823529052
 31
0.0
  0
LINE
  5
2FF
330
18
100
AcDbEntity
  8
TEXT
100
AcDbLine
 10
1.17764477627946
 20
-0.2183773823529052
 30
0.0
 11
1.254223148655666
 21
-0.2183773823529052
 31
0.0
  0
LINE
  5
300
330
18
100
AcDbEntity
  8
TEXT
100
AcDbLine
 10
1.037363058749369
 20
-0.0161810440211596
 30
0.0
 11
1.037363058749375
 21
-0.2183773823529052
 31
0.0
  0
LINE
  5
301
330
18
100
AcDbEntity
  8
TEXT
100
AcDbLine
 10
1.254223148655666
 20
-0.2183773823529052
 30
0.0
 11
1.158730925292055
 21
-0.0617975923053678
 31
0.0
  0
ARC
  5
302
330
18
100
AcDbEntity
  8
TEXT
100
AcDbCircle
 10
0.9607150774568111
 20
-0.0410869193038224
 30
0.0
 40
0.0249058752826653
100
AcDbArc
 50
89.99971217465335
 51
179.9999999999985
  0
ARC
  5
303
330
18
100
AcDbEntity
  8
TEXT
100
AcDbCircle
 10
0.9686040343963888
 20
0.016849923353341
 30
0.0
 40
0.0314112657011332
100
AcDbArc
 50
95.88484768694724
 51
173.2388340632136
  0
LINE
  5
304
330
18
100
AcDbEntity
  8
TEXT
100
AcDbLine
 10
0.9374112173332802
 20
0.0205480007747312
 30
0.0
 11
0.9374112173332802
 21
0.0480956506356058
 31
0.0
  0
LINE
  5
305
330
18
100
AcDbEntity
  8
TEXT
100
AcDbLine
 10
0.9374112173332802
 20
0.0480956506356058
 30
0.0
 11
0.8735143110337793
 21
0.0480956506356058
 31
0.0
  0
LINE
  5
306
330
18
100
AcDbEntity
  8
TEXT
100
AcDbLine
 10
0.8735143110337793
 20
0.0480956506356058
 30
0.0
 11
0.8735143110337793
 21
-0.0571163279178215
 31
0.0
  0
LINE
  5
307
330
18
100
AcDbEntity
  8
TEXT
100
AcDbLine
 10
0.7945543721587383
 20
0.0480956506356058
 30
0.0
 11
0.6597224629416792
 21
0.0480956506356058
 31
0.0
  0
LINE
  5
308
330
18
100
AcDbEntity
  8
TEXT
100
AcDbLine
 10
0.6597224629416792
 20
0.0480956506356058
 30
0.0
 11
0.6597224629416792
 21
0.019773104865962
 31
0.0
  0
LINE
  5
309
330
18
100
AcDbEntity
  8
TEXT
100
AcDbLine
 10
0.7190365593349979
 20
-0.0534560174832919
 30
0.0
 11
0.8013245491183811
 21
-0.0534560174832919
 31
0.0
  0
LINE
  5
30A
330
18
100
AcDbEntity
  8
TEXT
100
AcDbLine
 10
0.8013245491183811
 20
-0.0534560174832919
 30
0.0
 11
0.7910597887048168
 21
-0.0322054779105976
 31
0.0
  0
LINE
  5
30B
330
18
100
AcDbEntity
  8
TEXT
100
AcDbLine
 10
0.7655234738142598
 20
-0.0161810440211596
 30
0.0
 11
0.6583172004269704
 21
-0.0161810440211596
 31
0.0
  0
ARC
  5
30C
330
18
100
AcDbEntity
  8
TEXT
100
AcDbCircle
 10
0.7655234738142589
 20
-0.0445404190211569
 30
0.0
 40
0.028359375
100
AcDbArc
 50
25.78218179591245
 51
90.0
  0
LINE
  5
30D
330
18
100
AcDbEntity
  8
TEXT
100
AcDbLine
 10
0.8735143110337793
 20
-0.0571163279178215
 30
0.0
 11
0.8297635398518776
 21
0.0251339480783237
 31
0.0
  0
ARC
  5
30E
330
18
100
AcDbEntity
  8
TEXT
100
AcDbCircle
 10
0.7925274323816698
 20
0.0065120835147034
 30
0.0
 40
0.0416329381542859
100
AcDbArc
 50
26.56974201007528
 51
87.20939649401342
  0
LWPOLYLINE
  5
30F
330
18
100
AcDbEntity
  8
TEXT
100
AcDbPolyline
 90
        2
 70
     0
 43
0.0
 10
0.8774539883388179
 20
-0.174886437402467
 42
-0.2901071551932486
 10
0.8343780554711734
 20
-0.2183773823529052
 42
-5.328517124445184
  0
LWPOLYLINE
  5
310
330
18
100
AcDbEntity
  8
TEXT
100
AcDbPolyline
 90
        2
 70
     0
 43
0.0
 10
0.8774539883388179
 20
-0.174886437402467
 10
0.8774539883388179
 20
-0.2183773823529052
  0
LWPOLYLINE
  5
311
330
18
100
AcDbEntity
  8
TEXT
100
AcDbPolyline
 90
        2
 70
     0
 43
0.0
 10
0.8774539883388179
 20
-0.2183773823529052
 10
0.9358092021741519
 20
-0.2183773823529052
  0
LWPOLYLINE
  5
312
330
18
100
AcDbEntity
  8
TEXT
100
AcDbPolyline
 90
        2
 70
     0
 43
0.0
 10
0.6572847049721613
 20
-0.174886437402467
 42
0.2901071551932823
 10
0.7003606378397969
 20
-0.2183773823529052
 42
5.328517124445801
  0
LWPOLYLINE
  5
313
330
18
100
AcDbEntity
  8
TEXT
100
AcDbPolyline
 90
        2
 70
     0
 43
0.0
 10
0.7003606378397969
 20
-0.2183773823529052
 10
0.8343780554711734
 20
-0.2183773823529052
 42
0.9999999999999998
  0
LWPOLYLINE
  5
314
330
18
100
AcDbEntity
  8
TEXT
100
AcDbPolyline
 90
        4
 70
     1
 43
0.0
 10
0.8142555904012809
 20
-0.1154134043688799
 10
0.7255952717414225
 20
-0.1154134043688799
 42
0.9999999999999998
 10
0.7255952717414225
 20
-0.1578119448727406
 10
0.8142555904012809
 20
-0.1578119448727406
 42
1.0
  0
ARC
  5
315
330
18
100
AcDbEntity
  8
TEXT
100
AcDbCircle
 10
0.719036559334997
 20
-0.1211415986274105
 30
0.0
 40
0.0676855811441166
100
AcDbArc
 50
90.0
 51
153.7768192527749
  0
LINE
  5
316
330
18
100
AcDbEntity
  8
TEXT
100
AcDbLine
 10
0.9358092021741528
 20
-0.2183773823529052
 30
0.0
 11
0.9358092021741475
 21
-0.0410868769214368
 31
0.0
  0
LINE
  5
317
330
18
100
AcDbEntity
  8
TEXT
100
AcDbLine
 10
0.6583172004269704
 20
-0.0161810440211596
 30
0.0
 11
0.6583172004269704
 21
-0.0912334500953662
 31
0.0
  0
LINE
  5
318
330
18
100
AcDbEntity
  8
TEXT
100
AcDbLine
 10
0.960715077456812
 20
-0.0161810440211596
 30
0.0
 11
1.037363058749369
 21
-0.0161810440211596
 31
0.0
  0
LINE
  5
319
330
18
100
AcDbEntity
  8
TEXT
100
AcDbLine
 10
1.032883171422869
 20
0.0480956506356058
 30
0.0
 11
0.9653834537733532
 21
0.0480956506356058
 31
0.0
  0
LWPOLYLINE
  5
31A
330
18
100
AcDbEntity
  8
TEXT
100
AcDbPolyline
 90
        2
 70
     0
 43
0.0
 10
0.4525071996492862
 20
-0.0161810440211596
 42
-0.4142135623731017
 10
0.4600609888153997
 20
-0.0237348331872696
 42
-0.9999999999999998
  0
LWPOLYLINE
  5
31B
330
18
100
AcDbEntity
  8
TEXT
100
AcDbPolyline
 90
        2
 70
     0
 43
0.0
 10
0.58125263251819
 20
-0.0161810440211596
 42
-0.4142135623731017
 10
0.5888064216843035
 20
-0.0237348331872696
 42
-0.9999999999999998
  0
LWPOLYLINE
  5
31C
330
18
100
AcDbEntity
  8
TEXT
100
AcDbPolyline
 90
        2
 70
     0
 43
0.0
 10
0.4698589226993076
 20
0.0480956506356094
 42
-0.3328679258950098
 10
0.5056406134124689
 20
0.0209281538747135
 42
6.772930709997214
  0
LWPOLYLINE
  5
31D
330
18
100
AcDbEntity
  8
TEXT
100
AcDbPolyline
 90
        3
 70
     0
 43
0.0
 10
0.6239407722285133
 20
0.0480956506356094
 10
0.5056406134124689
 20
0.0480956506356094
 10
0.5056406134124689
 20
0.0209281538747135
 42
-1.960274751411753
  0
LINE
  5
31E
330
18
100
AcDbEntity
  8
TEXT
100
AcDbLine
 10
0.5271190355972406
 20
-0.0161810440211596
 30
0.0
 11
0.5812526325181909
 21
-0.0161810440211596
 31
0.0
  0
LINE
  5
31F
330
18
100
AcDbEntity
  8
TEXT
100
AcDbLine
 10
0.4026719198261395
 20
-0.0161810440211596
 30
0.0
 11
0.4525071996492871
 21
-0.0161810440211596
 31
0.0
  0
LINE
  5
320
330
18
100
AcDbEntity
  8
TEXT
100
AcDbLine
 10
0.4698589226993067
 20
0.0480956506356058
 30
0.0
 11
0.3358408667681703
 21
0.0480956506356058
 31
0.0
  0
LINE
  5
321
330
18
100
AcDbEntity
  8
TEXT
100
AcDbLine
 10
0.4600609888154006
 20
-0.2183773823529052
 30
0.0
 11
0.5271190355972406
 21
-0.2183773823529052
 31
0.0
  0
LINE
  5
322
330
18
100
AcDbEntity
  8
TEXT
100
AcDbLine
 10
0.3046685861267049
 20
-0.2183773823529052
 30
0.0
 11
0.4026719198261395
 21
-0.2183773823529052
 31
0.0
  0
LINE
  5
323
330
18
100
AcDbEntity
  8
TEXT
100
AcDbLine
 10
0.3358408667681703
 20
-0.1527685560968024
 30
0.0
 11
0.3188472298835689
 21
-0.1527685560968024
 31
0.0
  0
ARC
  5
324
330
18
100
AcDbEntity
  8
TEXT
100
AcDbCircle
 10
0.3188472298835681
 20
-0.1373867498533769
 30
0.0
 40
0.0153818062434269
100
AcDbArc
 50
174.7883570302258
 51
270.0
  0
LINE
  5
325
330
18
100
AcDbEntity
  8
TEXT
100
AcDbLine
 10
0.4026719198261395
 20
-0.2183773823529052
 30
0.0
 11
0.4026719198261395
 21
-0.0161810440211596
 31
0.0
  0
LINE
  5
326
330
18
100
AcDbEntity
  8
TEXT
100
AcDbLine
 10
0.4600609888154006
 20
-0.0237348331872696
 30
0.0
 11
0.4600609888154006
 21
-0.2183773823529052
 31
0.0
  0
LINE
  5
327
330
18
100
AcDbEntity
  8
TEXT
100
AcDbLine
 10
0.5271190355972406
 20
-0.2183773823529052
 30
0.0
 11
0.5271190355972406
 21
-0.0161810440211596
 31
0.0
  0
LINE
  5
328
330
18
100
AcDbEntity
  8
TEXT
100
AcDbLine
 10
0.3358408667681703
 20
0.0480956506356058
 30
0.0
 11
0.3358408667681703
 21
-0.1527685560968024
 31
0.0
  0
LINE
  5
329
330
18
100
AcDbEntity
  8
TEXT
100
AcDbLine
 10
0.3035290126305101
 20
-0.1359895442499059
 30
0.0
 11
0.3035290126305101
 21
0.1161071283744164
 31
0.0
  0
LINE
  5
32A
330
18
100
AcDbEntity
  8
TEXT
100
AcDbLine
 10
0.2367203000641451
 20
0.1161071283744164
 30
0.0
 11
0.2367203000641451
 21
0.0480956506356058
 31
0.0
  0
LINE
  5
32B
330
18
100
AcDbEntity
  8
TEXT
100
AcDbLine
 10
0.2367203000641451
 20
0.0480956506356058
 30
0.0
 11
0.2065983872707688
 21
0.0480956506356058
 31
0.0
  0
LINE
  5
32C
330
18
100
AcDbEntity
  8
TEXT
100
AcDbLine
 10
0.2065983872707688
 20
0.0480956506356058
 30
0.0
 11
0.1478498244649034
 21
-0.0527763454775148
 31
0.0
  0
LINE
  5
32D
330
18
100
AcDbEntity
  8
TEXT
100
AcDbLine
 10
0.1478498244649034
 20
-0.0527763454775148
 30
0.0
 11
0.0892195034329655
 21
0.0480956506356058
 31
0.0
  0
LINE
  5
32E
330
18
100
AcDbEntity
  8
TEXT
100
AcDbLine
 10
0.0174205372890581
 20
0.0480956506356058
 30
0.0
 11
0.0174205372890581
 21
0.082483568229744
 31
0.0
  0
LINE
  5
32F
330
18
100
AcDbEntity
  8
TEXT
100
AcDbLine
 10
0.0174205372890581
 20
0.082483568229744
 30
0.0
 11
-0.0426220675549489
 21
0.082483568229744
 31
0.0
  0
LINE
  5
330
330
18
100
AcDbEntity
  8
TEXT
100
AcDbLine
 10
-0.0426220675549489
 20
0.082483568229744
 30
0.0
 11
-0.0426220675549489
 21
0.0480956506356058
 31
0.0
  0
LINE
  5
331
330
18
100
AcDbEntity
  8
TEXT
100
AcDbLine
 10
0.0892195034329655
 20
0.0480956506356058
 30
0.0
 11
0.0174205372890581
 21
0.0480956506356058
 31
0.0
  0
ARC
  5
332
330
18
100
AcDbEntity
  8
TEXT
100
AcDbCircle
 10
0.104206027555735
 20
-0.1788296600792094
 30
0.0
 40
0.0392772371940762
100
AcDbArc
 50
270.1604552698595
 51
330.0831797321295
  0
ARC
  5
333
330
18
100
AcDbEntity
  8
TEXT
100
AcDbCircle
 10
0.0139051816635103
 20
-0.1585849910148553
 30
0.0
 40
0.0601160179737537
100
AcDbArc
 50
180.0000000000003
 51
264.0521544866073
  0
LINE
  5
334
330
18
100
AcDbEntity
  8
TEXT
100
AcDbLine
 10
0.0076757711698638
 20
-0.2183773823529052
 30
0.0
 11
0.1043160222448582
 21
-0.2181067432546229
 31
0.0
  0
LWPOLYLINE
  5
335
330
18
100
AcDbEntity
  8
TEXT
100
AcDbPolyline
 90
        6
 70
     1
 43
0.0
 10
0.0501995747450135
 20
-0.0161810440211596
 10
0.0198829805248053
 20
-0.0161810440211596
 10
0.0198829805248053
 20
-0.1392920420760539
 42
0.407328721240804
 10
0.0314266316862817
 20
-0.15111095675244
 10
0.0920483307310125
 20
-0.15111095675244
 10
0.1095136711383304
 20
-0.1182987277089609
  0
LINE
  5
336
330
18
100
AcDbEntity
  8
TEXT
100
AcDbLine
 10
-0.0462108363102418
 20
-0.0161810440211596
 30
0.0
 11
-0.0462108363102418
 21
-0.1585849910148553
 31
0.0
  0
LINE
  5
337
330
18
100
AcDbEntity
  8
TEXT
100
AcDbLine
 10
0.138249587467949
 20
-0.1984188762478922
 30
0.0
 11
0.2355492935613936
 21
-0.0340686653126241
 31
0.0
  0
LINE
  5
338
330
18
100
AcDbEntity
  8
TEXT
100
AcDbLine
 10
0.2355492935613936
 20
-0.0340686653126241
 30
0.0
 11
0.2355492935613936
 21
-0.1668260401379804
 31
0.0
  0
LWPOLYLINE
  5
339
330
18
100
AcDbEntity
  8
TEXT
100
AcDbPolyline
 90
        2
 70
     0
 43
0.0
 10
0.2355492935613928
 20
-0.1668260401379769
 42
0.3318488747599744
 10
0.3046685861267058
 20
-0.2183773823529052
 42
-6.868794160588311
  0
LINE
  5
33A
330
18
100
AcDbEntity
  8
TEXT
100
AcDbLine
 10
0.3035290126305101
 20
0.1161071283744164
 30
0.0
 11
0.2367203000641451
 21
0.1161071283744164
 31
0.0
  0
LWPOLYLINE
  5
33B
330
18
100
AcDbEntity
  8
TEXT
100
AcDbPolyline
 90
        4
 70
     0
 43
0.0
 10
0.5888064216843035
 20
-0.0237348331872696
 10
0.5888064216843035
 20
-0.2183773823529052
 10
0.6572847049721613
 20
-0.2183773823529052
 10
0.6572847049721613
 20
-0.174886437402467
 42
-1.714843617202739
  0
LWPOLYLINE
  5
33C
330
18
100
AcDbEntity
  8
TEXT
100
AcDbPolyline
 90
        2
 70
     0
 43
0.0
 10
0.6239407722285133
 20
0.0480956506356094
 42
-0.3277054968067132
 10
0.6597224629416783
 20
0.0197731048659655
 42
6.667889725900311
  0
TEXT
  5
33D
330
18
100
AcDbEntity
  8
TEXT
100
AcDbText
 10
1.40628673675507
 20
-0.1254915737074089
 30
0.0
 40
0.0522247191011236
  1
Minneapolis, MN 55432-0008
 41
1.11444212721585
 72
     5
 11
2.735219321024734
 21
-0.1254915737074089
 31
0.0
100
AcDbText
  0
TEXT
  5
33E
330
18
100
AcDbEntity
  8
TEXT
100
AcDbText
 10
1.40628673675507
 20
-0.0322331467411168
 30
0.0
 40
0.0522247191011236
  1
6536 Main St. N.E. * P.O. Box 32008
 41
0.8388932496075353
 72
     5
 11
2.735219321024734
 21
-0.0322331467411168
 31
0.0
100
AcDbText
  0
TEXT
  5
33F
330
18
100
AcDbEntity
  8
TEXT
100
AcDbText
 10
1.40628673675507
 20
0.0610252802251754
 30
0.0
 40
0.0522247191011236
  1
Stylmark  Incorporated
 41
1.221428571428571
 72
     5
 11
2.735219321024734
 21
0.0610252802251754
 31
0.0
100
AcDbText
  0
TEXT
  5
340
330
18
100
AcDbEntity
  8
TEXT
100
AcDbText
 10
1.40628673675507
 20
-0.2187500006737011
 30
0.0
 40
0.0522247191011236
  1
Phone  1-800-328-2495
 41
1.272321428571429
 72
     5
 11
2.735219321024734
 21
-0.2187500006737011
 31
0.0
100
AcDbText
  0
LINE
  5
341
330
18
100
AcDbEntity
  8
TEXT
100
AcDbLine
 10
-0.1475163540949111
 20
-0.0519857656317875
 30
0.0
 11
-0.2131164903392122
 21
-0.0519857656317875
 31
0.0
  0
ARC
  5
342
330
18
100
AcDbEntity
  8
TEXT
100
AcDbCircle
 10
-0.2131164903392122
 20
-0.0340834048264718
 30
0.0
 40
0.017902360805315
100
AcDbArc
 50
90.0
 51
270.0
  0
LINE
  5
343
330
18
100
AcDbEntity
  8
TEXT
100
AcDbLine
 10
-0.2183538204534603
 20
-0.1160792682574012
 30
0.0
 11
-0.1425759801886315
 21
-0.1160792682574012
 31
0.0
  0
LINE
  5
344
330
18
100
AcDbEntity
  8
TEXT
100
AcDbLine
 10
-0.1425759801886315
 20
-0.1500203760194658
 30
0.0
 11
-0.3004412798999656
 21
-0.1500203760194658
 31
0.0
  0
LINE
  5
345
330
18
100
AcDbEntity
  8
TEXT
100
AcDbLine
 10
-0.3004412798999638
 20
-0.2183773823529052
 30
0.0
 11
-0.1475163540949111
 21
-0.2183773823529052
 31
0.0
  0
ARC
  5
346
330
18
100
AcDbEntity
  8
TEXT
100
AcDbCircle
 10
-0.2183538204534603
 20
-0.0339918088108959
 30
0.0
 40
0.0820874594465043
100
AcDbArc
 50
90.0
 51
270.0
  0
LINE
  5
347
330
18
100
AcDbEntity
  8
TEXT
100
AcDbLine
 10
-0.0426220675549489
 20
0.0480956506356058
 30
0.0
 11
-0.2183538204534603
 21
0.0480956506356058
 31
0.0
  0
ARC
  5
348
330
18
100
AcDbEntity
  8
TEXT
100
AcDbCircle
 10
-0.1425759801886315
 20
-0.1330498221384317
 30
0.0
 40
0.0169705538810321
100
AcDbArc
 50
270.0
 51
90.0
  0
ARC
  5
349
330
18
100
AcDbEntity
  8
TEXT
100
AcDbCircle
 10
-0.1475163540949111
 20
-0.1351815739923481
 30
0.0
 40
0.0831958083605586
100
AcDbArc
 50
270.0
 51
90.0
  0
LINE
  5
34A
330
18
100
AcDbEntity
  8
TEXT
100
AcDbLine
 10
-0.2131164903392122
 20
-0.0161810440211596
 30
0.0
 11
-0.0462108363102418
 21
-0.0161810440211596
 31
0.0
  0
LWPOLYLINE
  5
34B
330
18
100
AcDbEntity
  8
TEXT
100
AcDbPolyline
 90
        2
 70
     0
 43
0.0006660908203125
 10
-0.509874259999739
 20
-0.0651397888175183
 10
-0.483230627187238
 20
-0.0651397888175183
  0
LINE
  5
34C
330
18
100
AcDbEntity
  8
TEXT
100
AcDbLine
 10
-0.3004412798999656
 20
-0.1500203760194658
 30
0.0
 11
-0.3004412798999638
 21
-0.2183773823529052
 31
0.0
  0
LWPOLYLINE
  5
34D
330
18
100
AcDbEntity
  8
TEXT
100
AcDbPolyline
 90
        2
 70
     0
 43
0.0006660908203125
 10
-0.509874259999739
 20
-0.1051052380362663
 10
-0.483230627187238
 20
-0.1051052380362663
  0
LWPOLYLINE
  5
34E
330
18
100
AcDbEntity
  8
TEXT
100
AcDbPolyline
 90
        2
 70
     0
 43
0.0001332181640625
 10
-0.5964660666403639
 20
0.0480956506356094
 10
-0.6064574289450527
 20
-0.0251743395987703
  0
LWPOLYLINE
  5
34F
330
18
100
AcDbEntity
  8
TEXT
100
AcDbPolyline
 90
        2
 70
     0
 43
0.0001332181640625
 10
-0.5964660666403639
 20
0.0214520178231084
 10
-0.6064574289450527
 20
-0.0384961560050172
  0
LWPOLYLINE
  5
350
330
18
100
AcDbEntity
  8
TEXT
100
AcDbPolyline
 90
        2
 70
     0
 43
0.0006660908203125
 10
-0.5964660666403639
 20
0.0214520178231084
 10
-0.5964660666403639
 20
0.0480956506356094
  0
LWPOLYLINE
  5
351
330
18
100
AcDbEntity
  8
TEXT
100
AcDbPolyline
 90
        5
 70
     0
 43
0.0001332181640625
 10
-0.6064574289450527
 20
-0.0251743395987703
 10
-0.6064574289450527
 20
-0.0384961560050172
 10
-0.5698224338278628
 20
-0.0384961560050172
 10
-0.5698224338278628
 20
-0.075131151122207
 10
-0.5565006174216141
 20
-0.075131151122207
  0
LWPOLYLINE
  5
352
330
18
100
AcDbEntity
  8
TEXT
100
AcDbPolyline
 90
        2
 70
     0
 43
0.0001332181640625
 10
-0.6364315158591154
 20
0.0214520178231084
 10
-0.6264401535544249
 20
-0.0384961560050172
  0
LWPOLYLINE
  5
353
330
18
100
AcDbEntity
  8
TEXT
100
AcDbPolyline
 90
        2
 70
     0
 43
0.0001332181640625
 10
-0.6264401535544249
 20
-0.0251743395987703
 10
-0.6364315158591154
 20
0.0480956506356094
  0
LWPOLYLINE
  5
354
330
18
100
AcDbEntity
  8
TEXT
100
AcDbPolyline
 90
        2
 70
     0
 43
0.0006660908203125
 10
-0.6364315158591154
 20
0.0214520178231084
 10
-0.6364315158591154
 20
0.0480956506356094
  0
LWPOLYLINE
  5
355
330
18
100
AcDbEntity
  8
TEXT
100
AcDbPolyline
 90
        5
 70
     0
 43
0.0001332181640625
 10
-0.6763969650778634
 20
-0.075131151122207
 10
-0.6630751486716147
 20
-0.075131151122207
 10
-0.6630751486716147
 20
-0.0384961560050172
 10
-0.6264401535544249
 20
-0.0384961560050172
 10
-0.6264401535544249
 20
-0.0251743395987703
  0
LWPOLYLINE
  5
356
330
18
100
AcDbEntity
  8
TEXT
100
AcDbPolyline
 90
        2
 70
     0
 43
0.0006660908203125
 10
-0.7230233224997403
 20
-0.0651397888175183
 10
-0.7496669553122377
 20
-0.0651397888175183
  0
LWPOLYLINE
  5
357
330
18
100
AcDbEntity
  8
TEXT
100
AcDbPolyline
 90
        2
 70
     0
 43
0.0001332181640625
 10
-0.7496669553122377
 20
-0.0651397888175183
 10
-0.6763969650778634
 20
-0.075131151122207
  0
LWPOLYLINE
  5
358
330
18
100
AcDbEntity
  8
TEXT
100
AcDbPolyline
 90
        2
 70
     0
 43
0.0001332181640625
 10
-0.7230233224997403
 20
-0.0651397888175183
 10
-0.6630751486716147
 20
-0.075131151122207
  0
LWPOLYLINE
  5
359
330
18
100
AcDbEntity
  8
TEXT
100
AcDbPolyline
 90
        2
 70
     0
 43
0.0001332181640625
 10
-0.7230233224997403
 20
0.0214520178231084
 10
-0.6630751486716147
 20
-0.0384961560050172
  0
LWPOLYLINE
  5
35A
330
18
100
AcDbEntity
  8
TEXT
100
AcDbPolyline
 90
        3
 70
     0
 43
0.0006660908203125
 10
-0.6364315158591154
 20
0.0214520178231084
 10
-0.7230233224997403
 20
0.0214520178231084
 10
-0.7230233224997403
 20
-0.0651397888175183
  0
LWPOLYLINE
  5
35B
330
18
100
AcDbEntity
  8
TEXT
100
AcDbPolyline
 90
        3
 70
     0
 43
0.0006660908203125
 10
-0.6364315158591154
 20
0.0480956506356094
 10
-0.7496669553122377
 20
0.0480956506356094
 10
-0.7496669553122377
 20
-0.0651397888175183
  0
LWPOLYLINE
  5
35C
330
18
100
AcDbEntity
  8
TEXT
100
AcDbPolyline
 90
        5
 70
     0
 43
0.0001332181640625
 10
-0.5565006174216141
 20
-0.0951138757315811
 10
-0.5698224338278628
 20
-0.0951138757315811
 10
-0.5698224338278628
 20
-0.1317488708487673
 10
-0.6064574289450527
 20
-0.1317488708487673
 10
-0.6064574289450527
 20
-0.1450706872550178
  0
LWPOLYLINE
  5
35D
330
18
100
AcDbEntity
  8
TEXT
100
AcDbPolyline
 90
        2
 70
     0
 43
0.0006660908203125
 10
-0.5964660666403639
 20
-0.1916970446768928
 10
-0.5964660666403639
 20
-0.2183406774893939
  0
LWPOLYLINE
  5
35E
330
18
100
AcDbEntity
  8
TEXT
100
AcDbPolyline
 90
        2
 70
     0
 43
0.0001332181640625
 10
-0.6064574289450527
 20
-0.1450706872550178
 10
-0.5964660666403639
 20
-0.2183406774893939
  0
LWPOLYLINE
  5
35F
330
18
100
AcDbEntity
  8
TEXT
100
AcDbPolyline
 90
        2
 70
     0
 43
0.0001332181640625
 10
-0.5964660666403639
 20
-0.1916970446768928
 10
-0.6064574289450527
 20
-0.1317488708487673
  0
LWPOLYLINE
  5
360
330
18
100
AcDbEntity
  8
TEXT
100
AcDbPolyline
 90
        2
 70
     0
 43
0.0001332181640625
 10
-0.6364315158591154
 20
-0.2183406774893939
 10
-0.6264401535544249
 20
-0.1450706872550178
  0
LWPOLYLINE
  5
361
330
18
100
AcDbEntity
  8
TEXT
100
AcDbPolyline
 90
        2
 70
     0
 43
0.0001332181640625
 10
-0.6364315158591154
 20
-0.1916970446768928
 10
-0.6264401535544249
 20
-0.1317488708487673
  0
LWPOLYLINE
  5
362
330
18
100
AcDbEntity
  8
TEXT
100
AcDbPolyline
 90
        2
 70
     0
 43
0.0006660908203125
 10
-0.6364315158591154
 20
-0.1916970446768928
 10
-0.6364315158591154
 20
-0.2183406774893939
  0
LWPOLYLINE
  5
363
330
18
100
AcDbEntity
  8
TEXT
100
AcDbPolyline
 90
        5
 70
     0
 43
0.0001332181640625
 10
-0.6264401535544249
 20
-0.1450706872550178
 10
-0.6264401535544249
 20
-0.1317488708487673
 10
-0.6630751486716129
 20
-0.1317488708487673
 10
-0.6630751486716129
 20
-0.0951138757315811
 10
-0.6763969650778634
 20
-0.0951138757315811
  0
LWPOLYLINE
  5
364
330
18
100
AcDbEntity
  8
TEXT
100
AcDbPolyline
 90
        2
 70
     0
 43
0.0006660908203125
 10
-0.7230233224997403
 20
-0.1051052380362663
 10
-0.7496669553122377
 20
-0.1051052380362663
  0
LWPOLYLINE
  5
365
330
18
100
AcDbEntity
  8
TEXT
100
AcDbPolyline
 90
        2
 70
     0
 43
0.0001332181640625
 10
-0.7230233224997403
 20
-0.1916970446768928
 10
-0.6630751486716129
 20
-0.1317488708487673
  0
LWPOLYLINE
  5
366
330
18
100
AcDbEntity
  8
TEXT
100
AcDbPolyline
 90
        2
 70
     0
 43
0.0001332181640625
 10
-0.7230233224997403
 20
-0.1051052380362663
 10
-0.6630751486716129
 20
-0.0951138757315811
  0
LWPOLYLINE
  5
367
330
18
100
AcDbEntity
  8
TEXT
100
AcDbPolyline
 90
        2
 70
     0
 43
0.0001332181640625
 10
-0.6763969650778634
 20
-0.0951138757315811
 10
-0.7496669553122377
 20
-0.1051052380362663
  0
LWPOLYLINE
  5
368
330
18
100
AcDbEntity
  8
TEXT
100
AcDbPolyline
 90
        3
 70
     0
 43
0.0006660908203125
 10
-0.7230233224997403
 20
-0.1051052380362663
 10
-0.7230233224997403
 20
-0.1916970446768928
 10
-0.6364315158591154
 20
-0.1916970446768928
  0
LWPOLYLINE
  5
369
330
18
100
AcDbEntity
  8
TEXT
100
AcDbPolyline
 90
        3
 70
     0
 43
0.0006660908203125
 10
-0.7496669553122377
 20
-0.1051052380362663
 10
-0.7496669553122377
 20
-0.2183406774893939
 10
-0.6364315158591154
 20
-0.2183406774893939
  0
LWPOLYLINE
  5
36A
330
18
100
AcDbEntity
  8
TEXT
100
AcDbPolyline
 90
        3
 70
     0
 43
0.0006660908203125
 10
-0.5964660666403639
 20
-0.2183406774893939
 10
-0.483230627187238
 20
-0.2183406774893939
 10
-0.483230627187238
 20
-0.1051052380362663
  0
LWPOLYLINE
  5
36B
330
18
100
AcDbEntity
  8
TEXT
100
AcDbPolyline
 90
        3
 70
     0
 43
0.0006660908203125
 10
-0.5964660666403639
 20
-0.1916970446768928
 10
-0.509874259999739
 20
-0.1916970446768928
 10
-0.509874259999739
 20
-0.1051052380362663
  0
LWPOLYLINE
  5
36C
330
18
100
AcDbEntity
  8
TEXT
100
AcDbPolyline
 90
        2
 70
     0
 43
0.0001332181640625
 10
-0.509874259999739
 20
-0.1916970446768928
 10
-0.5698224338278628
 20
-0.1317488708487673
  0
LWPOLYLINE
  5
36D
330
18
100
AcDbEntity
  8
TEXT
100
AcDbPolyline
 90
        2
 70
     0
 43
0.0001332181640625
 10
-0.509874259999739
 20
-0.1051052380362663
 10
-0.5698224338278628
 20
-0.0951138757315811
  0
LWPOLYLINE
  5
36E
330
18
100
AcDbEntity
  8
TEXT
100
AcDbPolyline
 90
        2
 70
     0
 43
0.0001332181640625
 10
-0.483230627187238
 20
-0.1051052380362663
 10
-0.5565006174216141
 20
-0.0951138757315811
  0
LWPOLYLINE
  5
36F
330
18
100
AcDbEntity
  8
TEXT
100
AcDbPolyline
 90
        2
 70
     0
 43
0.0001332181640625
 10
-0.509874259999739
 20
0.0214520178231084
 10
-0.5698224338278628
 20
-0.0384961560050172
  0
LWPOLYLINE
  5
370
330
18
100
AcDbEntity
  8
TEXT
100
AcDbPolyline
 90
        2
 70
     0
 43
0.0001332181640625
 10
-0.509874259999739
 20
-0.0651397888175183
 10
-0.5698224338278628
 20
-0.075131151122207
  0
LWPOLYLINE
  5
371
330
18
100
AcDbEntity
  8
TEXT
100
AcDbPolyline
 90
        2
 70
     0
 43
0.0001332181640625
 10
-0.5565006174216141
 20
-0.075131151122207
 10
-0.483230627187238
 20
-0.0651397888175183
  0
LWPOLYLINE
  5
372
330
18
100
AcDbEntity
  8
TEXT
100
AcDbPolyline
 90
        3
 70
     0
 43
0.0006660908203125
 10
-0.509874259999739
 20
-0.0651397888175183
 10
-0.509874259999739
 20
0.0214520178231084
 10
-0.5964660666403639
 20
0.0214520178231084
  0
LWPOLYLINE
  5
373
330
18
100
AcDbEntity
  8
TEXT
100
AcDbPolyline
 90
        3
 70
     0
 43
0.0006660908203125
 10
-0.483230627187238
 20
-0.0651397888175183
 10
-0.483230627187238
 20
0.0480956506356094
 10
-0.5964660666403639
 20
0.0480956506356094
  0
ENDSEC
  0
SECTION
  2
OBJECTS
  0
DICTIONARY
  5
C
330
0
100
AcDbDictionary
  3
ACAD_GROUP
350
D
  3
ACAD_LAYOUT
350
378
  3
ACAD_MLINESTYLE
350
E
  3
ACAD_PLOTSETTINGS
350
379
  3
ACAD_PLOTSTYLENAME
350
376
  3
ACDBHEADERROUNDTRIPXREC
350
384
  3
ACDBVARIABLEDICTIONARY
350
381
  0
DICTIONARY
  5
3A6
330
18
100
AcDbDictionary
280
     1
  3
ACAD_LAYOUTSELFREF
360
3A7
  0
DICTIONARY
  5
3A4
330
15
100
AcDbDictionary
280
     1
  3
ACAD_LAYOUTSELFREF
360
3A5
  0
DICTIONARY
  5
D
102
{ACAD_REACTORS
330
C
102
}
330
C
100
AcDbDictionary
  0
DICTIONARY
  5
378
102
{ACAD_REACTORS
330
C
102
}
330
C
100
AcDbDictionary
  0
DICTIONARY
  5
E
102
{ACAD_REACTORS
330
C
102
}
330
C
100
AcDbDictionary
  3
STANDARD
350
1B
  0
DICTIONARY
  5
379
102
{ACAD_REACTORS
330
C
102
}
330
C
100
AcDbDictionary
  0
ACDBDICTIONARYWDFLT
  5
376
102
{ACAD_REACTORS
330
C
102
}
330
C
100
AcDbDictionary
281
     1
  3
Normal
350
377
100
AcDbDictionaryWithDefault
340
377
  0
DICTIONARY
  5
384
102
{ACAD_REACTORS
330
C
102
}
330
C
100
AcDbDictionary
  3
CEPSNTYPE
350
38E
  3
FINGERPRINTGUID
350
38F
  3
HYPERLINKBASE
350
387
  3
INSUNITS
350
38D
  3
LAYOUTDICT
350
389
  3
LWETCUNION
350
38C
  3
PLOTSETDICT
350
38A
  3
PLOTSTYLNAMDICT
350
38B
  3
PSVPSCALE
350
391
  3
PUCSBASE
350
394
  3
PUCSORGBACK
350
39A
  3
PUCSORGBOTTOM
350
396
  3
PUCSORGFRONT
350
399
  3
PUCSORGLEFT
350
397
  3
PUCSORGRIGHT
350
398
  3
PUCSORGTOP
350
395
  3
PUCSORTHOREF
350
392
  3
PUCSORTHOVIEW
350
393
  3
STYLESHEET
350
388
  3
TSTACKALIGN
350
385
  3
TSTACKSIZE
350
386
  3
UCSBASE
350
39D
  3
UCSORGBACK
350
3A3
  3
UCSORGBOTTOM
350
39F
  3
UCSORGFRONT
350
3A2
  3
UCSORGLEFT
350
3A0
  3
UCSORGRIGHT
350
3A1
  3
UCSORGTOP
350
39E
  3
UCSORTHOREF
350
39B
  3
UCSORTHOVIEW
350
39C
  3
VERSIONGUID
350
390
  0
DICTIONARY
  5
381
102
{ACAD_REACTORS
330
C
102
}
330
C
100
AcDbDictionary
  3
DIMASSOC
350
382
  0
XRECORD
  5
3A7
102
{ACAD_REACTORS
330
3A6
102
}
330
3A6
100
AcDbXrecord
340
18
  0
XRECORD
  5
3A5
102
{ACAD_REACTORS
330
3A4
102
}
330
3A4
100
AcDbXrecord
340
15
  0
MLINESTYLE
  5
1B
102
{ACAD_REACTORS
330
E
102
}
330
E
100
AcDbMlineStyle
  2
STANDARD
 70
     0
  3

 62
     0
 51
90.0
 52
90.0
 71
     2
 49
0.5
 62
   256
  6
BYLAYER
 49
-0.5
 62
   256
  6
BYLAYER
  0
ACDBPLACEHOLDER
  5
377
102
{ACAD_REACTORS
330
376
102
}
330
376
100
AcDbPlaceHolder
280
     0
  0
XRECORD
  5
38E
102
{ACAD_REACTORS
330
384
102
}
330
384
100
AcDbXrecord
 90
        0
  0
XRECORD
  5
38F
102
{ACAD_REACTORS
330
384
102
}
330
384
100
AcDbXrecord
  1
{5E1C4EB0-8DB4-11D6-88E6-0090279574E7}
  0
XRECORD
  5
387
102
{ACAD_REACTORS
330
384
102
}
330
384
100
AcDbXrecord
  1

  0
XRECORD
  5
38D
102
{ACAD_REACTORS
330
384
102
}
330
384
100
AcDbXrecord
 90
        0
  0
XRECORD
  5
389
102
{ACAD_REACTORS
330
384
102
}
330
384
100
AcDbXrecord
340
378
  0
XRECORD
  5
38C
102
{ACAD_REACTORS
330
384
102
}
330
384
100
AcDbXrecord
 90
    14877
  0
XRECORD
  5
38A
102
{ACAD_REACTORS
330
384
102
}
330
384
100
AcDbXrecord
340
379
  0
XRECORD
  5
38B
102
{ACAD_REACTORS
330
384
102
}
330
384
100
AcDbXrecord
340
376
  0
XRECORD
  5
391
102
{ACAD_REACTORS
330
384
102
}
330
384
100
AcDbXrecord
 40
0.0
  0
XRECORD
  5
394
102
{ACAD_REACTORS
330
384
102
}
330
384
100
AcDbXrecord
340
0
  0
XRECORD
  5
39A
102
{ACAD_REACTORS
330
384
102
}
330
384
100
AcDbXrecord
 10
0.0
 20
0.0
 30
0.0
  0
XRECORD
  5
396
102
{ACAD_REACTORS
330
384
102
}
330
384
100
AcDbXrecord
 10
0.0
 20
0.0
 30
0.0
  0
XRECORD
  5
399
102
{ACAD_REACTORS
330
384
102
}
330
384
100
AcDbXrecord
 10
0.0
 20
0.0
 30
0.0
  0
XRECORD
  5
397
102
{ACAD_REACTORS
330
384
102
}
330
384
100
AcDbXrecord
 10
0.0
 20
0.0
 30
0.0
  0
XRECORD
  5
398
102
{ACAD_REACTORS
330
384
102
}
330
384
100
AcDbXrecord
 10
0.0
 20
0.0
 30
0.0
  0
XRECORD
  5
395
102
{ACAD_REACTORS
330
384
102
}
330
384
100
AcDbXrecord
 10
0.0
 20
0.0
 30
0.0
  0
XRECORD
  5
392
102
{ACAD_REACTORS
330
384
102
}
330
384
100
AcDbXrecord
340
0
  0
XRECORD
  5
393
102
{ACAD_REACTORS
330
384
102
}
330
384
100
AcDbXrecord
 70
     0
  0
XRECORD
  5
388
102
{ACAD_REACTORS
330
384
102
}
330
384
100
AcDbXrecord
  1

  0
XRECORD
  5
385
102
{ACAD_REACTORS
330
384
102
}
330
384
100
AcDbXrecord
 90
        1
  0
XRECORD
  5
386
102
{ACAD_REACTORS
330
384
102
}
330
384
100
AcDbXrecord
 90
       70
  0
XRECORD
  5
39D
102
{ACAD_REACTORS
330
384
102
}
330
384
100
AcDbXrecord
340
0
  0
XRECORD
  5
3A3
102
{ACAD_REACTORS
330
384
102
}
330
384
100
AcDbXrecord
 10
0.0
 20
0.0
 30
0.0
  0
XRECORD
  5
39F
102
{ACAD_REACTORS
330
384
102
}
330
384
100
AcDbXrecord
 10
0.0
 20
0.0
 30
0.0
  0
XRECORD
  5
3A2
102
{ACAD_REACTORS
330
384
102
}
330
384
100
AcDbXrecord
 10
0.0
 20
0.0
 30
0.0
  0
XRECORD
  5
3A0
102
{ACAD_REACTORS
330
384
102
}
330
384
100
AcDbXrecord
 10
0.0
 20
0.0
 30
0.0
  0
XRECORD
  5
3A1
102
{ACAD_REACTORS
330
384
102
}
330
384
100
AcDbXrecord
 10
0.0
 20
0.0
 30
0.0
  0
XRECORD
  5
39E
102
{ACAD_REACTORS
330
384
102
}
330
384
100
AcDbXrecord
 10
0.0
 20
0.0
 30
0.0
  0
XRECORD
  5
39B
102
{ACAD_REACTORS
330
384
102
}
330
384
100
AcDbXrecord
340
0
  0
XRECORD
  5
39C
102
{ACAD_REACTORS
330
384
102
}
330
384
100
AcDbXrecord
 70
     0
  0
XRECORD
  5
390
102
{ACAD_REACTORS
330
384
102
}
330
384
100
AcDbXrecord
  1
{5E1C4EB2-8DB4-11D6-88E6-0090279574E7}
  0
DICTIONARYVAR
  5
382
102
{ACAD_REACTORS
330
381
102
}
330
381
100
DictionaryVariables
280
     0
  1
1
  0
ENDSEC
  0
EOF
