  0
SECTION
  2
HEADER
  9
$ACADVER
  1
AC1014
  9
$ACADMAINTVER
 70
     9
  9
$DWGCODEPAGE
  3
ANSI_1252
  9
$INSBASE
 10
0.0
 20
0.0
 30
0.0
  9
$EXTMIN
 10
10.33587771029958
 20
1.635291470857281
 30
0.0
  9
$EXTMAX
 10
13.82109703204674
 20
3.299737615104046
 30
0.0
  9
$LIMMIN
 10
0.0
 20
0.0
  9
$LIMMAX
 10
16.0
 20
11.0
  9
$ORTHOMODE
 70
     1
  9
$REGENMODE
 70
     1
  9
$FILLMODE
 70
     1
  9
$QTEXTMODE
 70
     0
  9
$MIRRTEXT
 70
     0
  9
$DRAGMODE
 70
     2
  9
$LTSCALE
 40
0.25
  9
$OSMODE
 70
    39
  9
$ATTMODE
 70
     1
  9
$TEXTSIZE
 40
0.125
  9
$TRACEWID
 40
0.05
  9
$TEXTSTYLE
  7
ROMANS
  9
$CLAYER
  8
0
  9
$CELTYPE
  6
BYLAYER
  9
$CECOLOR
 62
   256
  9
$CELTSCALE
 40
1.0
  9
$DELOBJ
 70
     1
  9
$DISPSILH
 70
     1
  9
$DIMSCALE
 40
1.0
  9
$DIMASZ
 40
0.125
  9
$DIMEXO
 40
0.125
  9
$DIMDLI
 40
0.375
  9
$DIMRND
 40
0.0
  9
$DIMDLE
 40
0.0
  9
$DIMEXE
 40
0.125
  9
$DIMTP
 40
0.0
  9
$DIMTM
 40
0.0
  9
$DIMTXT
 40
0.125
  9
$DIMCEN
 40
-0.125
  9
$DIMTSZ
 40
0.0
  9
$DIMTOL
 70
     0
  9
$DIMLIM
 70
     0
  9
$DIMTIH
 70
     1
  9
$DIMTOH
 70
     1
  9
$DIMSE1
 70
     0
  9
$DIMSE2
 70
     0
  9
$DIMTAD
 70
     0
  9
$DIMZIN
 70
     4
  9
$DIMBLK
  1

  9
$DIMASO
 70
     1
  9
$DIMSHO
 70
     1
  9
$DIMPOST
  1

  9
$DIMAPOST
  1

  9
$DIMALT
 70
     0
  9
$DIMALTD
 70
     2
  9
$DIMALTF
 40
25.4
  9
$DIMLFAC
 40
0.5
  9
$DIMTOFL
 70
     0
  9
$DIMTVP
 40
0.0
  9
$DIMTIX
 70
     0
  9
$DIMSOXD
 70
     0
  9
$DIMSAH
 70
     0
  9
$DIMBLK1
  1

  9
$DIMBLK2
  1

  9
$DIMSTYLE
  2
STANDARD
  9
$DIMCLRD
 70
     0
  9
$DIMCLRE
 70
     0
  9
$DIMCLRT
 70
     0
  9
$DIMTFAC
 40
1.0
  9
$DIMGAP
 40
0.09
  9
$DIMJUST
 70
     0
  9
$DIMSD1
 70
     0
  9
$DIMSD2
 70
     0
  9
$DIMTOLJ
 70
     1
  9
$DIMTZIN
 70
     0
  9
$DIMALTZ
 70
     0
  9
$DIMALTTZ
 70
     0
  9
$DIMFIT
 70
     3
  9
$DIMUPT
 70
     0
  9
$DIMUNIT
 70
     2
  9
$DIMDEC
 70
     3
  9
$DIMTDEC
 70
     4
  9
$DIMALTU
 70
     2
  9
$DIMALTTD
 70
     2
  9
$DIMTXSTY
  7
ROMANS
  9
$DIMAUNIT
 70
     0
  9
$LUNITS
 70
     2
  9
$LUPREC
 70
     3
  9
$SKETCHINC
 40
0.1
  9
$FILLETRAD
 40
0.031
  9
$AUNITS
 70
     0
  9
$AUPREC
 70
     0
  9
$MENU
  1
ACAD
  9
$ELEVATION
 40
0.0
  9
$PELEVATION
 40
0.0
  9
$THICKNESS
 40
0.0
  9
$LIMCHECK
 70
     0
  9
$BLIPMODE
 70
     0
  9
$CHAMFERA
 40
0.0
  9
$CHAMFERB
 40
0.0
  9
$CHAMFERC
 40
0.0
  9
$CHAMFERD
 40
0.0
  9
$SKPOLY
 70
     0
  9
$TDCREATE
 40
2449660.460945602
  9
$TDUPDATE
 40
2452458.297239537
  9
$TDINDWG
 40
0.0875668866
  9
$TDUSRTIMER
 40
0.0875668866
  9
$USRTIMER
 70
     1
  9
$ANGBASE
 50
0.0
  9
$ANGDIR
 70
     0
  9
$PDMODE
 70
     0
  9
$PDSIZE
 40
0.0
  9
$PLINEWID
 40
0.0
  9
$COORDS
 70
     2
  9
$SPLFRAME
 70
     0
  9
$SPLINETYPE
 70
     6
  9
$SPLINESEGS
 70
     8
  9
$ATTDIA
 70
     0
  9
$ATTREQ
 70
     1
  9
$HANDLING
 70
 22529
  9
$HANDSEED
  5
7F6
  9
$SURFTAB1
 70
     6
  9
$SURFTAB2
 70
     6
  9
$SURFTYPE
 70
     6
  9
$SURFU
 70
     6
  9
$SURFV
 70
     6
  9
$UCSNAME
  2

  9
$UCSORG
 10
0.0
 20
0.0
 30
0.0
  9
$UCSXDIR
 10
1.0
 20
0.0
 30
0.0
  9
$UCSYDIR
 10
0.0
 20
1.0
 30
0.0
  9
$PUCSNAME
  2

  9
$PUCSORG
 10
0.0
 20
0.0
 30
0.0
  9
$PUCSXDIR
 10
1.0
 20
0.0
 30
0.0
  9
$PUCSYDIR
 10
0.0
 20
1.0
 30
0.0
  9
$USERI1
 70
     0
  9
$USERI2
 70
     0
  9
$USERI3
 70
     0
  9
$USERI4
 70
     0
  9
$USERI5
 70
     0
  9
$USERR1
 40
0.0
  9
$USERR2
 40
0.0
  9
$USERR3
 40
0.0
  9
$USERR4
 40
0.0
  9
$USERR5
 40
0.0
  9
$WORLDVIEW
 70
     1
  9
$SHADEDGE
 70
     3
  9
$SHADEDIF
 70
    70
  9
$TILEMODE
 70
     1
  9
$MAXACTVP
 70
    16
  9
$PINSBASE
 10
0.0
 20
0.0
 30
0.0
  9
$PLIMCHECK
 70
     0
  9
$PEXTMIN
 10
1.000000000000000E+20
 20
1.000000000000000E+20
 30
1.000000000000000E+20
  9
$PEXTMAX
 10
-1.000000000000000E+20
 20
-1.000000000000000E+20
 30
-1.000000000000000E+20
  9
$PLIMMIN
 10
0.0
 20
0.0
  9
$PLIMMAX
 10
12.0
 20
9.0
  9
$UNITMODE
 70
     0
  9
$VISRETAIN
 70
     0
  9
$PLINEGEN
 70
     1
  9
$PSLTSCALE
 70
     0
  9
$TREEDEPTH
 70
  3020
  9
$PICKSTYLE
 70
     1
  9
$CMLSTYLE
  2
STANDARD
  9
$CMLJUST
 70
     0
  9
$CMLSCALE
 40
1.0
  9
$PROXYGRAPHICS
 70
     1
  9
$MEASUREMENT
 70
     0
  0
ENDSEC
  0
SECTION
  2
CLASSES
  0
CLASS
  1
LWPOLYLINE
  2
AcDbPolyline
  3
AutoCAD 2000
 90
        0
280
     0
281
     1
  0
CLASS
  1
ACDBDICTIONARYWDFLT
  2
AcDbDictionaryWithDefault
  3
AutoCAD 2000
 90
        0
280
     0
281
     0
  0
CLASS
  1
ACDBPLACEHOLDER
  2
AcDbPlaceHolder
  3
AutoCAD 2000
 90
        0
280
     0
281
     0
  0
CLASS
  1
LAYOUT
  2
AcDbLayout
  3
AutoCAD 2000
 90
        0
280
     0
281
     0
  0
CLASS
  1
DICTIONARYVAR
  2
AcDbDictionaryVar
  3
AutoCAD 2000
 90
        0
280
     0
281
     0
  0
CLASS
  1
LONG_TRANSACTION
  2
AcDbLongTransaction
  3
AutoCAD 2000
 90
        0
280
     0
281
     0
  0
CLASS
  1
LWPOLYLINE
  2
AcDbPolyline
  3
AutoCAD 2000
 90
        0
280
     0
281
     1
  0
CLASS
  1
HATCH
  2
AcDbHatch
  3
AutoCAD 2000
 90
        0
280
     0
281
     1
  0
CLASS
  1
XRECORD
  2
AcDbXrecord
  3
AutoCAD 2000
 90
        0
280
     0
281
     0
  0
ENDSEC
  0
SECTION
  2
TABLES
  0
TABLE
  2
VPORT
  5
8
330
0
100
AcDbSymbolTable
 70
     2
  0
VPORT
  5
7D1
330
8
100
AcDbSymbolTableRecord
100
AcDbViewportTableRecord
  2
*ACTIVE
 70
     0
 10
0.0
 20
0.0
 11
1.0
 21
1.0
 12
15.00173976529648
 22
2.467653220352545
 13
0.0
 23
0.0
 14
0.015625
 24
0.015625
 15
0.0
 25
0.0
 16
0.0
 26
0.0
 36
1.0
 17
0.0
 27
0.0
 37
0.0
 40
2.16411225472621
 41
4.320930232558139
 42
50.0
 43
0.0
 44
0.0
 50
0.0
 51
0.0
 71
     0
 72
  2000
 73
     1
 74
     1
 75
     0
 76
     0
 77
     0
 78
     0
  0
ENDTAB
  0
TABLE
  2
LTYPE
  5
5
330
0
100
AcDbSymbolTable
 70
     1
  0
LTYPE
  5
12
330
5
100
AcDbSymbolTableRecord
100
AcDbLinetypeTableRecord
  2
BYBLOCK
 70
     0
  3

 72
    65
 73
     0
 40
0.0
  0
LTYPE
  5
13
330
5
100
AcDbSymbolTableRecord
100
AcDbLinetypeTableRecord
  2
BYLAYER
 70
     0
  3

 72
    65
 73
     0
 40
0.0
  0
LTYPE
  5
14
330
5
100
AcDbSymbolTableRecord
100
AcDbLinetypeTableRecord
  2
CONTINUOUS
 70
     0
  3
Solid line
 72
    65
 73
     0
 40
0.0
  0
ENDTAB
  0
TABLE
  2
LAYER
  5
2
330
0
100
AcDbSymbolTable
 70
     2
  0
LAYER
  5
F
330
2
100
AcDbSymbolTableRecord
100
AcDbLayerTableRecord
  2
0
 70
     0
 62
     7
  6
CONTINUOUS
  0
LAYER
  5
24
330
2
100
AcDbSymbolTableRecord
100
AcDbLayerTableRecord
  2
TEXT
 70
     0
 62
     3
  6
CONTINUOUS
  0
ENDTAB
  0
TABLE
  2
STYLE
  5
3
330
0
100
AcDbSymbolTable
 70
     3
  0
STYLE
  5
10
330
3
100
AcDbSymbolTableRecord
100
AcDbTextStyleTableRecord
  2
STANDARD
 70
     0
 40
0.0
 41
1.0
 50
0.0
 71
     0
 42
0.25
  3
txt
  4

  0
STYLE
  5
6BE
330
3
100
AcDbSymbolTableRecord
100
AcDbTextStyleTableRecord
  2
ITALICC
 70
     0
 40
0.0
 41
1.0
 50
0.0
 71
     0
 42
0.125
  3
italicc
  4

  0
STYLE
  5
7CD
330
3
100
AcDbSymbolTableRecord
100
AcDbTextStyleTableRecord
  2
ROMANS
 70
     0
 40
0.0
 41
1.0
 50
0.0
 71
     0
 42
0.125
  3
romans.shx
  4

  0
ENDTAB
  0
TABLE
  2
VIEW
  5
6
330
0
100
AcDbSymbolTable
 70
     0
  0
ENDTAB
  0
TABLE
  2
UCS
  5
7
330
0
100
AcDbSymbolTable
 70
     0
  0
ENDTAB
  0
TABLE
  2
APPID
  5
9
330
0
100
AcDbSymbolTable
 70
     1
  0
APPID
  5
11
330
9
100
AcDbSymbolTableRecord
100
AcDbRegAppTableRecord
  2
ACAD
 70
     0
  0
ENDTAB
  0
TABLE
  2
DIMSTYLE
  5
A
330
0
100
AcDbSymbolTable
 70
     1
  0
DIMSTYLE
105
2B7
330
A
100
AcDbSymbolTableRecord
100
AcDbDimStyleTableRecord
  2
STANDARD
 70
     0
  3

  4

  5

  6

  7

 40
1.0
 41
0.18
 42
0.0625
 43
0.38
 44
0.18
 45
0.0
 46
0.0
 47
0.0
 48
0.0
140
0.18
141
0.09
142
0.0
143
25.4
144
1.0
145
0.0
146
1.0
147
0.09
 71
     0
 72
     0
 73
     1
 74
     1
 75
     0
 76
     0
 77
     0
 78
     0
170
     0
171
     2
172
     0
173
     0
174
     0
175
     0
176
     0
177
     0
178
     0
270
     2
271
     4
272
     4
273
     2
274
     2
340
10
275
     0
280
     0
281
     0
282
     0
283
     1
284
     0
285
     0
286
     0
287
     3
288
     0
  0
ENDTAB
  0
TABLE
  2
BLOCK_RECORD
  5
1
330
0
100
AcDbSymbolTable
 70
     0
  0
BLOCK_RECORD
  5
18
102
{ACAD_XDICTIONARY
360
7F4
102
}
330
1
100
AcDbSymbolTableRecord
100
AcDbBlockTableRecord
  2
*MODEL_SPACE
  0
BLOCK_RECORD
  5
15
102
{ACAD_XDICTIONARY
360
7F2
102
}
330
1
100
AcDbSymbolTableRecord
100
AcDbBlockTableRecord
  2
*PAPER_SPACE
  0
ENDTAB
  0
ENDSEC
  0
SECTION
  2
BLOCKS
  0
BLOCK
  5
2A
330
18
100
AcDbEntity
  8
0
100
AcDbBlockBegin
  2
*MODEL_SPACE
 70
     0
 10
0.0
 20
0.0
 30
0.0
  3
*MODEL_SPACE
  1

  0
ENDBLK
  5
2B
330
18
100
AcDbEntity
  8
0
100
AcDbBlockEnd
  0
BLOCK
  5
28
330
15
100
AcDbEntity
 67
     1
  8
0
100
AcDbBlockBegin
  2
*PAPER_SPACE
 70
     0
 10
0.0
 20
0.0
 30
0.0
  3
*PAPER_SPACE
  1

  0
ENDBLK
  5
29
330
15
100
AcDbEntity
 67
     1
  8
0
100
AcDbBlockEnd
  0
ENDSEC
  0
SECTION
  2
ENTITIES
  0
LWPOLYLINE
  5
696
330
18
100
AcDbEntity
  8
0
100
AcDbPolyline
 90
       24
 70
     0
 43
0.0
 10
12.84047272328727
 20
3.268487642407865
 42
-0.9999991262782524
 10
12.90297272328724
 20
3.268487626143135
 42
-0.0233288048016604
 10
12.90297272328725
 20
2.549737606946675
 10
12.84047272328725
 20
2.549737606946675
 10
12.84047272328725
 20
2.924737606946676
 10
12.77797272328725
 20
2.924737606946676
 10
12.84047272328725
 20
2.987237606946676
 10
12.25647272328725
 20
2.987237606946677
 10
12.24647272328725
 20
2.997237606946677
 10
12.23647272328725
 20
2.987237606946677
 10
11.71547272328725
 20
2.987237606946677
 10
11.71547272328725
 20
2.924737606946677
 10
11.65297272328725
 20
2.924737606946677
 10
11.65297272328725
 20
2.987237606946677
 10
11.47547272328725
 20
2.987237606946677
 10
11.46547272328725
 20
2.997237606946677
 10
11.45547272328725
 20
2.987237606946677
 10
11.09047272328725
 20
2.987237606946677
 10
11.15297272328725
 20
2.924737606946677
 10
11.02797272328725
 20
2.924737606946677
 10
11.02797272328725
 20
3.018737606946677
 42
-0.4142135623730951
 10
11.05897272328725
 20
3.049737606946677
 10
12.84047272328725
 20
3.049737606946675
 10
12.84047272328725
 20
3.268487648200462
  0
TEXT
  5
743
330
18
100
AcDbEntity
  8
TEXT
100
AcDbText
 10
11.32588309905054
 20
2.093310074939863
 30
0.0
 40
0.125
  1
PART #110143
  7
ITALICC
 72
     1
 11
12.07885928952673
 21
2.093310074939863
 31
0.0
100
AcDbText
  0
LINE
  5
744
330
18
100
AcDbEntity
  8
TEXT
100
AcDbLine
 10
12.23417391955011
 20
1.913233083576795
 30
0.0
 11
12.18707576099413
 21
1.837367757165257
 31
0.0
  0
LINE
  5
745
330
18
100
AcDbEntity
  8
TEXT
100
AcDbLine
 10
12.18707576099413
 20
1.837367757165257
 30
0.0
 11
12.18707576099413
 21
1.978697289344395
 31
0.0
  0
LINE
  5
746
330
18
100
AcDbEntity
  8
TEXT
100
AcDbLine
 10
12.18707576099413
 20
1.978697289344395
 30
0.0
 11
12.11876088244485
 21
1.978697289344395
 31
0.0
  0
LINE
  5
747
330
18
100
AcDbEntity
  8
TEXT
100
AcDbLine
 10
12.11876088244485
 20
1.978697289344395
 30
0.0
 11
12.11876088244485
 21
1.913233083576795
 31
0.0
  0
LINE
  5
748
330
18
100
AcDbEntity
  8
TEXT
100
AcDbLine
 10
12.24460863631403
 20
1.803339840635821
 30
0.0
 11
12.30916575227974
 21
1.913233083576795
 31
0.0
  0
LINE
  5
749
330
18
100
AcDbEntity
  8
TEXT
100
AcDbLine
 10
12.30916575227974
 20
1.913233083576795
 30
0.0
 11
12.23417391955011
 21
1.913233083576795
 31
0.0
  0
LINE
  5
74A
330
18
100
AcDbEntity
  8
TEXT
100
AcDbLine
 10
12.12324076977135
 20
1.646760050588284
 30
0.0
 11
12.18761895408997
 21
1.646760050588284
 31
0.0
  0
LINE
  5
74B
330
18
100
AcDbEntity
  8
TEXT
100
AcDbLine
 10
12.18761895408997
 20
1.646760050588284
 30
0.0
 11
12.18761895408997
 21
1.778339619064464
 31
0.0
  0
LINE
  5
74C
330
18
100
AcDbEntity
  8
TEXT
100
AcDbLine
 10
12.18761895408997
 20
1.778339619064464
 30
0.0
 11
12.26352248730144
 21
1.646760050588284
 31
0.0
  0
LINE
  5
74D
330
18
100
AcDbEntity
  8
TEXT
100
AcDbLine
 10
12.26352248730144
 20
1.646760050588284
 30
0.0
 11
12.34010085967764
 21
1.646760050588284
 31
0.0
  0
LINE
  5
74E
330
18
100
AcDbEntity
  8
TEXT
100
AcDbLine
 10
12.12324076977135
 20
1.848956388920029
 30
0.0
 11
12.12324076977135
 21
1.646760050588284
 31
0.0
  0
LINE
  5
74F
330
18
100
AcDbEntity
  8
TEXT
100
AcDbLine
 10
12.34010085967764
 20
1.646760050588284
 30
0.0
 11
12.24460863631403
 21
1.803339840635821
 31
0.0
  0
ARC
  5
750
330
18
100
AcDbEntity
  8
TEXT
100
AcDbCircle
 10
12.04659278847879
 20
1.824050513637367
 30
0.0
 40
0.0249058752826653
100
AcDbArc
 50
89.99971217465335
 51
179.9999999999985
  0
ARC
  5
751
330
18
100
AcDbEntity
  8
TEXT
100
AcDbCircle
 10
12.05448174541837
 20
1.88198735629453
 30
0.0
 40
0.0314112657011332
100
AcDbArc
 50
95.88484768694724
 51
173.2388340632136
  0
LINE
  5
752
330
18
100
AcDbEntity
  8
TEXT
100
AcDbLine
 10
12.02328892835526
 20
1.88568543371592
 30
0.0
 11
12.02328892835526
 21
1.913233083576795
 31
0.0
  0
LINE
  5
753
330
18
100
AcDbEntity
  8
TEXT
100
AcDbLine
 10
12.02328892835526
 20
1.913233083576795
 30
0.0
 11
11.95939202205576
 21
1.913233083576795
 31
0.0
  0
LINE
  5
754
330
18
100
AcDbEntity
  8
TEXT
100
AcDbLine
 10
11.95939202205576
 20
1.913233083576795
 30
0.0
 11
11.95939202205576
 21
1.808021105023367
 31
0.0
  0
LINE
  5
755
330
18
100
AcDbEntity
  8
TEXT
100
AcDbLine
 10
11.88043208318072
 20
1.913233083576795
 30
0.0
 11
11.74560017396366
 21
1.913233083576795
 31
0.0
  0
LINE
  5
756
330
18
100
AcDbEntity
  8
TEXT
100
AcDbLine
 10
11.74560017396366
 20
1.913233083576795
 30
0.0
 11
11.74560017396366
 21
1.884910537807151
 31
0.0
  0
LINE
  5
757
330
18
100
AcDbEntity
  8
TEXT
100
AcDbLine
 10
11.80491427035698
 20
1.811681415457897
 30
0.0
 11
11.88720226014036
 21
1.811681415457897
 31
0.0
  0
LINE
  5
758
330
18
100
AcDbEntity
  8
TEXT
100
AcDbLine
 10
11.88720226014036
 20
1.811681415457897
 30
0.0
 11
11.8769374997268
 21
1.832931955030591
 31
0.0
  0
LINE
  5
759
330
18
100
AcDbEntity
  8
TEXT
100
AcDbLine
 10
11.85140118483624
 20
1.848956388920029
 30
0.0
 11
11.74419491144895
 21
1.848956388920029
 31
0.0
  0
ARC
  5
75A
330
18
100
AcDbEntity
  8
TEXT
100
AcDbCircle
 10
11.85140118483624
 20
1.820597013920032
 30
0.0
 40
0.028359375
100
AcDbArc
 50
25.78218179591245
 51
90.0
  0
LINE
  5
75B
330
18
100
AcDbEntity
  8
TEXT
100
AcDbLine
 10
11.95939202205576
 20
1.808021105023367
 30
0.0
 11
11.91564125087386
 21
1.890271381019513
 31
0.0
  0
ARC
  5
75C
330
18
100
AcDbEntity
  8
TEXT
100
AcDbCircle
 10
11.87840514340365
 20
1.871649516455892
 30
0.0
 40
0.0416329381542859
100
AcDbArc
 50
26.56974201007528
 51
87.20939649401342
  0
LWPOLYLINE
  5
75D
330
18
100
AcDbEntity
  8
TEXT
100
AcDbPolyline
 90
        2
 70
     0
 43
0.0
 10
11.9633316993608
 20
1.690250995538722
 42
-0.2901071551932486
 10
11.92025576649315
 20
1.646760050588284
 42
-5.328517124445184
  0
LWPOLYLINE
  5
75E
330
18
100
AcDbEntity
  8
TEXT
100
AcDbPolyline
 90
        2
 70
     0
 43
0.0
 10
11.9633316993608
 20
1.690250995538722
 10
11.9633316993608
 20
1.646760050588284
  0
LWPOLYLINE
  5
75F
330
18
100
AcDbEntity
  8
TEXT
100
AcDbPolyline
 90
        2
 70
     0
 43
0.0
 10
11.9633316993608
 20
1.646760050588284
 10
12.02168691319613
 20
1.646760050588284
  0
LWPOLYLINE
  5
760
330
18
100
AcDbEntity
  8
TEXT
100
AcDbPolyline
 90
        2
 70
     0
 43
0.0
 10
11.74316241599414
 20
1.690250995538722
 42
0.2901071551932823
 10
11.78623834886177
 20
1.646760050588284
 42
5.328517124445801
  0
LWPOLYLINE
  5
761
330
18
100
AcDbEntity
  8
TEXT
100
AcDbPolyline
 90
        2
 70
     0
 43
0.0
 10
11.78623834886177
 20
1.646760050588284
 10
11.92025576649315
 20
1.646760050588284
 42
0.9999999999999998
  0
LWPOLYLINE
  5
762
330
18
100
AcDbEntity
  8
TEXT
100
AcDbPolyline
 90
        4
 70
     1
 43
0.0
 10
11.90013330142326
 20
1.749724028572309
 10
11.8114729827634
 20
1.749724028572309
 42
0.9999999999999998
 10
11.8114729827634
 20
1.707325488068448
 10
11.90013330142326
 20
1.707325488068448
 42
1.0
  0
ARC
  5
763
330
18
100
AcDbEntity
  8
TEXT
100
AcDbCircle
 10
11.80491427035698
 20
1.743995834313778
 30
0.0
 40
0.0676855811441166
100
AcDbArc
 50
90.0
 51
153.7768192527749
  0
LINE
  5
764
330
18
100
AcDbEntity
  8
TEXT
100
AcDbLine
 10
12.02168691319613
 20
1.646760050588284
 30
0.0
 11
12.02168691319613
 21
1.824050556019752
 31
0.0
  0
LINE
  5
765
330
18
100
AcDbEntity
  8
TEXT
100
AcDbLine
 10
11.74419491144895
 20
1.848956388920029
 30
0.0
 11
11.74419491144895
 21
1.773903982845823
 31
0.0
  0
LINE
  5
766
330
18
100
AcDbEntity
  8
TEXT
100
AcDbLine
 10
12.04659278847879
 20
1.848956388920029
 30
0.0
 11
12.12324076977135
 21
1.848956388920029
 31
0.0
  0
LINE
  5
767
330
18
100
AcDbEntity
  8
TEXT
100
AcDbLine
 10
12.11876088244485
 20
1.913233083576795
 30
0.0
 11
12.05126116479533
 21
1.913233083576795
 31
0.0
  0
LWPOLYLINE
  5
768
330
18
100
AcDbEntity
  8
TEXT
100
AcDbPolyline
 90
        2
 70
     0
 43
0.0
 10
11.53838491067126
 20
1.848956388920029
 42
-0.4142135623731017
 10
11.54593869983738
 20
1.841402599753919
 42
-0.9999999999999998
  0
LWPOLYLINE
  5
769
330
18
100
AcDbEntity
  8
TEXT
100
AcDbPolyline
 90
        2
 70
     0
 43
0.0
 10
11.66713034354017
 20
1.848956388920029
 42
-0.4142135623731017
 10
11.67468413270628
 20
1.841402599753919
 42
-0.9999999999999998
  0
LWPOLYLINE
  5
76A
330
18
100
AcDbEntity
  8
TEXT
100
AcDbPolyline
 90
        2
 70
     0
 43
0.0
 10
11.55573663372128
 20
1.913233083576798
 42
-0.3328679258950098
 10
11.59151832443445
 20
1.886065586815902
 42
6.772930709997214
  0
LWPOLYLINE
  5
76B
330
18
100
AcDbEntity
  8
TEXT
100
AcDbPolyline
 90
        3
 70
     0
 43
0.0
 10
11.70981848325049
 20
1.913233083576798
 10
11.59151832443445
 20
1.913233083576798
 10
11.59151832443445
 20
1.886065586815902
 42
-1.960274751411753
  0
LINE
  5
76C
330
18
100
AcDbEntity
  8
TEXT
100
AcDbLine
 10
11.61299674661922
 20
1.848956388920029
 30
0.0
 11
11.66713034354017
 21
1.848956388920029
 31
0.0
  0
LINE
  5
76D
330
18
100
AcDbEntity
  8
TEXT
100
AcDbLine
 10
11.48854963084812
 20
1.848956388920029
 30
0.0
 11
11.53838491067126
 21
1.848956388920029
 31
0.0
  0
LINE
  5
76E
330
18
100
AcDbEntity
  8
TEXT
100
AcDbLine
 10
11.55573663372128
 20
1.913233083576795
 30
0.0
 11
11.42171857779015
 21
1.913233083576795
 31
0.0
  0
LINE
  5
76F
330
18
100
AcDbEntity
  8
TEXT
100
AcDbLine
 10
11.54593869983738
 20
1.646760050588284
 30
0.0
 11
11.61299674661922
 21
1.646760050588284
 31
0.0
  0
LINE
  5
770
330
18
100
AcDbEntity
  8
TEXT
100
AcDbLine
 10
11.39054629714868
 20
1.646760050588284
 30
0.0
 11
11.48854963084812
 21
1.646760050588284
 31
0.0
  0
LINE
  5
771
330
18
100
AcDbEntity
  8
TEXT
100
AcDbLine
 10
11.42171857779015
 20
1.712368876844386
 30
0.0
 11
11.40472494090555
 21
1.712368876844386
 31
0.0
  0
ARC
  5
772
330
18
100
AcDbEntity
  8
TEXT
100
AcDbCircle
 10
11.40472494090555
 20
1.727750683087812
 30
0.0
 40
0.0153818062434269
100
AcDbArc
 50
174.7883570302258
 51
270.0
  0
LINE
  5
773
330
18
100
AcDbEntity
  8
TEXT
100
AcDbLine
 10
11.48854963084812
 20
1.646760050588284
 30
0.0
 11
11.48854963084812
 21
1.848956388920029
 31
0.0
  0
LINE
  5
774
330
18
100
AcDbEntity
  8
TEXT
100
AcDbLine
 10
11.54593869983738
 20
1.841402599753919
 30
0.0
 11
11.54593869983738
 21
1.646760050588284
 31
0.0
  0
LINE
  5
775
330
18
100
AcDbEntity
  8
TEXT
100
AcDbLine
 10
11.61299674661922
 20
1.646760050588284
 30
0.0
 11
11.61299674661922
 21
1.848956388920029
 31
0.0
  0
LINE
  5
776
330
18
100
AcDbEntity
  8
TEXT
100
AcDbLine
 10
11.42171857779015
 20
1.913233083576795
 30
0.0
 11
11.42171857779015
 21
1.712368876844386
 31
0.0
  0
LINE
  5
777
330
18
100
AcDbEntity
  8
TEXT
100
AcDbLine
 10
11.38940672365249
 20
1.729147888691283
 30
0.0
 11
11.38940672365249
 21
1.981244561315605
 31
0.0
  0
LINE
  5
778
330
18
100
AcDbEntity
  8
TEXT
100
AcDbLine
 10
11.32259801108612
 20
1.981244561315605
 30
0.0
 11
11.32259801108612
 21
1.913233083576795
 31
0.0
  0
LINE
  5
779
330
18
100
AcDbEntity
  8
TEXT
100
AcDbLine
 10
11.32259801108612
 20
1.913233083576795
 30
0.0
 11
11.29247609829275
 21
1.913233083576795
 31
0.0
  0
LINE
  5
77A
330
18
100
AcDbEntity
  8
TEXT
100
AcDbLine
 10
11.29247609829275
 20
1.913233083576795
 30
0.0
 11
11.23372753548688
 21
1.812361087463674
 31
0.0
  0
LINE
  5
77B
330
18
100
AcDbEntity
  8
TEXT
100
AcDbLine
 10
11.23372753548688
 20
1.812361087463674
 30
0.0
 11
11.17509721445494
 21
1.913233083576795
 31
0.0
  0
LINE
  5
77C
330
18
100
AcDbEntity
  8
TEXT
100
AcDbLine
 10
11.10329824831104
 20
1.913233083576795
 30
0.0
 11
11.10329824831104
 21
1.947621001170933
 31
0.0
  0
LINE
  5
77D
330
18
100
AcDbEntity
  8
TEXT
100
AcDbLine
 10
11.10329824831104
 20
1.947621001170933
 30
0.0
 11
11.04325564346703
 21
1.947621001170933
 31
0.0
  0
LINE
  5
77E
330
18
100
AcDbEntity
  8
TEXT
100
AcDbLine
 10
11.04325564346703
 20
1.947621001170933
 30
0.0
 11
11.04325564346703
 21
1.913233083576795
 31
0.0
  0
LINE
  5
77F
330
18
100
AcDbEntity
  8
TEXT
100
AcDbLine
 10
11.17509721445494
 20
1.913233083576795
 30
0.0
 11
11.10329824831104
 21
1.913233083576795
 31
0.0
  0
ARC
  5
780
330
18
100
AcDbEntity
  8
TEXT
100
AcDbCircle
 10
11.19008373857771
 20
1.686307772861979
 30
0.0
 40
0.0392772371940762
100
AcDbArc
 50
270.1604552698595
 51
330.0831797321295
  0
ARC
  5
781
330
18
100
AcDbEntity
  8
TEXT
100
AcDbCircle
 10
11.09978289268549
 20
1.706552441926334
 30
0.0
 40
0.0601160179737537
100
AcDbArc
 50
180.0000000000003
 51
264.0521544866073
  0
LINE
  5
782
330
18
100
AcDbEntity
  8
TEXT
100
AcDbLine
 10
11.09355348219184
 20
1.646760050588284
 30
0.0
 11
11.19019373326684
 21
1.647030689686566
 31
0.0
  0
LWPOLYLINE
  5
783
330
18
100
AcDbEntity
  8
TEXT
100
AcDbPolyline
 90
        6
 70
     1
 43
0.0
 10
11.13607728576699
 20
1.848956388920029
 10
11.10576069154678
 20
1.848956388920029
 10
11.10576069154678
 20
1.725845390865135
 42
0.407328721240804
 10
11.11730434270826
 20
1.714026476188749
 10
11.17792604175299
 20
1.714026476188749
 10
11.19539138216031
 20
1.746838705232228
  0
LINE
  5
784
330
18
100
AcDbEntity
  8
TEXT
100
AcDbLine
 10
11.03966687471174
 20
1.848956388920029
 30
0.0
 11
11.03966687471174
 21
1.706552441926334
 31
0.0
  0
LINE
  5
785
330
18
100
AcDbEntity
  8
TEXT
100
AcDbLine
 10
11.22412729848993
 20
1.666718556693297
 30
0.0
 11
11.32142700458337
 21
1.831068767628565
 31
0.0
  0
LINE
  5
786
330
18
100
AcDbEntity
  8
TEXT
100
AcDbLine
 10
11.32142700458337
 20
1.831068767628565
 30
0.0
 11
11.32142700458337
 21
1.698311392803208
 31
0.0
  0
LWPOLYLINE
  5
787
330
18
100
AcDbEntity
  8
TEXT
100
AcDbPolyline
 90
        2
 70
     0
 43
0.0
 10
11.32142700458337
 20
1.698311392803212
 42
0.3318488747599744
 10
11.39054629714868
 20
1.646760050588284
 42
-6.868794160588311
  0
LINE
  5
788
330
18
100
AcDbEntity
  8
TEXT
100
AcDbLine
 10
11.38940672365249
 20
1.981244561315605
 30
0.0
 11
11.32259801108612
 21
1.981244561315605
 31
0.0
  0
LWPOLYLINE
  5
789
330
18
100
AcDbEntity
  8
TEXT
100
AcDbPolyline
 90
        4
 70
     0
 43
0.0
 10
11.67468413270628
 20
1.841402599753919
 10
11.67468413270628
 20
1.646760050588284
 10
11.74316241599414
 20
1.646760050588284
 10
11.74316241599414
 20
1.690250995538722
 42
-1.714843617202739
  0
LWPOLYLINE
  5
78A
330
18
100
AcDbEntity
  8
TEXT
100
AcDbPolyline
 90
        2
 70
     0
 43
0.0
 10
11.70981848325049
 20
1.913233083576798
 42
-0.3277054968067132
 10
11.74560017396366
 20
1.884910537807154
 42
6.667889725900311
  0
TEXT
  5
78B
330
18
100
AcDbEntity
  8
TEXT
100
AcDbText
 10
12.49216444777705
 20
1.73964585923378
 30
0.0
 40
0.0522247191011236
  1
Minneapolis, MN 55432-0008
 41
1.11444212721585
 72
     5
 11
13.82109703204671
 21
1.73964585923378
 31
0.0
100
AcDbText
  0
TEXT
  5
78C
330
18
100
AcDbEntity
  8
TEXT
100
AcDbText
 10
12.49216444777705
 20
1.832904286200072
 30
0.0
 40
0.0522247191011236
  1
6536 Main St. N.E. * P.O. Box 32008
 41
0.8388932496075353
 72
     5
 11
13.82109703204671
 21
1.832904286200072
 31
0.0
100
AcDbText
  0
TEXT
  5
78D
330
18
100
AcDbEntity
  8
TEXT
100
AcDbText
 10
12.49216444777705
 20
1.926162713166364
 30
0.0
 40
0.0522247191011236
  1
Stylmark  Incorporated
 41
1.221428571428571
 72
     5
 11
13.82109703204671
 21
1.926162713166364
 31
0.0
100
AcDbText
  0
TEXT
  5
78E
330
18
100
AcDbEntity
  8
TEXT
100
AcDbText
 10
12.49216444777705
 20
1.646387432267488
 30
0.0
 40
0.0522247191011236
  1
Phone  1-800-328-2495
 41
1.272321428571429
 72
     5
 11
13.82109703204671
 21
1.646387432267488
 31
0.0
100
AcDbText
  0
LINE
  5
78F
330
18
100
AcDbEntity
  8
TEXT
100
AcDbLine
 10
10.93836135692707
 20
1.813151667309401
 30
0.0
 11
10.87276122068277
 21
1.813151667309401
 31
0.0
  0
ARC
  5
790
330
18
100
AcDbEntity
  8
TEXT
100
AcDbCircle
 10
10.87276122068277
 20
1.831054028114717
 30
0.0
 40
0.017902360805315
100
AcDbArc
 50
90.0
 51
270.0
  0
LINE
  5
791
330
18
100
AcDbEntity
  8
TEXT
100
AcDbLine
 10
10.86752389056852
 20
1.749058164683788
 30
0.0
 11
10.94330173083335
 21
1.749058164683788
 31
0.0
  0
LINE
  5
792
330
18
100
AcDbEntity
  8
TEXT
100
AcDbLine
 10
10.94330173083335
 20
1.715117056921723
 30
0.0
 11
10.78543643112201
 21
1.715117056921723
 31
0.0
  0
LINE
  5
793
330
18
100
AcDbEntity
  8
TEXT
100
AcDbLine
 10
10.78543643112201
 20
1.646760050588284
 30
0.0
 11
10.93836135692707
 21
1.646760050588284
 31
0.0
  0
ARC
  5
794
330
18
100
AcDbEntity
  8
TEXT
100
AcDbCircle
 10
10.86752389056852
 20
1.831145624130293
 30
0.0
 40
0.0820874594465043
100
AcDbArc
 50
90.0
 51
270.0
  0
LINE
  5
795
330
18
100
AcDbEntity
  8
TEXT
100
AcDbLine
 10
11.04325564346703
 20
1.913233083576795
 30
0.0
 11
10.86752389056852
 21
1.913233083576795
 31
0.0
  0
ARC
  5
796
330
18
100
AcDbEntity
  8
TEXT
100
AcDbCircle
 10
10.94330173083335
 20
1.732087610802757
 30
0.0
 40
0.0169705538810321
100
AcDbArc
 50
270.0
 51
90.0
  0
ARC
  5
797
330
18
100
AcDbEntity
  8
TEXT
100
AcDbCircle
 10
10.93836135692707
 20
1.729955858948841
 30
0.0
 40
0.0831958083605586
100
AcDbArc
 50
270.0
 51
90.0
  0
LINE
  5
798
330
18
100
AcDbEntity
  8
TEXT
100
AcDbLine
 10
10.87276122068277
 20
1.848956388920029
 30
0.0
 11
11.03966687471174
 21
1.848956388920029
 31
0.0
  0
LWPOLYLINE
  5
799
330
18
100
AcDbEntity
  8
TEXT
100
AcDbPolyline
 90
        2
 70
     0
 43
0.0006660908203125
 10
10.57600345102224
 20
1.799997644123671
 10
10.60264708383474
 20
1.799997644123671
  0
LINE
  5
79A
330
18
100
AcDbEntity
  8
TEXT
100
AcDbLine
 10
10.78543643112201
 20
1.715117056921723
 30
0.0
 11
10.78543643112201
 21
1.646760050588284
 31
0.0
  0
LWPOLYLINE
  5
79B
330
18
100
AcDbEntity
  8
TEXT
100
AcDbPolyline
 90
        2
 70
     0
 43
0.0006660908203125
 10
10.57600345102224
 20
1.760032194904923
 10
10.60264708383474
 20
1.760032194904923
  0
LWPOLYLINE
  5
79C
330
18
100
AcDbEntity
  8
TEXT
100
AcDbPolyline
 90
        2
 70
     0
 43
0.0001332181640625
 10
10.48941164438161
 20
1.913233083576798
 10
10.47942028207692
 20
1.839963093342419
  0
LWPOLYLINE
  5
79D
330
18
100
AcDbEntity
  8
TEXT
100
AcDbPolyline
 90
        2
 70
     0
 43
0.0001332181640625
 10
10.48941164438161
 20
1.886589450764297
 10
10.47942028207692
 20
1.826641276936172
  0
LWPOLYLINE
  5
79E
330
18
100
AcDbEntity
  8
TEXT
100
AcDbPolyline
 90
        2
 70
     0
 43
0.0006660908203125
 10
10.48941164438161
 20
1.886589450764297
 10
10.48941164438161
 20
1.913233083576798
  0
LWPOLYLINE
  5
79F
330
18
100
AcDbEntity
  8
TEXT
100
AcDbPolyline
 90
        5
 70
     0
 43
0.0001332181640625
 10
10.47942028207692
 20
1.839963093342419
 10
10.47942028207692
 20
1.826641276936172
 10
10.51605527719412
 20
1.826641276936172
 10
10.51605527719412
 20
1.790006281818982
 10
10.52937709360036
 20
1.790006281818982
  0
LWPOLYLINE
  5
7A0
330
18
100
AcDbEntity
  8
TEXT
100
AcDbPolyline
 90
        2
 70
     0
 43
0.0001332181640625
 10
10.44944619516286
 20
1.886589450764297
 10
10.45943755746755
 20
1.826641276936172
  0
LWPOLYLINE
  5
7A1
330
18
100
AcDbEntity
  8
TEXT
100
AcDbPolyline
 90
        2
 70
     0
 43
0.0001332181640625
 10
10.45943755746755
 20
1.839963093342419
 10
10.44944619516286
 20
1.913233083576798
  0
LWPOLYLINE
  5
7A2
330
18
100
AcDbEntity
  8
TEXT
100
AcDbPolyline
 90
        2
 70
     0
 43
0.0006660908203125
 10
10.44944619516286
 20
1.886589450764297
 10
10.44944619516286
 20
1.913233083576798
  0
LWPOLYLINE
  5
7A3
330
18
100
AcDbEntity
  8
TEXT
100
AcDbPolyline
 90
        5
 70
     0
 43
0.0001332181640625
 10
10.40948074594411
 20
1.790006281818982
 10
10.42280256235036
 20
1.790006281818982
 10
10.42280256235036
 20
1.826641276936172
 10
10.45943755746755
 20
1.826641276936172
 10
10.45943755746755
 20
1.839963093342419
  0
LWPOLYLINE
  5
7A4
330
18
100
AcDbEntity
  8
TEXT
100
AcDbPolyline
 90
        2
 70
     0
 43
0.0006660908203125
 10
10.36285438852224
 20
1.799997644123671
 10
10.33621075570974
 20
1.799997644123671
  0
LWPOLYLINE
  5
7A5
330
18
100
AcDbEntity
  8
TEXT
100
AcDbPolyline
 90
        2
 70
     0
 43
0.0001332181640625
 10
10.33621075570974
 20
1.799997644123671
 10
10.40948074594411
 20
1.790006281818982
  0
LWPOLYLINE
  5
7A6
330
18
100
AcDbEntity
  8
TEXT
100
AcDbPolyline
 90
        2
 70
     0
 43
0.0001332181640625
 10
10.36285438852224
 20
1.799997644123671
 10
10.42280256235036
 20
1.790006281818982
  0
LWPOLYLINE
  5
7A7
330
18
100
AcDbEntity
  8
TEXT
100
AcDbPolyline
 90
        2
 70
     0
 43
0.0001332181640625
 10
10.36285438852224
 20
1.886589450764297
 10
10.42280256235036
 20
1.826641276936172
  0
LWPOLYLINE
  5
7A8
330
18
100
AcDbEntity
  8
TEXT
100
AcDbPolyline
 90
        3
 70
     0
 43
0.0006660908203125
 10
10.44944619516286
 20
1.886589450764297
 10
10.36285438852224
 20
1.886589450764297
 10
10.36285438852224
 20
1.799997644123671
  0
LWPOLYLINE
  5
7A9
330
18
100
AcDbEntity
  8
TEXT
100
AcDbPolyline
 90
        3
 70
     0
 43
0.0006660908203125
 10
10.44944619516286
 20
1.913233083576798
 10
10.33621075570974
 20
1.913233083576798
 10
10.33621075570974
 20
1.799997644123671
  0
LWPOLYLINE
  5
7AA
330
18
100
AcDbEntity
  8
TEXT
100
AcDbPolyline
 90
        5
 70
     0
 43
0.0001332181640625
 10
10.52937709360036
 20
1.770023557209608
 10
10.51605527719412
 20
1.770023557209608
 10
10.51605527719412
 20
1.733388562092422
 10
10.47942028207692
 20
1.733388562092422
 10
10.47942028207692
 20
1.720066745686171
  0
LWPOLYLINE
  5
7AB
330
18
100
AcDbEntity
  8
TEXT
100
AcDbPolyline
 90
        2
 70
     0
 43
0.0006660908203125
 10
10.48941164438161
 20
1.673440388264296
 10
10.48941164438161
 20
1.646796755451795
  0
LWPOLYLINE
  5
7AC
330
18
100
AcDbEntity
  8
TEXT
100
AcDbPolyline
 90
        2
 70
     0
 43
0.0001332181640625
 10
10.47942028207692
 20
1.720066745686171
 10
10.48941164438161
 20
1.646796755451795
  0
LWPOLYLINE
  5
7AD
330
18
100
AcDbEntity
  8
TEXT
100
AcDbPolyline
 90
        2
 70
     0
 43
0.0001332181640625
 10
10.48941164438161
 20
1.673440388264296
 10
10.47942028207692
 20
1.733388562092422
  0
LWPOLYLINE
  5
7AE
330
18
100
AcDbEntity
  8
TEXT
100
AcDbPolyline
 90
        2
 70
     0
 43
0.0001332181640625
 10
10.44944619516286
 20
1.646796755451795
 10
10.45943755746755
 20
1.720066745686171
  0
LWPOLYLINE
  5
7AF
330
18
100
AcDbEntity
  8
TEXT
100
AcDbPolyline
 90
        2
 70
     0
 43
0.0001332181640625
 10
10.44944619516286
 20
1.673440388264296
 10
10.45943755746755
 20
1.733388562092422
  0
LWPOLYLINE
  5
7B0
330
18
100
AcDbEntity
  8
TEXT
100
AcDbPolyline
 90
        2
 70
     0
 43
0.0006660908203125
 10
10.44944619516286
 20
1.673440388264296
 10
10.44944619516286
 20
1.646796755451795
  0
LWPOLYLINE
  5
7B1
330
18
100
AcDbEntity
  8
TEXT
100
AcDbPolyline
 90
        5
 70
     0
 43
0.0001332181640625
 10
10.45943755746755
 20
1.720066745686171
 10
10.45943755746755
 20
1.733388562092422
 10
10.42280256235037
 20
1.733388562092422
 10
10.42280256235037
 20
1.770023557209608
 10
10.40948074594411
 20
1.770023557209608
  0
LWPOLYLINE
  5
7B2
330
18
100
AcDbEntity
  8
TEXT
100
AcDbPolyline
 90
        2
 70
     0
 43
0.0006660908203125
 10
10.36285438852224
 20
1.760032194904923
 10
10.33621075570974
 20
1.760032194904923
  0
LWPOLYLINE
  5
7B3
330
18
100
AcDbEntity
  8
TEXT
100
AcDbPolyline
 90
        2
 70
     0
 43
0.0001332181640625
 10
10.36285438852224
 20
1.673440388264296
 10
10.42280256235037
 20
1.733388562092422
  0
LWPOLYLINE
  5
7B4
330
18
100
AcDbEntity
  8
TEXT
100
AcDbPolyline
 90
        2
 70
     0
 43
0.0001332181640625
 10
10.36285438852224
 20
1.760032194904923
 10
10.42280256235037
 20
1.770023557209608
  0
LWPOLYLINE
  5
7B5
330
18
100
AcDbEntity
  8
TEXT
100
AcDbPolyline
 90
        2
 70
     0
 43
0.0001332181640625
 10
10.40948074594411
 20
1.770023557209608
 10
10.33621075570974
 20
1.760032194904923
  0
LWPOLYLINE
  5
7B6
330
18
100
AcDbEntity
  8
TEXT
100
AcDbPolyline
 90
        3
 70
     0
 43
0.0006660908203125
 10
10.36285438852224
 20
1.760032194904923
 10
10.36285438852224
 20
1.673440388264296
 10
10.44944619516286
 20
1.673440388264296
  0
LWPOLYLINE
  5
7B7
330
18
100
AcDbEntity
  8
TEXT
100
AcDbPolyline
 90
        3
 70
     0
 43
0.0006660908203125
 10
10.33621075570974
 20
1.760032194904923
 10
10.33621075570974
 20
1.646796755451795
 10
10.44944619516286
 20
1.646796755451795
  0
LWPOLYLINE
  5
7B8
330
18
100
AcDbEntity
  8
TEXT
100
AcDbPolyline
 90
        3
 70
     0
 43
0.0006660908203125
 10
10.48941164438161
 20
1.646796755451795
 10
10.60264708383474
 20
1.646796755451795
 10
10.60264708383474
 20
1.760032194904923
  0
LWPOLYLINE
  5
7B9
330
18
100
AcDbEntity
  8
TEXT
100
AcDbPolyline
 90
        3
 70
     0
 43
0.0006660908203125
 10
10.48941164438161
 20
1.673440388264296
 10
10.57600345102224
 20
1.673440388264296
 10
10.57600345102224
 20
1.760032194904923
  0
LWPOLYLINE
  5
7BA
330
18
100
AcDbEntity
  8
TEXT
100
AcDbPolyline
 90
        2
 70
     0
 43
0.0001332181640625
 10
10.57600345102224
 20
1.673440388264296
 10
10.51605527719412
 20
1.733388562092422
  0
LWPOLYLINE
  5
7BB
330
18
100
AcDbEntity
  8
TEXT
100
AcDbPolyline
 90
        2
 70
     0
 43
0.0001332181640625
 10
10.57600345102224
 20
1.760032194904923
 10
10.51605527719412
 20
1.770023557209608
  0
LWPOLYLINE
  5
7BC
330
18
100
AcDbEntity
  8
TEXT
100
AcDbPolyline
 90
        2
 70
     0
 43
0.0001332181640625
 10
10.60264708383474
 20
1.760032194904923
 10
10.52937709360036
 20
1.770023557209608
  0
LWPOLYLINE
  5
7BD
330
18
100
AcDbEntity
  8
TEXT
100
AcDbPolyline
 90
        2
 70
     0
 43
0.0001332181640625
 10
10.57600345102224
 20
1.886589450764297
 10
10.51605527719412
 20
1.826641276936172
  0
LWPOLYLINE
  5
7BE
330
18
100
AcDbEntity
  8
TEXT
100
AcDbPolyline
 90
        2
 70
     0
 43
0.0001332181640625
 10
10.57600345102224
 20
1.799997644123671
 10
10.51605527719412
 20
1.790006281818982
  0
LWPOLYLINE
  5
7BF
330
18
100
AcDbEntity
  8
TEXT
100
AcDbPolyline
 90
        2
 70
     0
 43
0.0001332181640625
 10
10.52937709360036
 20
1.790006281818982
 10
10.60264708383474
 20
1.799997644123671
  0
LWPOLYLINE
  5
7C0
330
18
100
AcDbEntity
  8
TEXT
100
AcDbPolyline
 90
        3
 70
     0
 43
0.0006660908203125
 10
10.57600345102224
 20
1.799997644123671
 10
10.57600345102224
 20
1.886589450764297
 10
10.48941164438161
 20
1.886589450764297
  0
LWPOLYLINE
  5
7C1
330
18
100
AcDbEntity
  8
TEXT
100
AcDbPolyline
 90
        3
 70
     0
 43
0.0006660908203125
 10
10.60264708383474
 20
1.799997644123671
 10
10.60264708383474
 20
1.913233083576798
 10
10.48941164438161
 20
1.913233083576798
  0
ENDSEC
  0
SECTION
  2
OBJECTS
  0
DICTIONARY
  5
C
330
0
100
AcDbDictionary
  3
ACAD_GROUP
350
D
  3
ACAD_LAYOUT
350
7C6
  3
ACAD_MLINESTYLE
350
E
  3
ACAD_PLOTSETTINGS
350
7C7
  3
ACAD_PLOTSTYLENAME
350
7C4
  3
ACDBHEADERROUNDTRIPXREC
350
7D2
  3
ACDBVARIABLEDICTIONARY
350
7CF
  0
DICTIONARY
  5
7F4
330
18
100
AcDbDictionary
280
     1
  3
ACAD_LAYOUTSELFREF
360
7F5
  0
DICTIONARY
  5
7F2
330
15
100
AcDbDictionary
280
     1
  3
ACAD_LAYOUTSELFREF
360
7F3
  0
DICTIONARY
  5
D
102
{ACAD_REACTORS
330
C
102
}
330
C
100
AcDbDictionary
  3
*A1
350
2BF
  3
*A2
350
629
  0
DICTIONARY
  5
7C6
102
{ACAD_REACTORS
330
C
102
}
330
C
100
AcDbDictionary
  0
DICTIONARY
  5
E
102
{ACAD_REACTORS
330
C
102
}
330
C
100
AcDbDictionary
  3
STANDARD
350
1B
  0
DICTIONARY
  5
7C7
102
{ACAD_REACTORS
330
C
102
}
330
C
100
AcDbDictionary
  0
ACDBDICTIONARYWDFLT
  5
7C4
102
{ACAD_REACTORS
330
C
102
}
330
C
100
AcDbDictionary
281
     1
  3
Normal
350
7C5
100
AcDbDictionaryWithDefault
340
7C5
  0
DICTIONARY
  5
7D2
102
{ACAD_REACTORS
330
C
102
}
330
C
100
AcDbDictionary
  3
CEPSNTYPE
350
7DC
  3
FINGERPRINTGUID
350
7DD
  3
HYPERLINKBASE
350
7D5
  3
INSUNITS
350
7DB
  3
LAYOUTDICT
350
7D7
  3
LWETCUNION
350
7DA
  3
PLOTSETDICT
350
7D8
  3
PLOTSTYLNAMDICT
350
7D9
  3
PSVPSCALE
350
7DF
  3
PUCSBASE
350
7E2
  3
PUCSORGBACK
350
7E8
  3
PUCSORGBOTTOM
350
7E4
  3
PUCSORGFRONT
350
7E7
  3
PUCSORGLEFT
350
7E5
  3
PUCSORGRIGHT
350
7E6
  3
PUCSORGTOP
350
7E3
  3
PUCSORTHOREF
350
7E0
  3
PUCSORTHOVIEW
350
7E1
  3
STYLESHEET
350
7D6
  3
TSTACKALIGN
350
7D3
  3
TSTACKSIZE
350
7D4
  3
UCSBASE
350
7EB
  3
UCSORGBACK
350
7F1
  3
UCSORGBOTTOM
350
7ED
  3
UCSORGFRONT
350
7F0
  3
UCSORGLEFT
350
7EE
  3
UCSORGRIGHT
350
7EF
  3
UCSORGTOP
350
7EC
  3
UCSORTHOREF
350
7E9
  3
UCSORTHOVIEW
350
7EA
  3
VERSIONGUID
350
7DE
  0
DICTIONARY
  5
7CF
102
{ACAD_REACTORS
330
C
102
}
330
C
100
AcDbDictionary
  3
DIMASSOC
350
7D0
  0
XRECORD
  5
7F5
102
{ACAD_REACTORS
330
7F4
102
}
330
7F4
100
AcDbXrecord
340
18
  0
XRECORD
  5
7F3
102
{ACAD_REACTORS
330
7F2
102
}
330
7F2
100
AcDbXrecord
340
15
  0
GROUP
  5
2BF
102
{ACAD_REACTORS
330
D
102
}
330
D
100
AcDbGroup
300
BORDER FRAME 10-1-95
 70
     3
 71
     1
  0
GROUP
  5
629
102
{ACAD_REACTORS
330
D
102
}
330
D
100
AcDbGroup
300

 70
     1
 71
     1
  0
MLINESTYLE
  5
1B
102
{ACAD_REACTORS
330
E
102
}
330
E
100
AcDbMlineStyle
  2
STANDARD
 70
     0
  3

 62
     0
 51
90.0
 52
90.0
 71
     2
 49
0.5
 62
   256
  6
BYLAYER
 49
-0.5
 62
   256
  6
BYLAYER
  0
ACDBPLACEHOLDER
  5
7C5
102
{ACAD_REACTORS
330
7C4
102
}
330
7C4
100
AcDbPlaceHolder
280
     0
  0
XRECORD
  5
7DC
102
{ACAD_REACTORS
330
7D2
102
}
330
7D2
100
AcDbXrecord
 90
        0
  0
XRECORD
  5
7DD
102
{ACAD_REACTORS
330
7D2
102
}
330
7D2
100
AcDbXrecord
  1
{597F1AC0-8DB4-11D6-88E6-0090279574E7}
  0
XRECORD
  5
7D5
102
{ACAD_REACTORS
330
7D2
102
}
330
7D2
100
AcDbXrecord
  1

  0
XRECORD
  5
7DB
102
{ACAD_REACTORS
330
7D2
102
}
330
7D2
100
AcDbXrecord
 90
        0
  0
XRECORD
  5
7D7
102
{ACAD_REACTORS
330
7D2
102
}
330
7D2
100
AcDbXrecord
340
7C6
  0
XRECORD
  5
7DA
102
{ACAD_REACTORS
330
7D2
102
}
330
7D2
100
AcDbXrecord
 90
    14877
  0
XRECORD
  5
7D8
102
{ACAD_REACTORS
330
7D2
102
}
330
7D2
100
AcDbXrecord
340
7C7
  0
XRECORD
  5
7D9
102
{ACAD_REACTORS
330
7D2
102
}
330
7D2
100
AcDbXrecord
340
7C4
  0
XRECORD
  5
7DF
102
{ACAD_REACTORS
330
7D2
102
}
330
7D2
100
AcDbXrecord
 40
0.0
  0
XRECORD
  5
7E2
102
{ACAD_REACTORS
330
7D2
102
}
330
7D2
100
AcDbXrecord
340
0
  0
XRECORD
  5
7E8
102
{ACAD_REACTORS
330
7D2
102
}
330
7D2
100
AcDbXrecord
 10
0.0
 20
0.0
 30
0.0
  0
XRECORD
  5
7E4
102
{ACAD_REACTORS
330
7D2
102
}
330
7D2
100
AcDbXrecord
 10
0.0
 20
0.0
 30
0.0
  0
XRECORD
  5
7E7
102
{ACAD_REACTORS
330
7D2
102
}
330
7D2
100
AcDbXrecord
 10
0.0
 20
0.0
 30
0.0
  0
XRECORD
  5
7E5
102
{ACAD_REACTORS
330
7D2
102
}
330
7D2
100
AcDbXrecord
 10
0.0
 20
0.0
 30
0.0
  0
XRECORD
  5
7E6
102
{ACAD_REACTORS
330
7D2
102
}
330
7D2
100
AcDbXrecord
 10
0.0
 20
0.0
 30
0.0
  0
XRECORD
  5
7E3
102
{ACAD_REACTORS
330
7D2
102
}
330
7D2
100
AcDbXrecord
 10
0.0
 20
0.0
 30
0.0
  0
XRECORD
  5
7E0
102
{ACAD_REACTORS
330
7D2
102
}
330
7D2
100
AcDbXrecord
340
0
  0
XRECORD
  5
7E1
102
{ACAD_REACTORS
330
7D2
102
}
330
7D2
100
AcDbXrecord
 70
     0
  0
XRECORD
  5
7D6
102
{ACAD_REACTORS
330
7D2
102
}
330
7D2
100
AcDbXrecord
  1

  0
XRECORD
  5
7D3
102
{ACAD_REACTORS
330
7D2
102
}
330
7D2
100
AcDbXrecord
 90
        1
  0
XRECORD
  5
7D4
102
{ACAD_REACTORS
330
7D2
102
}
330
7D2
100
AcDbXrecord
 90
       70
  0
XRECORD
  5
7EB
102
{ACAD_REACTORS
330
7D2
102
}
330
7D2
100
AcDbXrecord
340
0
  0
XRECORD
  5
7F1
102
{ACAD_REACTORS
330
7D2
102
}
330
7D2
100
AcDbXrecord
 10
0.0
 20
0.0
 30
0.0
  0
XRECORD
  5
7ED
102
{ACAD_REACTORS
330
7D2
102
}
330
7D2
100
AcDbXrecord
 10
0.0
 20
0.0
 30
0.0
  0
XRECORD
  5
7F0
102
{ACAD_REACTORS
330
7D2
102
}
330
7D2
100
AcDbXrecord
 10
0.0
 20
0.0
 30
0.0
  0
XRECORD
  5
7EE
102
{ACAD_REACTORS
330
7D2
102
}
330
7D2
100
AcDbXrecord
 10
0.0
 20
0.0
 30
0.0
  0
XRECORD
  5
7EF
102
{ACAD_REACTORS
330
7D2
102
}
330
7D2
100
AcDbXrecord
 10
0.0
 20
0.0
 30
0.0
  0
XRECORD
  5
7EC
102
{ACAD_REACTORS
330
7D2
102
}
330
7D2
100
AcDbXrecord
 10
0.0
 20
0.0
 30
0.0
  0
XRECORD
  5
7E9
102
{ACAD_REACTORS
330
7D2
102
}
330
7D2
100
AcDbXrecord
340
0
  0
XRECORD
  5
7EA
102
{ACAD_REACTORS
330
7D2
102
}
330
7D2
100
AcDbXrecord
 70
     0
  0
XRECORD
  5
7DE
102
{ACAD_REACTORS
330
7D2
102
}
330
7D2
100
AcDbXrecord
  1
{597F1AC2-8DB4-11D6-88E6-0090279574E7}
  0
DICTIONARYVAR
  5
7D0
102
{ACAD_REACTORS
330
7CF
102
}
330
7CF
100
DictionaryVariables
280
     0
  1
1
  0
ENDSEC
  0
EOF
