  0
SECTION
  2
HEADER
  9
$ACADVER
  1
AC1014
  9
$ACADMAINTVER
 70
     9
  9
$DWGCODEPAGE
  3
ANSI_1252
  9
$INSBASE
 10
0.0
 20
0.0
 30
0.0
  9
$EXTMIN
 10
0.6723864321739271
 20
0.8004234308893753
 30
0.0
  9
$EXTMAX
 10
4.157605753921056
 20
2.046401328926655
 30
0.0
  9
$LIMMIN
 10
0.0
 20
0.0
  9
$LIMMAX
 10
11.0
 20
8.5
  9
$ORTHOMODE
 70
     1
  9
$REGENMODE
 70
     1
  9
$FILLMODE
 70
     1
  9
$QTEXTMODE
 70
     0
  9
$MIRRTEXT
 70
     0
  9
$DRAGMODE
 70
     2
  9
$LTSCALE
 40
1.0
  9
$OSMODE
 70
    39
  9
$ATTMODE
 70
     1
  9
$TEXTSIZE
 40
0.125
  9
$TRACEWID
 40
0.05
  9
$TEXTSTYLE
  7
ROMANS
  9
$CLAYER
  8
DIM
  9
$CELTYPE
  6
BYLAYER
  9
$CECOLOR
 62
   256
  9
$CELTSCALE
 40
1.0
  9
$DELOBJ
 70
     1
  9
$DISPSILH
 70
     1
  9
$DIMSCALE
 40
1.0
  9
$DIMASZ
 40
0.125
  9
$DIMEXO
 40
0.125
  9
$DIMDLI
 40
0.375
  9
$DIMRND
 40
0.0
  9
$DIMDLE
 40
0.0
  9
$DIMEXE
 40
0.125
  9
$DIMTP
 40
0.0
  9
$DIMTM
 40
0.0
  9
$DIMTXT
 40
0.125
  9
$DIMCEN
 40
-0.125
  9
$DIMTSZ
 40
0.0
  9
$DIMTOL
 70
     0
  9
$DIMLIM
 70
     0
  9
$DIMTIH
 70
     1
  9
$DIMTOH
 70
     1
  9
$DIMSE1
 70
     0
  9
$DIMSE2
 70
     0
  9
$DIMTAD
 70
     0
  9
$DIMZIN
 70
     4
  9
$DIMBLK
  1

  9
$DIMASO
 70
     1
  9
$DIMSHO
 70
     1
  9
$DIMPOST
  1

  9
$DIMAPOST
  1

  9
$DIMALT
 70
     0
  9
$DIMALTD
 70
     2
  9
$DIMALTF
 40
25.4
  9
$DIMLFAC
 40
0.25
  9
$DIMTOFL
 70
     0
  9
$DIMTVP
 40
0.0
  9
$DIMTIX
 70
     1
  9
$DIMSOXD
 70
     0
  9
$DIMSAH
 70
     0
  9
$DIMBLK1
  1

  9
$DIMBLK2
  1

  9
$DIMSTYLE
  2
STANDARD
  9
$DIMCLRD
 70
     0
  9
$DIMCLRE
 70
     0
  9
$DIMCLRT
 70
     0
  9
$DIMTFAC
 40
1.0
  9
$DIMGAP
 40
0.09
  9
$DIMJUST
 70
     0
  9
$DIMSD1
 70
     0
  9
$DIMSD2
 70
     0
  9
$DIMTOLJ
 70
     1
  9
$DIMTZIN
 70
     0
  9
$DIMALTZ
 70
     0
  9
$DIMALTTZ
 70
     0
  9
$DIMFIT
 70
     3
  9
$DIMUPT
 70
     0
  9
$DIMUNIT
 70
     2
  9
$DIMDEC
 70
     3
  9
$DIMTDEC
 70
     4
  9
$DIMALTU
 70
     2
  9
$DIMALTTD
 70
     2
  9
$DIMTXSTY
  7
ROMANS
  9
$DIMAUNIT
 70
     0
  9
$LUNITS
 70
     2
  9
$LUPREC
 70
     3
  9
$SKETCHINC
 40
0.1
  9
$FILLETRAD
 40
0.0
  9
$AUNITS
 70
     0
  9
$AUPREC
 70
     0
  9
$MENU
  1
AUTOMSTR
  9
$ELEVATION
 40
0.0
  9
$PELEVATION
 40
0.0
  9
$THICKNESS
 40
0.0
  9
$LIMCHECK
 70
     0
  9
$BLIPMODE
 70
     0
  9
$CHAMFERA
 40
0.0
  9
$CHAMFERB
 40
0.0
  9
$CHAMFERC
 40
0.0
  9
$CHAMFERD
 40
0.0
  9
$SKPOLY
 70
     0
  9
$TDCREATE
 40
2448336.483688194
  9
$TDUPDATE
 40
2452458.297156076
  9
$TDINDWG
 40
0.1006867593
  9
$TDUSRTIMER
 40
0.1006867593
  9
$USRTIMER
 70
     1
  9
$ANGBASE
 50
0.0
  9
$ANGDIR
 70
     0
  9
$PDMODE
 70
     0
  9
$PDSIZE
 40
0.0
  9
$PLINEWID
 40
0.0
  9
$COORDS
 70
     2
  9
$SPLFRAME
 70
     0
  9
$SPLINETYPE
 70
     6
  9
$SPLINESEGS
 70
     8
  9
$ATTDIA
 70
     0
  9
$ATTREQ
 70
     1
  9
$HANDLING
 70
 22529
  9
$HANDSEED
  5
52A
  9
$SURFTAB1
 70
     6
  9
$SURFTAB2
 70
     6
  9
$SURFTYPE
 70
     6
  9
$SURFU
 70
     6
  9
$SURFV
 70
     6
  9
$UCSNAME
  2

  9
$UCSORG
 10
0.0
 20
0.0
 30
0.0
  9
$UCSXDIR
 10
1.0
 20
0.0
 30
0.0
  9
$UCSYDIR
 10
0.0
 20
1.0
 30
0.0
  9
$PUCSNAME
  2

  9
$PUCSORG
 10
0.0
 20
0.0
 30
0.0
  9
$PUCSXDIR
 10
1.0
 20
0.0
 30
0.0
  9
$PUCSYDIR
 10
0.0
 20
1.0
 30
0.0
  9
$USERI1
 70
     0
  9
$USERI2
 70
     0
  9
$USERI3
 70
     0
  9
$USERI4
 70
     0
  9
$USERI5
 70
     0
  9
$USERR1
 40
0.0
  9
$USERR2
 40
0.0
  9
$USERR3
 40
0.0
  9
$USERR4
 40
0.0
  9
$USERR5
 40
0.0
  9
$WORLDVIEW
 70
     1
  9
$SHADEDGE
 70
     3
  9
$SHADEDIF
 70
    70
  9
$TILEMODE
 70
     1
  9
$MAXACTVP
 70
    16
  9
$PINSBASE
 10
0.0
 20
0.0
 30
0.0
  9
$PLIMCHECK
 70
     0
  9
$PEXTMIN
 10
1.000000000000000E+20
 20
1.000000000000000E+20
 30
1.000000000000000E+20
  9
$PEXTMAX
 10
-1.000000000000000E+20
 20
-1.000000000000000E+20
 30
-1.000000000000000E+20
  9
$PLIMMIN
 10
0.0
 20
0.0
  9
$PLIMMAX
 10
12.0
 20
9.0
  9
$UNITMODE
 70
     0
  9
$VISRETAIN
 70
     0
  9
$PLINEGEN
 70
     1
  9
$PSLTSCALE
 70
     0
  9
$TREEDEPTH
 70
  3020
  9
$PICKSTYLE
 70
     1
  9
$CMLSTYLE
  2
STANDARD
  9
$CMLJUST
 70
     0
  9
$CMLSCALE
 40
1.0
  9
$PROXYGRAPHICS
 70
     1
  9
$MEASUREMENT
 70
     0
  0
ENDSEC
  0
SECTION
  2
CLASSES
  0
CLASS
  1
LWPOLYLINE
  2
AcDbPolyline
  3
AutoCAD 2000
 90
        0
280
     0
281
     1
  0
CLASS
  1
ACDBDICTIONARYWDFLT
  2
AcDbDictionaryWithDefault
  3
AutoCAD 2000
 90
        0
280
     0
281
     0
  0
CLASS
  1
ACDBPLACEHOLDER
  2
AcDbPlaceHolder
  3
AutoCAD 2000
 90
        0
280
     0
281
     0
  0
CLASS
  1
LAYOUT
  2
AcDbLayout
  3
AutoCAD 2000
 90
        0
280
     0
281
     0
  0
CLASS
  1
DICTIONARYVAR
  2
AcDbDictionaryVar
  3
AutoCAD 2000
 90
        0
280
     0
281
     0
  0
CLASS
  1
LONG_TRANSACTION
  2
AcDbLongTransaction
  3
AutoCAD 2000
 90
        0
280
     0
281
     0
  0
CLASS
  1
LWPOLYLINE
  2
AcDbPolyline
  3
AutoCAD 2000
 90
        0
280
     0
281
     1
  0
CLASS
  1
HATCH
  2
AcDbHatch
  3
AutoCAD 2000
 90
        0
280
     0
281
     1
  0
CLASS
  1
XRECORD
  2
AcDbXrecord
  3
AutoCAD 2000
 90
        0
280
     0
281
     0
  0
ENDSEC
  0
SECTION
  2
TABLES
  0
TABLE
  2
VPORT
  5
8
330
0
100
AcDbSymbolTable
 70
     2
  0
VPORT
  5
505
330
8
100
AcDbSymbolTableRecord
100
AcDbViewportTableRecord
  2
*ACTIVE
 70
     0
 10
0.0
 20
0.0
 11
1.0
 21
1.0
 12
5.33739338994177
 22
1.417034165662519
 13
0.0
 23
0.0
 14
0.25
 24
0.25
 15
0.0
 25
0.0
 16
0.0
 26
0.0
 36
1.0
 17
0.0
 27
0.0
 37
0.0
 40
2.16366050901357
 41
4.320930232558139
 42
50.0
 43
0.0
 44
0.0
 50
0.0
 51
0.0
 71
     0
 72
  2000
 73
     1
 74
     1
 75
     0
 76
     0
 77
     0
 78
     0
  0
ENDTAB
  0
TABLE
  2
LTYPE
  5
5
330
0
100
AcDbSymbolTable
 70
     1
  0
LTYPE
  5
12
330
5
100
AcDbSymbolTableRecord
100
AcDbLinetypeTableRecord
  2
BYBLOCK
 70
     0
  3

 72
    65
 73
     0
 40
0.0
  0
LTYPE
  5
13
330
5
100
AcDbSymbolTableRecord
100
AcDbLinetypeTableRecord
  2
BYLAYER
 70
     0
  3

 72
    65
 73
     0
 40
0.0
  0
LTYPE
  5
14
330
5
100
AcDbSymbolTableRecord
100
AcDbLinetypeTableRecord
  2
CONTINUOUS
 70
     0
  3
Solid line
 72
    65
 73
     0
 40
0.0
  0
ENDTAB
  0
TABLE
  2
LAYER
  5
2
330
0
100
AcDbSymbolTable
 70
     3
  0
LAYER
  5
F
330
2
100
AcDbSymbolTableRecord
100
AcDbLayerTableRecord
  2
0
 70
     0
 62
     7
  6
CONTINUOUS
  0
LAYER
  5
2B
330
2
100
AcDbSymbolTableRecord
100
AcDbLayerTableRecord
  2
DIM
 70
     0
 62
     4
  6
CONTINUOUS
  0
LAYER
  5
2C
330
2
100
AcDbSymbolTableRecord
100
AcDbLayerTableRecord
  2
TEXT
 70
     0
 62
     3
  6
CONTINUOUS
  0
ENDTAB
  0
TABLE
  2
STYLE
  5
3
330
0
100
AcDbSymbolTable
 70
     3
  0
STYLE
  5
10
330
3
100
AcDbSymbolTableRecord
100
AcDbTextStyleTableRecord
  2
STANDARD
 70
     0
 40
0.0
 41
1.0
 50
0.0
 71
     0
 42
0.125
  3
txt
  4

  0
STYLE
  5
3F1
330
3
100
AcDbSymbolTableRecord
100
AcDbTextStyleTableRecord
  2
ITALICC
 70
     0
 40
0.0
 41
1.0
 50
0.0
 71
     0
 42
0.125
  3
italicc
  4

  0
STYLE
  5
501
330
3
100
AcDbSymbolTableRecord
100
AcDbTextStyleTableRecord
  2
ROMANS
 70
     0
 40
0.0
 41
1.0
 50
0.0
 71
     0
 42
0.125
  3
romans.shx
  4

  0
ENDTAB
  0
TABLE
  2
VIEW
  5
6
330
0
100
AcDbSymbolTable
 70
     0
  0
ENDTAB
  0
TABLE
  2
UCS
  5
7
330
0
100
AcDbSymbolTable
 70
     0
  0
ENDTAB
  0
TABLE
  2
APPID
  5
9
330
0
100
AcDbSymbolTable
 70
     1
  0
APPID
  5
11
330
9
100
AcDbSymbolTableRecord
100
AcDbRegAppTableRecord
  2
ACAD
 70
     0
  0
ENDTAB
  0
TABLE
  2
DIMSTYLE
  5
A
330
0
100
AcDbSymbolTable
 70
     1
  0
DIMSTYLE
105
3E4
330
A
100
AcDbSymbolTableRecord
100
AcDbDimStyleTableRecord
  2
STANDARD
 70
     0
  3

  4

  5

  6

  7

 40
1.0
 41
0.18
 42
0.0625
 43
0.38
 44
0.18
 45
0.0
 46
0.0
 47
0.0
 48
0.0
140
0.18
141
0.09
142
0.0
143
25.4
144
1.0
145
0.0
146
1.0
147
0.09
 71
     0
 72
     0
 73
     1
 74
     1
 75
     0
 76
     0
 77
     0
 78
     0
170
     0
171
     2
172
     0
173
     0
174
     0
175
     0
176
     0
177
     0
178
     0
270
     2
271
     4
272
     4
273
     2
274
     2
340
10
275
     0
280
     0
281
     0
282
     0
283
     1
284
     0
285
     0
286
     0
287
     3
288
     0
  0
ENDTAB
  0
TABLE
  2
BLOCK_RECORD
  5
1
330
0
100
AcDbSymbolTable
 70
     0
  0
BLOCK_RECORD
  5
18
102
{ACAD_XDICTIONARY
360
528
102
}
330
1
100
AcDbSymbolTableRecord
100
AcDbBlockTableRecord
  2
*MODEL_SPACE
  0
BLOCK_RECORD
  5
15
102
{ACAD_XDICTIONARY
360
526
102
}
330
1
100
AcDbSymbolTableRecord
100
AcDbBlockTableRecord
  2
*PAPER_SPACE
  0
ENDTAB
  0
ENDSEC
  0
SECTION
  2
BLOCKS
  0
BLOCK
  5
35
330
18
100
AcDbEntity
  8
0
100
AcDbBlockBegin
  2
*MODEL_SPACE
 70
     0
 10
0.0
 20
0.0
 30
0.0
  3
*MODEL_SPACE
  1

  0
ENDBLK
  5
36
330
18
100
AcDbEntity
  8
0
100
AcDbBlockEnd
  0
BLOCK
  5
33
330
15
100
AcDbEntity
 67
     1
  8
0
100
AcDbBlockBegin
  2
*PAPER_SPACE
 70
     0
 10
0.0
 20
0.0
 30
0.0
  3
*PAPER_SPACE
  1

  0
ENDBLK
  5
34
330
15
100
AcDbEntity
 67
     1
  8
0
100
AcDbBlockEnd
  0
ENDSEC
  0
SECTION
  2
ENTITIES
  0
LWPOLYLINE
  5
341
330
18
100
AcDbEntity
  8
0
100
AcDbPolyline
 90
       22
 70
     1
 43
0.0
 10
2.683763124085988
 20
1.916959590685061
 10
2.683763124085988
 20
1.666959590685061
 10
2.965013124085988
 20
1.666959590685061
 42
-1.0
 10
2.965013124085988
 20
1.604459590685061
 10
2.446707297910145
 20
1.604459590685061
 42
-0.198912367379658
 10
2.424610210998066
 20
1.613612503772982
 10
2.058112646580632
 20
1.980110068190415
 42
-1.000000000000007
 10
2.102306820404791
 20
2.024304242014575
 10
2.301180602613507
 20
1.825430459805858
 10
2.38249788244996
 20
1.906747739642311
 10
2.396640018073691
 20
1.906747739642311
 10
2.396640018073692
 20
1.920889875266043
 10
2.477957297910144
 20
2.002207155102495
 10
2.527661186180501
 20
1.952503266832138
 10
2.524413375263207
 20
1.927833693699748
 42
0.548917155560012
 10
2.476309291494411
 20
1.811700162259586
 10
2.438770815860865
 20
1.721074265274268
 10
2.469385490450073
 20
1.690459590685061
 10
2.512681178461769
 20
1.690459590685061
 10
2.550219654095309
 20
1.781085487670373
 42
0.5489171555600729
 10
2.598323737864113
 20
1.897219019110542
 10
2.613471211191372
 20
1.916959590685061
  0
TEXT
  5
477
330
18
100
AcDbEntity
  8
TEXT
100
AcDbText
 10
1.662391820924879
 20
1.258442034971956
 30
0.0
 40
0.125
  1
PART #110142
  7
ITALICC
 72
     1
 11
2.41536801140107
 21
1.258442034971956
 31
0.0
100
AcDbText
  0
LINE
  5
478
330
18
100
AcDbEntity
  8
TEXT
100
AcDbLine
 10
2.570682641424453
 20
1.078365043608888
 30
0.0
 11
2.523584482868469
 21
1.00249971719735
 31
0.0
  0
LINE
  5
479
330
18
100
AcDbEntity
  8
TEXT
100
AcDbLine
 10
2.523584482868469
 20
1.00249971719735
 30
0.0
 11
2.523584482868469
 21
1.143829249376489
 31
0.0
  0
LINE
  5
47A
330
18
100
AcDbEntity
  8
TEXT
100
AcDbLine
 10
2.523584482868469
 20
1.143829249376489
 30
0.0
 11
2.455269604319195
 21
1.143829249376489
 31
0.0
  0
LINE
  5
47B
330
18
100
AcDbEntity
  8
TEXT
100
AcDbLine
 10
2.455269604319195
 20
1.143829249376489
 30
0.0
 11
2.45526960431919
 21
1.078365043608888
 31
0.0
  0
LINE
  5
47C
330
18
100
AcDbEntity
  8
TEXT
100
AcDbLine
 10
2.581117358188376
 20
0.9684718006679151
 30
0.0
 11
2.645674474154081
 21
1.078365043608888
 31
0.0
  0
LINE
  5
47D
330
18
100
AcDbEntity
  8
TEXT
100
AcDbLine
 10
2.645674474154081
 20
1.078365043608888
 30
0.0
 11
2.570682641424455
 21
1.078365043608888
 31
0.0
  0
LINE
  5
47E
330
18
100
AcDbEntity
  8
TEXT
100
AcDbLine
 10
2.459749491645696
 20
0.8118920106203777
 30
0.0
 11
2.524127675964316
 21
0.8118920106203777
 31
0.0
  0
LINE
  5
47F
330
18
100
AcDbEntity
  8
TEXT
100
AcDbLine
 10
2.524127675964316
 20
0.8118920106203777
 30
0.0
 11
2.524127675964316
 21
0.9434715790965579
 31
0.0
  0
LINE
  5
480
330
18
100
AcDbEntity
  8
TEXT
100
AcDbLine
 10
2.524127675964316
 20
0.9434715790965579
 30
0.0
 11
2.600031209175781
 21
0.8118920106203777
 31
0.0
  0
LINE
  5
481
330
18
100
AcDbEntity
  8
TEXT
100
AcDbLine
 10
2.600031209175781
 20
0.8118920106203777
 30
0.0
 11
2.676609581551987
 21
0.8118920106203777
 31
0.0
  0
LINE
  5
482
330
18
100
AcDbEntity
  8
TEXT
100
AcDbLine
 10
2.45974949164569
 20
1.014088348952123
 30
0.0
 11
2.459749491645696
 21
0.8118920106203777
 31
0.0
  0
LINE
  5
483
330
18
100
AcDbEntity
  8
TEXT
100
AcDbLine
 10
2.676609581551987
 20
0.8118920106203777
 30
0.0
 11
2.581117358188376
 21
0.9684718006679151
 31
0.0
  0
ARC
  5
484
330
18
100
AcDbEntity
  8
TEXT
100
AcDbCircle
 10
2.383101510353132
 20
0.9891824736694605
 30
0.0
 40
0.0249058752826653
100
AcDbArc
 50
89.99971217465335
 51
179.9999999999985
  0
ARC
  5
485
330
18
100
AcDbEntity
  8
TEXT
100
AcDbCircle
 10
2.390990467292709
 20
1.047119316326623
 30
0.0
 40
0.0314112657011332
100
AcDbArc
 50
95.88484768694724
 51
173.2388340632136
  0
LINE
  5
486
330
18
100
AcDbEntity
  8
TEXT
100
AcDbLine
 10
2.359797650229601
 20
1.050817393748014
 30
0.0
 11
2.359797650229601
 21
1.078365043608888
 31
0.0
  0
LINE
  5
487
330
18
100
AcDbEntity
  8
TEXT
100
AcDbLine
 10
2.359797650229601
 20
1.078365043608888
 30
0.0
 11
2.2959007439301
 21
1.078365043608888
 31
0.0
  0
LINE
  5
488
330
18
100
AcDbEntity
  8
TEXT
100
AcDbLine
 10
2.2959007439301
 20
1.078365043608888
 30
0.0
 11
2.2959007439301
 21
0.9731530650554613
 31
0.0
  0
LINE
  5
489
330
18
100
AcDbEntity
  8
TEXT
100
AcDbLine
 10
2.216940805055059
 20
1.078365043608888
 30
0.0
 11
2.082108895838
 21
1.078365043608888
 31
0.0
  0
LINE
  5
48A
330
18
100
AcDbEntity
  8
TEXT
100
AcDbLine
 10
2.082108895838
 20
1.078365043608888
 30
0.0
 11
2.082108895838
 21
1.050042497839244
 31
0.0
  0
LINE
  5
48B
330
18
100
AcDbEntity
  8
TEXT
100
AcDbLine
 10
2.141422992231318
 20
0.976813375489991
 30
0.0
 11
2.223710982014702
 21
0.976813375489991
 31
0.0
  0
LINE
  5
48C
330
18
100
AcDbEntity
  8
TEXT
100
AcDbLine
 10
2.223710982014702
 20
0.976813375489991
 30
0.0
 11
2.213446221601137
 21
0.9980639150626853
 31
0.0
  0
LINE
  5
48D
330
18
100
AcDbEntity
  8
TEXT
100
AcDbLine
 10
2.18790990671058
 20
1.014088348952123
 30
0.0
 11
2.080703633323291
 21
1.014088348952123
 31
0.0
  0
ARC
  5
48E
330
18
100
AcDbEntity
  8
TEXT
100
AcDbCircle
 10
2.187909906710579
 20
0.9857289739521259
 30
0.0
 40
0.028359375
100
AcDbArc
 50
25.78218179591245
 51
90.0
  0
LINE
  5
48F
330
18
100
AcDbEntity
  8
TEXT
100
AcDbLine
 10
2.2959007439301
 20
0.9731530650554613
 30
0.0
 11
2.252149972748198
 21
1.055403341051606
 31
0.0
  0
ARC
  5
490
330
18
100
AcDbEntity
  8
TEXT
100
AcDbCircle
 10
2.21491386527799
 20
1.036781476487986
 30
0.0
 40
0.0416329381542859
100
AcDbArc
 50
26.56974201007528
 51
87.20939649401342
  0
LWPOLYLINE
  5
491
330
18
100
AcDbEntity
  8
TEXT
100
AcDbPolyline
 90
        2
 70
     0
 43
0.0
 10
2.299840421235138
 20
0.8553829555708158
 42
-0.2901071551932486
 10
2.256764488367494
 20
0.8118920106203777
 42
-5.328517124445184
  0
LWPOLYLINE
  5
492
330
18
100
AcDbEntity
  8
TEXT
100
AcDbPolyline
 90
        2
 70
     0
 43
0.0
 10
2.299840421235138
 20
0.8553829555708158
 10
2.299840421235138
 20
0.8118920106203777
  0
LWPOLYLINE
  5
493
330
18
100
AcDbEntity
  8
TEXT
100
AcDbPolyline
 90
        2
 70
     0
 43
0.0
 10
2.299840421235138
 20
0.8118920106203777
 10
2.358195635070472
 20
0.8118920106203777
  0
LWPOLYLINE
  5
494
330
18
100
AcDbEntity
  8
TEXT
100
AcDbPolyline
 90
        2
 70
     0
 43
0.0
 10
2.079671137868482
 20
0.8553829555708158
 42
0.2901071551932823
 10
2.122747070736117
 20
0.8118920106203777
 42
5.328517124445801
  0
LWPOLYLINE
  5
495
330
18
100
AcDbEntity
  8
TEXT
100
AcDbPolyline
 90
        2
 70
     0
 43
0.0
 10
2.122747070736117
 20
0.8118920106203777
 10
2.256764488367494
 20
0.8118920106203777
 42
0.9999999999999998
  0
LWPOLYLINE
  5
496
330
18
100
AcDbEntity
  8
TEXT
100
AcDbPolyline
 90
        4
 70
     1
 43
0.0
 10
2.236642023297601
 20
0.9148559886044029
 10
2.147981704637743
 20
0.9148559886044029
 42
0.9999999999999998
 10
2.147981704637743
 20
0.8724574481005422
 10
2.236642023297601
 20
0.8724574481005422
 42
1.0
  0
ARC
  5
497
330
18
100
AcDbEntity
  8
TEXT
100
AcDbCircle
 10
2.141422992231317
 20
0.9091277943458724
 30
0.0
 40
0.0676855811441166
100
AcDbArc
 50
90.0
 51
153.7768192527749
  0
LINE
  5
498
330
18
100
AcDbEntity
  8
TEXT
100
AcDbLine
 10
2.358195635070473
 20
0.8118920106203777
 30
0.0
 11
2.358195635070468
 21
0.9891825160518461
 31
0.0
  0
LINE
  5
499
330
18
100
AcDbEntity
  8
TEXT
100
AcDbLine
 10
2.080703633323291
 20
1.014088348952123
 30
0.0
 11
2.080703633323291
 21
0.9390359428779166
 31
0.0
  0
LINE
  5
49A
330
18
100
AcDbEntity
  8
TEXT
100
AcDbLine
 10
2.383101510353133
 20
1.014088348952123
 30
0.0
 11
2.45974949164569
 21
1.014088348952123
 31
0.0
  0
LINE
  5
49B
330
18
100
AcDbEntity
  8
TEXT
100
AcDbLine
 10
2.45526960431919
 20
1.078365043608888
 30
0.0
 11
2.387769886669674
 21
1.078365043608888
 31
0.0
  0
LWPOLYLINE
  5
49C
330
18
100
AcDbEntity
  8
TEXT
100
AcDbPolyline
 90
        2
 70
     0
 43
0.0
 10
1.874893632545607
 20
1.014088348952123
 42
-0.4142135623731017
 10
1.88244742171172
 20
1.006534559786013
 42
-0.9999999999999998
  0
LWPOLYLINE
  5
49D
330
18
100
AcDbEntity
  8
TEXT
100
AcDbPolyline
 90
        2
 70
     0
 43
0.0
 10
2.00363906541451
 20
1.014088348952123
 42
-0.4142135623731017
 10
2.011192854580624
 20
1.006534559786013
 42
-0.9999999999999998
  0
LWPOLYLINE
  5
49E
330
18
100
AcDbEntity
  8
TEXT
100
AcDbPolyline
 90
        2
 70
     0
 43
0.0
 10
1.892245355595628
 20
1.078365043608892
 42
-0.3328679258950098
 10
1.928027046308789
 20
1.051197546847996
 42
6.772930709997214
  0
LWPOLYLINE
  5
49F
330
18
100
AcDbEntity
  8
TEXT
100
AcDbPolyline
 90
        3
 70
     0
 43
0.0
 10
2.046327205124834
 20
1.078365043608892
 10
1.928027046308789
 20
1.078365043608892
 10
1.928027046308789
 20
1.051197546847996
 42
-1.960274751411753
  0
LINE
  5
4A0
330
18
100
AcDbEntity
  8
TEXT
100
AcDbLine
 10
1.949505468493561
 20
1.014088348952123
 30
0.0
 11
2.003639065414511
 21
1.014088348952123
 31
0.0
  0
LINE
  5
4A1
330
18
100
AcDbEntity
  8
TEXT
100
AcDbLine
 10
1.82505835272246
 20
1.014088348952123
 30
0.0
 11
1.874893632545608
 21
1.014088348952123
 31
0.0
  0
LINE
  5
4A2
330
18
100
AcDbEntity
  8
TEXT
100
AcDbLine
 10
1.892245355595627
 20
1.078365043608888
 30
0.0
 11
1.758227299664491
 21
1.078365043608888
 31
0.0
  0
LINE
  5
4A3
330
18
100
AcDbEntity
  8
TEXT
100
AcDbLine
 10
1.882447421711721
 20
0.8118920106203777
 30
0.0
 11
1.949505468493561
 21
0.8118920106203777
 31
0.0
  0
LINE
  5
4A4
330
18
100
AcDbEntity
  8
TEXT
100
AcDbLine
 10
1.727055019023025
 20
0.8118920106203777
 30
0.0
 11
1.82505835272246
 21
0.8118920106203777
 31
0.0
  0
LINE
  5
4A5
330
18
100
AcDbEntity
  8
TEXT
100
AcDbLine
 10
1.758227299664491
 20
0.8775008368764805
 30
0.0
 11
1.741233662779889
 21
0.8775008368764805
 31
0.0
  0
ARC
  5
4A6
330
18
100
AcDbEntity
  8
TEXT
100
AcDbCircle
 10
1.741233662779889
 20
0.8928826431199059
 30
0.0
 40
0.0153818062434269
100
AcDbArc
 50
174.7883570302258
 51
270.0
  0
LINE
  5
4A7
330
18
100
AcDbEntity
  8
TEXT
100
AcDbLine
 10
1.82505835272246
 20
0.8118920106203777
 30
0.0
 11
1.82505835272246
 21
1.014088348952123
 31
0.0
  0
LINE
  5
4A8
330
18
100
AcDbEntity
  8
TEXT
100
AcDbLine
 10
1.882447421711721
 20
1.006534559786013
 30
0.0
 11
1.882447421711721
 21
0.8118920106203777
 31
0.0
  0
LINE
  5
4A9
330
18
100
AcDbEntity
  8
TEXT
100
AcDbLine
 10
1.949505468493561
 20
0.8118920106203777
 30
0.0
 11
1.949505468493561
 21
1.014088348952123
 31
0.0
  0
LINE
  5
4AA
330
18
100
AcDbEntity
  8
TEXT
100
AcDbLine
 10
1.758227299664491
 20
1.078365043608888
 30
0.0
 11
1.758227299664491
 21
0.8775008368764805
 31
0.0
  0
LINE
  5
4AB
330
18
100
AcDbEntity
  8
TEXT
100
AcDbLine
 10
1.725915445526831
 20
0.8942798487233769
 30
0.0
 11
1.725915445526831
 21
1.146376521347699
 31
0.0
  0
LINE
  5
4AC
330
18
100
AcDbEntity
  8
TEXT
100
AcDbLine
 10
1.659106732960466
 20
1.146376521347699
 30
0.0
 11
1.659106732960466
 21
1.078365043608888
 31
0.0
  0
LINE
  5
4AD
330
18
100
AcDbEntity
  8
TEXT
100
AcDbLine
 10
1.659106732960466
 20
1.078365043608888
 30
0.0
 11
1.628984820167089
 21
1.078365043608888
 31
0.0
  0
LINE
  5
4AE
330
18
100
AcDbEntity
  8
TEXT
100
AcDbLine
 10
1.628984820167089
 20
1.078365043608888
 30
0.0
 11
1.570236257361224
 21
0.9774930474957681
 31
0.0
  0
LINE
  5
4AF
330
18
100
AcDbEntity
  8
TEXT
100
AcDbLine
 10
1.570236257361224
 20
0.9774930474957681
 30
0.0
 11
1.511605936329286
 21
1.078365043608888
 31
0.0
  0
LINE
  5
4B0
330
18
100
AcDbEntity
  8
TEXT
100
AcDbLine
 10
1.439806970185379
 20
1.078365043608888
 30
0.0
 11
1.439806970185379
 21
1.112752961203026
 31
0.0
  0
LINE
  5
4B1
330
18
100
AcDbEntity
  8
TEXT
100
AcDbLine
 10
1.439806970185379
 20
1.112752961203026
 30
0.0
 11
1.379764365341372
 21
1.112752961203026
 31
0.0
  0
LINE
  5
4B2
330
18
100
AcDbEntity
  8
TEXT
100
AcDbLine
 10
1.379764365341372
 20
1.112752961203026
 30
0.0
 11
1.379764365341372
 21
1.078365043608888
 31
0.0
  0
LINE
  5
4B3
330
18
100
AcDbEntity
  8
TEXT
100
AcDbLine
 10
1.511605936329286
 20
1.078365043608888
 30
0.0
 11
1.439806970185379
 21
1.078365043608888
 31
0.0
  0
ARC
  5
4B4
330
18
100
AcDbEntity
  8
TEXT
100
AcDbCircle
 10
1.526592460452055
 20
0.8514397328940734
 30
0.0
 40
0.0392772371940762
100
AcDbArc
 50
270.1604552698595
 51
330.0831797321295
  0
ARC
  5
4B5
330
18
100
AcDbEntity
  8
TEXT
100
AcDbCircle
 10
1.436291614559831
 20
0.8716844019584275
 30
0.0
 40
0.0601160179737537
100
AcDbArc
 50
180.0000000000003
 51
264.0521544866073
  0
LINE
  5
4B6
330
18
100
AcDbEntity
  8
TEXT
100
AcDbLine
 10
1.430062204066184
 20
0.8118920106203777
 30
0.0
 11
1.526702455141179
 21
0.81216264971866
 31
0.0
  0
LWPOLYLINE
  5
4B7
330
18
100
AcDbEntity
  8
TEXT
100
AcDbPolyline
 90
        6
 70
     1
 43
0.0
 10
1.472586007641334
 20
1.014088348952123
 10
1.442269413421126
 20
1.014088348952123
 10
1.442269413421126
 20
0.8909773508972289
 42
0.407328721240804
 10
1.453813064582602
 20
0.8791584362208428
 10
1.514434763627333
 20
0.8791584362208428
 10
1.531900104034651
 20
0.911970665264322
  0
LINE
  5
4B8
330
18
100
AcDbEntity
  8
TEXT
100
AcDbLine
 10
1.376175596586079
 20
1.014088348952123
 30
0.0
 11
1.376175596586079
 21
0.8716844019584275
 31
0.0
  0
LINE
  5
4B9
330
18
100
AcDbEntity
  8
TEXT
100
AcDbLine
 10
1.560636020364269
 20
0.8318505167253906
 30
0.0
 11
1.657935726457714
 21
0.9962007276606588
 31
0.0
  0
LINE
  5
4BA
330
18
100
AcDbEntity
  8
TEXT
100
AcDbLine
 10
1.657935726457714
 20
0.9962007276606588
 30
0.0
 11
1.657935726457714
 21
0.8634433528353024
 31
0.0
  0
LWPOLYLINE
  5
4BB
330
18
100
AcDbEntity
  8
TEXT
100
AcDbPolyline
 90
        2
 70
     0
 43
0.0
 10
1.657935726457713
 20
0.863443352835306
 42
0.3318488747599744
 10
1.727055019023026
 20
0.8118920106203777
 42
-6.868794160588311
  0
LINE
  5
4BC
330
18
100
AcDbEntity
  8
TEXT
100
AcDbLine
 10
1.725915445526831
 20
1.146376521347699
 30
0.0
 11
1.659106732960466
 21
1.146376521347699
 31
0.0
  0
LWPOLYLINE
  5
4BD
330
18
100
AcDbEntity
  8
TEXT
100
AcDbPolyline
 90
        4
 70
     0
 43
0.0
 10
2.011192854580624
 20
1.006534559786013
 10
2.011192854580624
 20
0.8118920106203777
 10
2.079671137868482
 20
0.8118920106203777
 10
2.079671137868482
 20
0.8553829555708158
 42
-1.714843617202739
  0
LWPOLYLINE
  5
4BE
330
18
100
AcDbEntity
  8
TEXT
100
AcDbPolyline
 90
        2
 70
     0
 43
0.0
 10
2.046327205124834
 20
1.078365043608892
 42
-0.3277054968067132
 10
2.082108895837999
 20
1.050042497839248
 42
6.667889725900311
  0
TEXT
  5
4BF
330
18
100
AcDbEntity
  8
TEXT
100
AcDbText
 10
2.828673169651391
 20
0.9047778192658739
 30
0.0
 40
0.0522247191011236
  1
Minneapolis, MN 55432-0008
 41
1.11444212721585
 72
     5
 11
4.157605753921055
 21
0.9047778192658739
 31
0.0
100
AcDbText
  0
TEXT
  5
4C0
330
18
100
AcDbEntity
  8
TEXT
100
AcDbText
 10
2.828673169651391
 20
0.9980362462321661
 30
0.0
 40
0.0522247191011236
  1
6536 Main St. N.E. * P.O. Box 32008
 41
0.8388932496075353
 72
     5
 11
4.157605753921055
 21
0.9980362462321661
 31
0.0
100
AcDbText
  0
TEXT
  5
4C1
330
18
100
AcDbEntity
  8
TEXT
100
AcDbText
 10
2.828673169651391
 20
1.091294673198458
 30
0.0
 40
0.0522247191011236
  1
Stylmark  Incorporated
 41
1.221428571428571
 72
     5
 11
4.157605753921055
 21
1.091294673198458
 31
0.0
100
AcDbText
  0
TEXT
  5
4C2
330
18
100
AcDbEntity
  8
TEXT
100
AcDbText
 10
2.828673169651391
 20
0.8115193922995818
 30
0.0
 40
0.0522247191011236
  1
Phone  1-800-328-2495
 41
1.272321428571429
 72
     5
 11
4.157605753921055
 21
0.8115193922995818
 31
0.0
100
AcDbText
  0
LINE
  5
4C3
330
18
100
AcDbEntity
  8
TEXT
100
AcDbLine
 10
1.274870078801409
 20
0.9782836273414954
 30
0.0
 11
1.209269942557108
 21
0.9782836273414954
 31
0.0
  0
ARC
  5
4C4
330
18
100
AcDbEntity
  8
TEXT
100
AcDbCircle
 10
1.209269942557108
 20
0.9961859881468111
 30
0.0
 40
0.017902360805315
100
AcDbArc
 50
90.0
 51
270.0
  0
LINE
  5
4C5
330
18
100
AcDbEntity
  8
TEXT
100
AcDbLine
 10
1.20403261244286
 20
0.9141901247158816
 30
0.0
 11
1.279810452707689
 21
0.9141901247158816
 31
0.0
  0
LINE
  5
4C6
330
18
100
AcDbEntity
  8
TEXT
100
AcDbLine
 10
1.279810452707689
 20
0.880249016953817
 30
0.0
 11
1.121945152996355
 21
0.880249016953817
 31
0.0
  0
LINE
  5
4C7
330
18
100
AcDbEntity
  8
TEXT
100
AcDbLine
 10
1.121945152996357
 20
0.8118920106203777
 30
0.0
 11
1.274870078801409
 21
0.8118920106203777
 31
0.0
  0
ARC
  5
4C8
330
18
100
AcDbEntity
  8
TEXT
100
AcDbCircle
 10
1.20403261244286
 20
0.9962775841623869
 30
0.0
 40
0.0820874594465043
100
AcDbArc
 50
90.0
 51
270.0
  0
LINE
  5
4C9
330
18
100
AcDbEntity
  8
TEXT
100
AcDbLine
 10
1.379764365341372
 20
1.078365043608888
 30
0.0
 11
1.20403261244286
 21
1.078365043608888
 31
0.0
  0
ARC
  5
4CA
330
18
100
AcDbEntity
  8
TEXT
100
AcDbCircle
 10
1.279810452707689
 20
0.8972195708348511
 30
0.0
 40
0.0169705538810321
100
AcDbArc
 50
270.0
 51
90.0
  0
ARC
  5
4CB
330
18
100
AcDbEntity
  8
TEXT
100
AcDbCircle
 10
1.274870078801409
 20
0.8950878189809348
 30
0.0
 40
0.0831958083605586
100
AcDbArc
 50
270.0
 51
90.0
  0
LINE
  5
4CC
330
18
100
AcDbEntity
  8
TEXT
100
AcDbLine
 10
1.209269942557108
 20
1.014088348952123
 30
0.0
 11
1.376175596586079
 21
1.014088348952123
 31
0.0
  0
LWPOLYLINE
  5
4CD
330
18
100
AcDbEntity
  8
TEXT
100
AcDbPolyline
 90
        2
 70
     0
 43
0.0006660908203125
 10
0.9125121728965819
 20
0.9651296041557646
 10
0.9391558057090829
 20
0.9651296041557646
  0
LINE
  5
4CE
330
18
100
AcDbEntity
  8
TEXT
100
AcDbLine
 10
1.121945152996355
 20
0.880249016953817
 30
0.0
 11
1.121945152996357
 21
0.8118920106203777
 31
0.0
  0
LWPOLYLINE
  5
4CF
330
18
100
AcDbEntity
  8
TEXT
100
AcDbPolyline
 90
        2
 70
     0
 43
0.0006660908203125
 10
0.9125121728965819
 20
0.9251641549370166
 10
0.9391558057090829
 20
0.9251641549370166
  0
LWPOLYLINE
  5
4D0
330
18
100
AcDbEntity
  8
TEXT
100
AcDbPolyline
 90
        2
 70
     0
 43
0.0001332181640625
 10
0.8259203662559571
 20
1.078365043608892
 10
0.8159290039512683
 20
1.005095053374512
  0
LWPOLYLINE
  5
4D1
330
18
100
AcDbEntity
  8
TEXT
100
AcDbPolyline
 90
        2
 70
     0
 43
0.0001332181640625
 10
0.8259203662559571
 20
1.051721410796391
 10
0.8159290039512683
 20
0.9917732369682656
  0
LWPOLYLINE
  5
4D2
330
18
100
AcDbEntity
  8
TEXT
100
AcDbPolyline
 90
        2
 70
     0
 43
0.0006660908203125
 10
0.8259203662559571
 20
1.051721410796391
 10
0.8259203662559571
 20
1.078365043608892
  0
LWPOLYLINE
  5
4D3
330
18
100
AcDbEntity
  8
TEXT
100
AcDbPolyline
 90
        5
 70
     0
 43
0.0001332181640625
 10
0.8159290039512683
 20
1.005095053374512
 10
0.8159290039512683
 20
0.9917732369682656
 10
0.8525639990684581
 20
0.9917732369682656
 10
0.8525639990684581
 20
0.9551382418510758
 10
0.8658858154747068
 20
0.9551382418510758
  0
LWPOLYLINE
  5
4D4
330
18
100
AcDbEntity
  8
TEXT
100
AcDbPolyline
 90
        2
 70
     0
 43
0.0001332181640625
 10
0.7859549170372056
 20
1.051721410796391
 10
0.7959462793418961
 20
0.9917732369682656
  0
LWPOLYLINE
  5
4D5
330
18
100
AcDbEntity
  8
TEXT
100
AcDbPolyline
 90
        2
 70
     0
 43
0.0001332181640625
 10
0.7959462793418961
 20
1.005095053374512
 10
0.7859549170372056
 20
1.078365043608892
  0
LWPOLYLINE
  5
4D6
330
18
100
AcDbEntity
  8
TEXT
100
AcDbPolyline
 90
        2
 70
     0
 43
0.0006660908203125
 10
0.7859549170372056
 20
1.051721410796391
 10
0.7859549170372056
 20
1.078365043608892
  0
LWPOLYLINE
  5
4D7
330
18
100
AcDbEntity
  8
TEXT
100
AcDbPolyline
 90
        5
 70
     0
 43
0.0001332181640625
 10
0.7459894678184576
 20
0.9551382418510758
 10
0.7593112842247063
 20
0.9551382418510758
 10
0.7593112842247063
 20
0.9917732369682656
 10
0.7959462793418961
 20
0.9917732369682656
 10
0.7959462793418961
 20
1.005095053374512
  0
LWPOLYLINE
  5
4D8
330
18
100
AcDbEntity
  8
TEXT
100
AcDbPolyline
 90
        2
 70
     0
 43
0.0006660908203125
 10
0.6993631103965808
 20
0.9651296041557646
 10
0.6727194775840833
 20
0.9651296041557646
  0
LWPOLYLINE
  5
4D9
330
18
100
AcDbEntity
  8
TEXT
100
AcDbPolyline
 90
        2
 70
     0
 43
0.0001332181640625
 10
0.6727194775840833
 20
0.9651296041557646
 10
0.7459894678184576
 20
0.9551382418510758
  0
LWPOLYLINE
  5
4DA
330
18
100
AcDbEntity
  8
TEXT
100
AcDbPolyline
 90
        2
 70
     0
 43
0.0001332181640625
 10
0.6993631103965808
 20
0.9651296041557646
 10
0.7593112842247063
 20
0.9551382418510758
  0
LWPOLYLINE
  5
4DB
330
18
100
AcDbEntity
  8
TEXT
100
AcDbPolyline
 90
        2
 70
     0
 43
0.0001332181640625
 10
0.6993631103965808
 20
1.051721410796391
 10
0.7593112842247063
 20
0.9917732369682656
  0
LWPOLYLINE
  5
4DC
330
18
100
AcDbEntity
  8
TEXT
100
AcDbPolyline
 90
        3
 70
     0
 43
0.0006660908203125
 10
0.7859549170372056
 20
1.051721410796391
 10
0.6993631103965808
 20
1.051721410796391
 10
0.6993631103965808
 20
0.9651296041557646
  0
LWPOLYLINE
  5
4DD
330
18
100
AcDbEntity
  8
TEXT
100
AcDbPolyline
 90
        3
 70
     0
 43
0.0006660908203125
 10
0.7859549170372056
 20
1.078365043608892
 10
0.6727194775840833
 20
1.078365043608892
 10
0.6727194775840833
 20
0.9651296041557646
  0
LWPOLYLINE
  5
4DE
330
18
100
AcDbEntity
  8
TEXT
100
AcDbPolyline
 90
        5
 70
     0
 43
0.0001332181640625
 10
0.8658858154747068
 20
0.9351555172417018
 10
0.8525639990684581
 20
0.9351555172417018
 10
0.8525639990684581
 20
0.8985205221245156
 10
0.8159290039512683
 20
0.8985205221245156
 10
0.8159290039512683
 20
0.885198705718265
  0
LWPOLYLINE
  5
4DF
330
18
100
AcDbEntity
  8
TEXT
100
AcDbPolyline
 90
        2
 70
     0
 43
0.0006660908203125
 10
0.8259203662559571
 20
0.83857234829639
 10
0.8259203662559571
 20
0.811928715483889
  0
LWPOLYLINE
  5
4E0
330
18
100
AcDbEntity
  8
TEXT
100
AcDbPolyline
 90
        2
 70
     0
 43
0.0001332181640625
 10
0.8159290039512683
 20
0.885198705718265
 10
0.8259203662559571
 20
0.811928715483889
  0
LWPOLYLINE
  5
4E1
330
18
100
AcDbEntity
  8
TEXT
100
AcDbPolyline
 90
        2
 70
     0
 43
0.0001332181640625
 10
0.8259203662559571
 20
0.83857234829639
 10
0.8159290039512683
 20
0.8985205221245156
  0
LWPOLYLINE
  5
4E2
330
18
100
AcDbEntity
  8
TEXT
100
AcDbPolyline
 90
        2
 70
     0
 43
0.0001332181640625
 10
0.7859549170372056
 20
0.811928715483889
 10
0.7959462793418961
 20
0.885198705718265
  0
LWPOLYLINE
  5
4E3
330
18
100
AcDbEntity
  8
TEXT
100
AcDbPolyline
 90
        2
 70
     0
 43
0.0001332181640625
 10
0.7859549170372056
 20
0.83857234829639
 10
0.7959462793418961
 20
0.8985205221245156
  0
LWPOLYLINE
  5
4E4
330
18
100
AcDbEntity
  8
TEXT
100
AcDbPolyline
 90
        2
 70
     0
 43
0.0006660908203125
 10
0.7859549170372056
 20
0.83857234829639
 10
0.7859549170372056
 20
0.811928715483889
  0
LWPOLYLINE
  5
4E5
330
18
100
AcDbEntity
  8
TEXT
100
AcDbPolyline
 90
        5
 70
     0
 43
0.0001332181640625
 10
0.7959462793418961
 20
0.885198705718265
 10
0.7959462793418961
 20
0.8985205221245156
 10
0.7593112842247081
 20
0.8985205221245156
 10
0.7593112842247081
 20
0.9351555172417018
 10
0.7459894678184576
 20
0.9351555172417018
  0
LWPOLYLINE
  5
4E6
330
18
100
AcDbEntity
  8
TEXT
100
AcDbPolyline
 90
        2
 70
     0
 43
0.0006660908203125
 10
0.6993631103965808
 20
0.9251641549370166
 10
0.6727194775840833
 20
0.9251641549370166
  0
LWPOLYLINE
  5
4E7
330
18
100
AcDbEntity
  8
TEXT
100
AcDbPolyline
 90
        2
 70
     0
 43
0.0001332181640625
 10
0.6993631103965808
 20
0.83857234829639
 10
0.7593112842247081
 20
0.8985205221245156
  0
LWPOLYLINE
  5
4E8
330
18
100
AcDbEntity
  8
TEXT
100
AcDbPolyline
 90
        2
 70
     0
 43
0.0001332181640625
 10
0.6993631103965808
 20
0.9251641549370166
 10
0.7593112842247081
 20
0.9351555172417018
  0
LWPOLYLINE
  5
4E9
330
18
100
AcDbEntity
  8
TEXT
100
AcDbPolyline
 90
        2
 70
     0
 43
0.0001332181640625
 10
0.7459894678184576
 20
0.9351555172417018
 10
0.6727194775840833
 20
0.9251641549370166
  0
LWPOLYLINE
  5
4EA
330
18
100
AcDbEntity
  8
TEXT
100
AcDbPolyline
 90
        3
 70
     0
 43
0.0006660908203125
 10
0.6993631103965808
 20
0.9251641549370166
 10
0.6993631103965808
 20
0.83857234829639
 10
0.7859549170372056
 20
0.83857234829639
  0
LWPOLYLINE
  5
4EB
330
18
100
AcDbEntity
  8
TEXT
100
AcDbPolyline
 90
        3
 70
     0
 43
0.0006660908203125
 10
0.6727194775840833
 20
0.9251641549370166
 10
0.6727194775840833
 20
0.811928715483889
 10
0.7859549170372056
 20
0.811928715483889
  0
LWPOLYLINE
  5
4EC
330
18
100
AcDbEntity
  8
TEXT
100
AcDbPolyline
 90
        3
 70
     0
 43
0.0006660908203125
 10
0.8259203662559571
 20
0.811928715483889
 10
0.9391558057090829
 20
0.811928715483889
 10
0.9391558057090829
 20
0.9251641549370166
  0
LWPOLYLINE
  5
4ED
330
18
100
AcDbEntity
  8
TEXT
100
AcDbPolyline
 90
        3
 70
     0
 43
0.0006660908203125
 10
0.8259203662559571
 20
0.83857234829639
 10
0.9125121728965819
 20
0.83857234829639
 10
0.9125121728965819
 20
0.9251641549370166
  0
LWPOLYLINE
  5
4EE
330
18
100
AcDbEntity
  8
TEXT
100
AcDbPolyline
 90
        2
 70
     0
 43
0.0001332181640625
 10
0.9125121728965819
 20
0.83857234829639
 10
0.8525639990684581
 20
0.8985205221245156
  0
LWPOLYLINE
  5
4EF
330
18
100
AcDbEntity
  8
TEXT
100
AcDbPolyline
 90
        2
 70
     0
 43
0.0001332181640625
 10
0.9125121728965819
 20
0.9251641549370166
 10
0.8525639990684581
 20
0.9351555172417018
  0
LWPOLYLINE
  5
4F0
330
18
100
AcDbEntity
  8
TEXT
100
AcDbPolyline
 90
        2
 70
     0
 43
0.0001332181640625
 10
0.9391558057090829
 20
0.9251641549370166
 10
0.8658858154747068
 20
0.9351555172417018
  0
LWPOLYLINE
  5
4F1
330
18
100
AcDbEntity
  8
TEXT
100
AcDbPolyline
 90
        2
 70
     0
 43
0.0001332181640625
 10
0.9125121728965819
 20
1.051721410796391
 10
0.8525639990684581
 20
0.9917732369682656
  0
LWPOLYLINE
  5
4F2
330
18
100
AcDbEntity
  8
TEXT
100
AcDbPolyline
 90
        2
 70
     0
 43
0.0001332181640625
 10
0.9125121728965819
 20
0.9651296041557646
 10
0.8525639990684581
 20
0.9551382418510758
  0
LWPOLYLINE
  5
4F3
330
18
100
AcDbEntity
  8
TEXT
100
AcDbPolyline
 90
        2
 70
     0
 43
0.0001332181640625
 10
0.8658858154747068
 20
0.9551382418510758
 10
0.9391558057090829
 20
0.9651296041557646
  0
LWPOLYLINE
  5
4F4
330
18
100
AcDbEntity
  8
TEXT
100
AcDbPolyline
 90
        3
 70
     0
 43
0.0006660908203125
 10
0.9125121728965819
 20
0.9651296041557646
 10
0.9125121728965819
 20
1.051721410796391
 10
0.8259203662559571
 20
1.051721410796391
  0
LWPOLYLINE
  5
4F5
330
18
100
AcDbEntity
  8
TEXT
100
AcDbPolyline
 90
        3
 70
     0
 43
0.0006660908203125
 10
0.9391558057090829
 20
0.9651296041557646
 10
0.9391558057090829
 20
1.078365043608892
 10
0.8259203662559571
 20
1.078365043608892
  0
ENDSEC
  0
SECTION
  2
OBJECTS
  0
DICTIONARY
  5
C
330
0
100
AcDbDictionary
  3
ACAD_GROUP
350
D
  3
ACAD_LAYOUT
350
4FA
  3
ACAD_MLINESTYLE
350
E
  3
ACAD_PLOTSETTINGS
350
4FB
  3
ACAD_PLOTSTYLENAME
350
4F8
  3
ACDBHEADERROUNDTRIPXREC
350
506
  3
ACDBVARIABLEDICTIONARY
350
503
  0
DICTIONARY
  5
528
330
18
100
AcDbDictionary
280
     1
  3
ACAD_LAYOUTSELFREF
360
529
  0
DICTIONARY
  5
526
330
15
100
AcDbDictionary
280
     1
  3
ACAD_LAYOUTSELFREF
360
527
  0
DICTIONARY
  5
D
102
{ACAD_REACTORS
330
C
102
}
330
C
100
AcDbDictionary
  0
DICTIONARY
  5
4FA
102
{ACAD_REACTORS
330
C
102
}
330
C
100
AcDbDictionary
  0
DICTIONARY
  5
E
102
{ACAD_REACTORS
330
C
102
}
330
C
100
AcDbDictionary
  3
STANDARD
350
1B
  0
DICTIONARY
  5
4FB
102
{ACAD_REACTORS
330
C
102
}
330
C
100
AcDbDictionary
  0
ACDBDICTIONARYWDFLT
  5
4F8
102
{ACAD_REACTORS
330
C
102
}
330
C
100
AcDbDictionary
281
     1
  3
Normal
350
4F9
100
AcDbDictionaryWithDefault
340
4F9
  0
DICTIONARY
  5
506
102
{ACAD_REACTORS
330
C
102
}
330
C
100
AcDbDictionary
  3
CEPSNTYPE
350
510
  3
FINGERPRINTGUID
350
511
  3
HYPERLINKBASE
350
509
  3
INSUNITS
350
50F
  3
LAYOUTDICT
350
50B
  3
LWETCUNION
350
50E
  3
PLOTSETDICT
350
50C
  3
PLOTSTYLNAMDICT
350
50D
  3
PSVPSCALE
350
513
  3
PUCSBASE
350
516
  3
PUCSORGBACK
350
51C
  3
PUCSORGBOTTOM
350
518
  3
PUCSORGFRONT
350
51B
  3
PUCSORGLEFT
350
519
  3
PUCSORGRIGHT
350
51A
  3
PUCSORGTOP
350
517
  3
PUCSORTHOREF
350
514
  3
PUCSORTHOVIEW
350
515
  3
STYLESHEET
350
50A
  3
TSTACKALIGN
350
507
  3
TSTACKSIZE
350
508
  3
UCSBASE
350
51F
  3
UCSORGBACK
350
525
  3
UCSORGBOTTOM
350
521
  3
UCSORGFRONT
350
524
  3
UCSORGLEFT
350
522
  3
UCSORGRIGHT
350
523
  3
UCSORGTOP
350
520
  3
UCSORTHOREF
350
51D
  3
UCSORTHOVIEW
350
51E
  3
VERSIONGUID
350
512
  0
DICTIONARY
  5
503
102
{ACAD_REACTORS
330
C
102
}
330
C
100
AcDbDictionary
  3
DIMASSOC
350
504
  0
XRECORD
  5
529
102
{ACAD_REACTORS
330
528
102
}
330
528
100
AcDbXrecord
340
18
  0
XRECORD
  5
527
102
{ACAD_REACTORS
330
526
102
}
330
526
100
AcDbXrecord
340
15
  0
MLINESTYLE
  5
1B
102
{ACAD_REACTORS
330
E
102
}
330
E
100
AcDbMlineStyle
  2
STANDARD
 70
     0
  3

 62
     0
 51
90.0
 52
90.0
 71
     2
 49
0.5
 62
   256
  6
BYLAYER
 49
-0.5
 62
   256
  6
BYLAYER
  0
ACDBPLACEHOLDER
  5
4F9
102
{ACAD_REACTORS
330
4F8
102
}
330
4F8
100
AcDbPlaceHolder
280
     0
  0
XRECORD
  5
510
102
{ACAD_REACTORS
330
506
102
}
330
506
100
AcDbXrecord
 90
        0
  0
XRECORD
  5
511
102
{ACAD_REACTORS
330
506
102
}
330
506
100
AcDbXrecord
  1
{55377950-8DB4-11D6-88E6-0090279574E7}
  0
XRECORD
  5
509
102
{ACAD_REACTORS
330
506
102
}
330
506
100
AcDbXrecord
  1

  0
XRECORD
  5
50F
102
{ACAD_REACTORS
330
506
102
}
330
506
100
AcDbXrecord
 90
        0
  0
XRECORD
  5
50B
102
{ACAD_REACTORS
330
506
102
}
330
506
100
AcDbXrecord
340
4FA
  0
XRECORD
  5
50E
102
{ACAD_REACTORS
330
506
102
}
330
506
100
AcDbXrecord
 90
    14877
  0
XRECORD
  5
50C
102
{ACAD_REACTORS
330
506
102
}
330
506
100
AcDbXrecord
340
4FB
  0
XRECORD
  5
50D
102
{ACAD_REACTORS
330
506
102
}
330
506
100
AcDbXrecord
340
4F8
  0
XRECORD
  5
513
102
{ACAD_REACTORS
330
506
102
}
330
506
100
AcDbXrecord
 40
0.0
  0
XRECORD
  5
516
102
{ACAD_REACTORS
330
506
102
}
330
506
100
AcDbXrecord
340
0
  0
XRECORD
  5
51C
102
{ACAD_REACTORS
330
506
102
}
330
506
100
AcDbXrecord
 10
0.0
 20
0.0
 30
0.0
  0
XRECORD
  5
518
102
{ACAD_REACTORS
330
506
102
}
330
506
100
AcDbXrecord
 10
0.0
 20
0.0
 30
0.0
  0
XRECORD
  5
51B
102
{ACAD_REACTORS
330
506
102
}
330
506
100
AcDbXrecord
 10
0.0
 20
0.0
 30
0.0
  0
XRECORD
  5
519
102
{ACAD_REACTORS
330
506
102
}
330
506
100
AcDbXrecord
 10
0.0
 20
0.0
 30
0.0
  0
XRECORD
  5
51A
102
{ACAD_REACTORS
330
506
102
}
330
506
100
AcDbXrecord
 10
0.0
 20
0.0
 30
0.0
  0
XRECORD
  5
517
102
{ACAD_REACTORS
330
506
102
}
330
506
100
AcDbXrecord
 10
0.0
 20
0.0
 30
0.0
  0
XRECORD
  5
514
102
{ACAD_REACTORS
330
506
102
}
330
506
100
AcDbXrecord
340
0
  0
XRECORD
  5
515
102
{ACAD_REACTORS
330
506
102
}
330
506
100
AcDbXrecord
 70
     0
  0
XRECORD
  5
50A
102
{ACAD_REACTORS
330
506
102
}
330
506
100
AcDbXrecord
  1

  0
XRECORD
  5
507
102
{ACAD_REACTORS
330
506
102
}
330
506
100
AcDbXrecord
 90
        1
  0
XRECORD
  5
508
102
{ACAD_REACTORS
330
506
102
}
330
506
100
AcDbXrecord
 90
       70
  0
XRECORD
  5
51F
102
{ACAD_REACTORS
330
506
102
}
330
506
100
AcDbXrecord
340
0
  0
XRECORD
  5
525
102
{ACAD_REACTORS
330
506
102
}
330
506
100
AcDbXrecord
 10
0.0
 20
0.0
 30
0.0
  0
XRECORD
  5
521
102
{ACAD_REACTORS
330
506
102
}
330
506
100
AcDbXrecord
 10
0.0
 20
0.0
 30
0.0
  0
XRECORD
  5
524
102
{ACAD_REACTORS
330
506
102
}
330
506
100
AcDbXrecord
 10
0.0
 20
0.0
 30
0.0
  0
XRECORD
  5
522
102
{ACAD_REACTORS
330
506
102
}
330
506
100
AcDbXrecord
 10
0.0
 20
0.0
 30
0.0
  0
XRECORD
  5
523
102
{ACAD_REACTORS
330
506
102
}
330
506
100
AcDbXrecord
 10
0.0
 20
0.0
 30
0.0
  0
XRECORD
  5
520
102
{ACAD_REACTORS
330
506
102
}
330
506
100
AcDbXrecord
 10
0.0
 20
0.0
 30
0.0
  0
XRECORD
  5
51D
102
{ACAD_REACTORS
330
506
102
}
330
506
100
AcDbXrecord
340
0
  0
XRECORD
  5
51E
102
{ACAD_REACTORS
330
506
102
}
330
506
100
AcDbXrecord
 70
     0
  0
XRECORD
  5
512
102
{ACAD_REACTORS
330
506
102
}
330
506
100
AcDbXrecord
  1
{55377952-8DB4-11D6-88E6-0090279574E7}
  0
DICTIONARYVAR
  5
504
102
{ACAD_REACTORS
330
503
102
}
330
503
100
DictionaryVariables
280
     0
  1
1
  0
ENDSEC
  0
EOF
