  0
SECTION
  2
HEADER
  9
$ACADVER
  1
AC1014
  9
$ACADMAINTVER
 70
     9
  9
$DWGCODEPAGE
  3
ANSI_1252
  9
$INSBASE
 10
0.0
 20
0.0
 30
0.0
  9
$EXTMIN
 10
-0.8906250007223938
 20
-0.4017209620839075
 30
0.0
  9
$EXTMAX
 10
2.594594321024734
 20
2.8603125
 30
0.0
  9
$LIMMIN
 10
0.0
 20
0.0
  9
$LIMMAX
 10
200.0
 20
200.0
  9
$ORTHOMODE
 70
     0
  9
$REGENMODE
 70
     1
  9
$FILLMODE
 70
     1
  9
$QTEXTMODE
 70
     0
  9
$MIRRTEXT
 70
     0
  9
$DRAGMODE
 70
     2
  9
$LTSCALE
 40
1.0
  9
$OSMODE
 70
    39
  9
$ATTMODE
 70
     1
  9
$TEXTSIZE
 40
0.125
  9
$TRACEWID
 40
0.05
  9
$TEXTSTYLE
  7
ROMANS
  9
$CLAYER
  8
DIM
  9
$CELTYPE
  6
BYLAYER
  9
$CECOLOR
 62
   256
  9
$CELTSCALE
 40
1.0
  9
$DELOBJ
 70
     1
  9
$DISPSILH
 70
     1
  9
$DIMSCALE
 40
1.0
  9
$DIMASZ
 40
0.125
  9
$DIMEXO
 40
0.125
  9
$DIMDLI
 40
0.375
  9
$DIMRND
 40
0.0
  9
$DIMDLE
 40
0.0
  9
$DIMEXE
 40
0.125
  9
$DIMTP
 40
0.01
  9
$DIMTM
 40
0.005
  9
$DIMTXT
 40
0.125
  9
$DIMCEN
 40
-0.125
  9
$DIMTSZ
 40
0.0
  9
$DIMTOL
 70
     0
  9
$DIMLIM
 70
     0
  9
$DIMTIH
 70
     1
  9
$DIMTOH
 70
     1
  9
$DIMSE1
 70
     0
  9
$DIMSE2
 70
     0
  9
$DIMTAD
 70
     0
  9
$DIMZIN
 70
     4
  9
$DIMBLK
  1

  9
$DIMASO
 70
     1
  9
$DIMSHO
 70
     1
  9
$DIMPOST
  1

  9
$DIMAPOST
  1

  9
$DIMALT
 70
     0
  9
$DIMALTD
 70
     2
  9
$DIMALTF
 40
25.4
  9
$DIMLFAC
 40
0.5
  9
$DIMTOFL
 70
     0
  9
$DIMTVP
 40
0.0
  9
$DIMTIX
 70
     1
  9
$DIMSOXD
 70
     0
  9
$DIMSAH
 70
     0
  9
$DIMBLK1
  1

  9
$DIMBLK2
  1

  9
$DIMSTYLE
  2
STANDARD
  9
$DIMCLRD
 70
     0
  9
$DIMCLRE
 70
     0
  9
$DIMCLRT
 70
     0
  9
$DIMTFAC
 40
1.0
  9
$DIMGAP
 40
0.09
  9
$DIMJUST
 70
     0
  9
$DIMSD1
 70
     0
  9
$DIMSD2
 70
     0
  9
$DIMTOLJ
 70
     1
  9
$DIMTZIN
 70
     0
  9
$DIMALTZ
 70
     0
  9
$DIMALTTZ
 70
     0
  9
$DIMFIT
 70
     3
  9
$DIMUPT
 70
     0
  9
$DIMUNIT
 70
     2
  9
$DIMDEC
 70
     3
  9
$DIMTDEC
 70
     4
  9
$DIMALTU
 70
     2
  9
$DIMALTTD
 70
     2
  9
$DIMTXSTY
  7
ROMANS
  9
$DIMAUNIT
 70
     0
  9
$LUNITS
 70
     2
  9
$LUPREC
 70
     3
  9
$SKETCHINC
 40
0.1
  9
$FILLETRAD
 40
0.0
  9
$AUNITS
 70
     0
  9
$AUPREC
 70
     0
  9
$MENU
  1
ACAD
  9
$ELEVATION
 40
0.0
  9
$PELEVATION
 40
0.0
  9
$THICKNESS
 40
0.0
  9
$LIMCHECK
 70
     0
  9
$BLIPMODE
 70
     0
  9
$CHAMFERA
 40
0.0
  9
$CHAMFERB
 40
0.0
  9
$CHAMFERC
 40
0.0
  9
$CHAMFERD
 40
0.0
  9
$SKPOLY
 70
     0
  9
$TDCREATE
 40
2448335.370192708
  9
$TDUPDATE
 40
2452458.297080278
  9
$TDINDWG
 40
0.4392402315
  9
$TDUSRTIMER
 40
0.4392402315
  9
$USRTIMER
 70
     1
  9
$ANGBASE
 50
0.0
  9
$ANGDIR
 70
     0
  9
$PDMODE
 70
     0
  9
$PDSIZE
 40
0.0
  9
$PLINEWID
 40
0.0
  9
$COORDS
 70
     2
  9
$SPLFRAME
 70
     0
  9
$SPLINETYPE
 70
     6
  9
$SPLINESEGS
 70
     8
  9
$ATTDIA
 70
     0
  9
$ATTREQ
 70
     1
  9
$HANDLING
 70
 22529
  9
$HANDSEED
  5
4DC
  9
$SURFTAB1
 70
     6
  9
$SURFTAB2
 70
     6
  9
$SURFTYPE
 70
     6
  9
$SURFU
 70
     6
  9
$SURFV
 70
     6
  9
$UCSNAME
  2

  9
$UCSORG
 10
0.0
 20
0.0
 30
0.0
  9
$UCSXDIR
 10
1.0
 20
0.0
 30
0.0
  9
$UCSYDIR
 10
0.0
 20
1.0
 30
0.0
  9
$PUCSNAME
  2

  9
$PUCSORG
 10
0.0
 20
0.0
 30
0.0
  9
$PUCSXDIR
 10
1.0
 20
0.0
 30
0.0
  9
$PUCSYDIR
 10
0.0
 20
1.0
 30
0.0
  9
$USERI1
 70
     0
  9
$USERI2
 70
     0
  9
$USERI3
 70
     0
  9
$USERI4
 70
     0
  9
$USERI5
 70
     0
  9
$USERR1
 40
0.0
  9
$USERR2
 40
0.0
  9
$USERR3
 40
0.0
  9
$USERR4
 40
0.0
  9
$USERR5
 40
0.0
  9
$WORLDVIEW
 70
     1
  9
$SHADEDGE
 70
     3
  9
$SHADEDIF
 70
    70
  9
$TILEMODE
 70
     1
  9
$MAXACTVP
 70
    16
  9
$PINSBASE
 10
0.0
 20
0.0
 30
0.0
  9
$PLIMCHECK
 70
     0
  9
$PEXTMIN
 10
1.000000000000000E+20
 20
1.000000000000000E+20
 30
1.000000000000000E+20
  9
$PEXTMAX
 10
-1.000000000000000E+20
 20
-1.000000000000000E+20
 30
-1.000000000000000E+20
  9
$PLIMMIN
 10
0.0
 20
0.0
  9
$PLIMMAX
 10
12.0
 20
9.0
  9
$UNITMODE
 70
     0
  9
$VISRETAIN
 70
     0
  9
$PLINEGEN
 70
     1
  9
$PSLTSCALE
 70
     0
  9
$TREEDEPTH
 70
  3020
  9
$PICKSTYLE
 70
     1
  9
$CMLSTYLE
  2
STANDARD
  9
$CMLJUST
 70
     0
  9
$CMLSCALE
 40
1.0
  9
$PROXYGRAPHICS
 70
     1
  9
$MEASUREMENT
 70
     0
  0
ENDSEC
  0
SECTION
  2
CLASSES
  0
CLASS
  1
LWPOLYLINE
  2
AcDbPolyline
  3
AutoCAD 2000
 90
        0
280
     0
281
     1
  0
CLASS
  1
ACDBDICTIONARYWDFLT
  2
AcDbDictionaryWithDefault
  3
AutoCAD 2000
 90
        0
280
     0
281
     0
  0
CLASS
  1
ACDBPLACEHOLDER
  2
AcDbPlaceHolder
  3
AutoCAD 2000
 90
        0
280
     0
281
     0
  0
CLASS
  1
LAYOUT
  2
AcDbLayout
  3
AutoCAD 2000
 90
        0
280
     0
281
     0
  0
CLASS
  1
DICTIONARYVAR
  2
AcDbDictionaryVar
  3
AutoCAD 2000
 90
        0
280
     0
281
     0
  0
CLASS
  1
LONG_TRANSACTION
  2
AcDbLongTransaction
  3
AutoCAD 2000
 90
        0
280
     0
281
     0
  0
CLASS
  1
LWPOLYLINE
  2
AcDbPolyline
  3
AutoCAD 2000
 90
        0
280
     0
281
     1
  0
CLASS
  1
HATCH
  2
AcDbHatch
  3
AutoCAD 2000
 90
        0
280
     0
281
     1
  0
CLASS
  1
XRECORD
  2
AcDbXrecord
  3
AutoCAD 2000
 90
        0
280
     0
281
     0
  0
ENDSEC
  0
SECTION
  2
TABLES
  0
TABLE
  2
VPORT
  5
8
330
0
100
AcDbSymbolTable
 70
     2
  0
VPORT
  5
4B7
330
8
100
AcDbSymbolTableRecord
100
AcDbViewportTableRecord
  2
*ACTIVE
 70
     0
 10
0.0
 20
0.0
 11
1.0
 21
1.0
 12
5.302843791570303
 22
1.227726485980042
 13
0.0
 23
0.0
 14
0.015625
 24
0.015625
 15
0.0
 25
0.0
 16
0.0
 26
0.0
 36
1.0
 17
0.0
 27
0.0
 37
0.0
 40
3.294270727949314
 41
4.320930232558139
 42
50.0
 43
0.0
 44
0.0
 50
0.0
 51
0.0
 71
     0
 72
  2000
 73
     1
 74
     1
 75
     1
 76
     0
 77
     0
 78
     0
  0
ENDTAB
  0
TABLE
  2
LTYPE
  5
5
330
0
100
AcDbSymbolTable
 70
     1
  0
LTYPE
  5
12
330
5
100
AcDbSymbolTableRecord
100
AcDbLinetypeTableRecord
  2
BYBLOCK
 70
     0
  3

 72
    65
 73
     0
 40
0.0
  0
LTYPE
  5
13
330
5
100
AcDbSymbolTableRecord
100
AcDbLinetypeTableRecord
  2
BYLAYER
 70
     0
  3

 72
    65
 73
     0
 40
0.0
  0
LTYPE
  5
14
330
5
100
AcDbSymbolTableRecord
100
AcDbLinetypeTableRecord
  2
CONTINUOUS
 70
     0
  3
Solid line
 72
    65
 73
     0
 40
0.0
  0
ENDTAB
  0
TABLE
  2
LAYER
  5
2
330
0
100
AcDbSymbolTable
 70
     3
  0
LAYER
  5
F
330
2
100
AcDbSymbolTableRecord
100
AcDbLayerTableRecord
  2
0
 70
     0
 62
     7
  6
CONTINUOUS
  0
LAYER
  5
24
330
2
100
AcDbSymbolTableRecord
100
AcDbLayerTableRecord
  2
DIM
 70
     0
 62
     4
  6
CONTINUOUS
  0
LAYER
  5
25
330
2
100
AcDbSymbolTableRecord
100
AcDbLayerTableRecord
  2
TEXT
 70
     0
 62
     3
  6
CONTINUOUS
  0
ENDTAB
  0
TABLE
  2
STYLE
  5
3
330
0
100
AcDbSymbolTable
 70
     3
  0
STYLE
  5
10
330
3
100
AcDbSymbolTableRecord
100
AcDbTextStyleTableRecord
  2
STANDARD
 70
     0
 40
0.0
 41
1.0
 50
0.0
 71
     0
 42
0.125
  3
txt
  4

  0
STYLE
  5
3A3
330
3
100
AcDbSymbolTableRecord
100
AcDbTextStyleTableRecord
  2
ITALICC
 70
     0
 40
0.0
 41
1.0
 50
0.0
 71
     0
 42
0.125
  3
italicc
  4

  0
STYLE
  5
4B3
330
3
100
AcDbSymbolTableRecord
100
AcDbTextStyleTableRecord
  2
ROMANS
 70
     0
 40
0.0
 41
1.0
 50
0.0
 71
     0
 42
0.125
  3
romans.shx
  4

  0
ENDTAB
  0
TABLE
  2
VIEW
  5
6
330
0
100
AcDbSymbolTable
 70
     0
  0
ENDTAB
  0
TABLE
  2
UCS
  5
7
330
0
100
AcDbSymbolTable
 70
     0
  0
ENDTAB
  0
TABLE
  2
APPID
  5
9
330
0
100
AcDbSymbolTable
 70
     1
  0
APPID
  5
11
330
9
100
AcDbSymbolTableRecord
100
AcDbRegAppTableRecord
  2
ACAD
 70
     0
  0
ENDTAB
  0
TABLE
  2
DIMSTYLE
  5
A
330
0
100
AcDbSymbolTable
 70
     1
  0
DIMSTYLE
105
39A
330
A
100
AcDbSymbolTableRecord
100
AcDbDimStyleTableRecord
  2
STANDARD
 70
     0
  3

  4

  5

  6

  7

 40
1.0
 41
0.18
 42
0.0625
 43
0.38
 44
0.18
 45
0.0
 46
0.0
 47
0.0
 48
0.0
140
0.18
141
0.09
142
0.0
143
25.4
144
1.0
145
0.0
146
1.0
147
0.09
 71
     0
 72
     0
 73
     1
 74
     1
 75
     0
 76
     0
 77
     0
 78
     0
170
     0
171
     2
172
     0
173
     0
174
     0
175
     0
176
     0
177
     0
178
     0
270
     2
271
     4
272
     4
273
     2
274
     2
340
10
275
     0
280
     0
281
     0
282
     0
283
     1
284
     0
285
     0
286
     0
287
     3
288
     0
  0
ENDTAB
  0
TABLE
  2
BLOCK_RECORD
  5
1
330
0
100
AcDbSymbolTable
 70
     0
  0
BLOCK_RECORD
  5
18
102
{ACAD_XDICTIONARY
360
4DA
102
}
330
1
100
AcDbSymbolTableRecord
100
AcDbBlockTableRecord
  2
*MODEL_SPACE
  0
BLOCK_RECORD
  5
15
102
{ACAD_XDICTIONARY
360
4D8
102
}
330
1
100
AcDbSymbolTableRecord
100
AcDbBlockTableRecord
  2
*PAPER_SPACE
  0
ENDTAB
  0
ENDSEC
  0
SECTION
  2
BLOCKS
  0
BLOCK
  5
2A
330
18
100
AcDbEntity
  8
0
100
AcDbBlockBegin
  2
*MODEL_SPACE
 70
     0
 10
0.0
 20
0.0
 30
0.0
  3
*MODEL_SPACE
  1

  0
ENDBLK
  5
2B
330
18
100
AcDbEntity
  8
0
100
AcDbBlockEnd
  0
BLOCK
  5
28
330
15
100
AcDbEntity
 67
     1
  8
0
100
AcDbBlockBegin
  2
*PAPER_SPACE
 70
     0
 10
0.0
 20
0.0
 30
0.0
  3
*PAPER_SPACE
  1

  0
ENDBLK
  5
29
330
15
100
AcDbEntity
 67
     1
  8
0
100
AcDbBlockEnd
  0
ENDSEC
  0
SECTION
  2
ENTITIES
  0
LWPOLYLINE
  5
34E
330
18
100
AcDbEntity
  8
0
100
AcDbPolyline
 90
       59
 70
     1
 43
0.0
 10
0.3671875
 20
2.5703125
 10
0.4296875
 20
2.5703125
 10
0.3671875
 20
2.5078125
 10
0.3671875
 20
2.356312499999999
 42
0.6681786379192971
 10
0.392794101717798
 20
2.345705898282202
 10
0.4924007034355924
 20
2.4453125
 10
0.5365948772597516
 20
2.4453125
 10
0.5365948772597516
 20
2.401118326175841
 10
0.4296875
 20
2.294210948916089
 10
0.4296875
 20
2.11895942289761
 42
0.6071057148147517
 10
0.4788835183767226
 20
2.093376168131605
 42
-0.5208371967846047
 10
0.682189709070157
 20
2.019476613953532
 10
0.6266489740585364
 20
2.004594518860137
 42
3.732050807568881
 10
0.6073669551983976
 20
1.932633044801602
 10
0.6480255951166245
 20
1.891974404883375
 42
-0.3642109312653618
 10
0.4788835183767226
 20
1.877248831868394
 42
0.6071057148147504
 10
0.4296875
 20
1.851665577102388
 10
0.4296875
 20
1.599589195296637
 10
0.6140467175140514
 20
1.415229978527522
 42
0.4142135623730951
 10
0.7466292389865293
 20
1.415229978527522
 10
0.8708124999999999
 20
1.539413239708451
 10
0.8708124999999995
 20
1.9071875
 10
0.9489374999999999
 20
1.9853125
 10
0.9489374999999995
 20
1.664814629210248
 42
1.0
 10
1.097937499999999
 20
1.664814629210248
 10
1.0979375
 20
1.9853125
 10
1.1760625
 20
1.9071875
 10
1.1760625
 20
1.8359375
 42
0.4142135623730951
 10
1.2073125
 20
1.8046875
 10
1.4609375
 20
1.8046875
 42
0.4142135623730951
 10
1.4921875
 20
1.8359375
 10
1.4921875
 20
2.264312499999999
 10
1.502187499999999
 20
2.274312499999999
 10
1.4921875
 20
2.2843125
 10
1.4921875
 20
2.4453125
 10
1.6171875
 20
2.4453125
 10
1.6171875
 20
1.6171875
 10
1.462590493529996
 20
1.462590493529996
 10
1.462590493529996
 20
1.550978841178315
 10
1.5390625
 20
1.627450847648318
 10
1.5390625
 20
1.6953125
 42
0.4142135623730951
 10
1.5078125
 20
1.7265625
 10
1.301029715746945
 20
1.7265625
 10
0.9380812583048626
 20
1.363614042557916
 42
2.578130740001327
 10
0.9843188641407287
 20
1.274413981650946
 10
1.146581955128775
 20
1.23093571745932
 10
0.9282672926588864
 20
1.012621054989431
 10
1.038752727219284
 20
1.012621054989431
 10
1.138189618323643
 20
1.11205794609379
 10
1.182383792147802
 20
1.06786377226963
 10
1.027704183763245
 20
0.9131841638850737
 10
1.116092531411562
 20
0.9131841638850737
 10
1.071898357587404
 20
0.8689899900609145
 10
1.254862237219423
 20
0.6860261104288954
 42
-0.9999999999999973
 10
1.210668063395264
 20
0.6418319366047358
 10
0.3229933261758409
 20
1.529506673824159
 42
-0.1989123673796581
 10
0.3046875
 20
1.573700847648318
 10
0.3046875
 20
2.8290625
 42
-1.0
 10
0.3671875
 20
2.8290625
  0
TEXT
  5
429
330
18
100
AcDbEntity
  8
TEXT
100
AcDbText
 10
0.1112851499333205
 20
0.0562976419986741
 30
0.0
 40
0.125
  1
PART #110141
  7
ITALICC
 72
     1
 11
0.8523565785047493
 21
0.0562976419986741
 31
0.0
100
AcDbText
  0
LINE
  5
42A
330
18
100
AcDbEntity
  8
TEXT
100
AcDbLine
 10
1.007671208528132
 20
-0.1237793493643942
 30
0.0
 11
0.9605730499721483
 21
-0.1996446757759322
 31
0.0
  0
LINE
  5
42B
330
18
100
AcDbEntity
  8
TEXT
100
AcDbLine
 10
0.9605730499721483
 20
-0.1996446757759322
 30
0.0
 11
0.9605730499721483
 21
-0.0583151435967935
 31
0.0
  0
LINE
  5
42C
330
18
100
AcDbEntity
  8
TEXT
100
AcDbLine
 10
0.9605730499721483
 20
-0.0583151435967935
 30
0.0
 11
0.892258171422875
 21
-0.0583151435967935
 31
0.0
  0
LINE
  5
42D
330
18
100
AcDbEntity
  8
TEXT
100
AcDbLine
 10
0.892258171422875
 20
-0.0583151435967935
 30
0.0
 11
0.8922581714228696
 21
-0.1237793493643942
 31
0.0
  0
LINE
  5
42E
330
18
100
AcDbEntity
  8
TEXT
100
AcDbLine
 10
1.018105925292055
 20
-0.2336725923053677
 30
0.0
 11
1.08266304125776
 21
-0.1237793493643942
 31
0.0
  0
LINE
  5
42F
330
18
100
AcDbEntity
  8
TEXT
100
AcDbLine
 10
1.08266304125776
 20
-0.1237793493643942
 30
0.0
 11
1.007671208528134
 21
-0.1237793493643942
 31
0.0
  0
LINE
  5
430
330
18
100
AcDbEntity
  8
TEXT
100
AcDbLine
 10
0.8967380587493751
 20
-0.3902523823529051
 30
0.0
 11
0.9611162430679955
 21
-0.3902523823529051
 31
0.0
  0
LINE
  5
431
330
18
100
AcDbEntity
  8
TEXT
100
AcDbLine
 10
0.9611162430679955
 20
-0.3902523823529051
 30
0.0
 11
0.9611162430679955
 21
-0.2586728138767249
 31
0.0
  0
LINE
  5
432
330
18
100
AcDbEntity
  8
TEXT
100
AcDbLine
 10
0.9611162430679955
 20
-0.2586728138767249
 30
0.0
 11
1.03701977627946
 21
-0.3902523823529051
 31
0.0
  0
LINE
  5
433
330
18
100
AcDbEntity
  8
TEXT
100
AcDbLine
 10
1.03701977627946
 20
-0.3902523823529051
 30
0.0
 11
1.113598148655666
 21
-0.3902523823529051
 31
0.0
  0
LINE
  5
434
330
18
100
AcDbEntity
  8
TEXT
100
AcDbLine
 10
0.8967380587493698
 20
-0.1880560440211596
 30
0.0
 11
0.8967380587493751
 21
-0.3902523823529051
 31
0.0
  0
LINE
  5
435
330
18
100
AcDbEntity
  8
TEXT
100
AcDbLine
 10
1.113598148655666
 20
-0.3902523823529051
 30
0.0
 11
1.018105925292055
 21
-0.2336725923053677
 31
0.0
  0
ARC
  5
436
330
18
100
AcDbEntity
  8
TEXT
100
AcDbCircle
 10
0.8200900774568111
 20
-0.2129619193038224
 30
0.0
 40
0.0249058752826653
100
AcDbArc
 50
89.99971217465335
 51
179.9999999999985
  0
ARC
  5
437
330
18
100
AcDbEntity
  8
TEXT
100
AcDbCircle
 10
0.8279790343963888
 20
-0.155025076646659
 30
0.0
 40
0.0314112657011332
100
AcDbArc
 50
95.88484768694724
 51
173.2388340632136
  0
LINE
  5
438
330
18
100
AcDbEntity
  8
TEXT
100
AcDbLine
 10
0.7967862173332803
 20
-0.1513269992252688
 30
0.0
 11
0.7967862173332803
 21
-0.1237793493643942
 31
0.0
  0
LINE
  5
439
330
18
100
AcDbEntity
  8
TEXT
100
AcDbLine
 10
0.7967862173332803
 20
-0.1237793493643942
 30
0.0
 11
0.7328893110337793
 21
-0.1237793493643942
 31
0.0
  0
LINE
  5
43A
330
18
100
AcDbEntity
  8
TEXT
100
AcDbLine
 10
0.7328893110337793
 20
-0.1237793493643942
 30
0.0
 11
0.7328893110337793
 21
-0.2289913279178215
 31
0.0
  0
LINE
  5
43B
330
18
100
AcDbEntity
  8
TEXT
100
AcDbLine
 10
0.6539293721587383
 20
-0.1237793493643942
 30
0.0
 11
0.5190974629416792
 21
-0.1237793493643942
 31
0.0
  0
LINE
  5
43C
330
18
100
AcDbEntity
  8
TEXT
100
AcDbLine
 10
0.5190974629416792
 20
-0.1237793493643942
 30
0.0
 11
0.5190974629416792
 21
-0.152101895134038
 31
0.0
  0
LINE
  5
43D
330
18
100
AcDbEntity
  8
TEXT
100
AcDbLine
 10
0.5784115593349979
 20
-0.2253310174832919
 30
0.0
 11
0.6606995491183812
 21
-0.2253310174832919
 31
0.0
  0
LINE
  5
43E
330
18
100
AcDbEntity
  8
TEXT
100
AcDbLine
 10
0.6606995491183812
 20
-0.2253310174832919
 30
0.0
 11
0.6504347887048168
 21
-0.2040804779105976
 31
0.0
  0
LINE
  5
43F
330
18
100
AcDbEntity
  8
TEXT
100
AcDbLine
 10
0.6248984738142598
 20
-0.1880560440211596
 30
0.0
 11
0.5176922004269704
 21
-0.1880560440211596
 31
0.0
  0
ARC
  5
440
330
18
100
AcDbEntity
  8
TEXT
100
AcDbCircle
 10
0.6248984738142589
 20
-0.2164154190211569
 30
0.0
 40
0.028359375
100
AcDbArc
 50
25.78218179591245
 51
90.0
  0
LINE
  5
441
330
18
100
AcDbEntity
  8
TEXT
100
AcDbLine
 10
0.7328893110337793
 20
-0.2289913279178215
 30
0.0
 11
0.6891385398518777
 21
-0.1467410519216763
 31
0.0
  0
ARC
  5
442
330
18
100
AcDbEntity
  8
TEXT
100
AcDbCircle
 10
0.6519024323816698
 20
-0.1653629164852965
 30
0.0
 40
0.0416329381542859
100
AcDbArc
 50
26.56974201007528
 51
87.20939649401342
  0
LWPOLYLINE
  5
443
330
18
100
AcDbEntity
  8
TEXT
100
AcDbPolyline
 90
        2
 70
     0
 43
0.0
 10
0.736828988338818
 20
-0.346761437402467
 42
-0.2901071551932486
 10
0.6937530554711735
 20
-0.3902523823529051
 42
-5.328517124445184
  0
LWPOLYLINE
  5
444
330
18
100
AcDbEntity
  8
TEXT
100
AcDbPolyline
 90
        2
 70
     0
 43
0.0
 10
0.736828988338818
 20
-0.346761437402467
 10
0.736828988338818
 20
-0.3902523823529051
  0
LWPOLYLINE
  5
445
330
18
100
AcDbEntity
  8
TEXT
100
AcDbPolyline
 90
        2
 70
     0
 43
0.0
 10
0.736828988338818
 20
-0.3902523823529051
 10
0.795184202174152
 20
-0.3902523823529051
  0
LWPOLYLINE
  5
446
330
18
100
AcDbEntity
  8
TEXT
100
AcDbPolyline
 90
        2
 70
     0
 43
0.0
 10
0.5166597049721613
 20
-0.346761437402467
 42
0.2901071551932823
 10
0.5597356378397969
 20
-0.3902523823529051
 42
5.328517124445801
  0
LWPOLYLINE
  5
447
330
18
100
AcDbEntity
  8
TEXT
100
AcDbPolyline
 90
        2
 70
     0
 43
0.0
 10
0.5597356378397969
 20
-0.3902523823529051
 10
0.6937530554711735
 20
-0.3902523823529051
 42
0.9999999999999998
  0
LWPOLYLINE
  5
448
330
18
100
AcDbEntity
  8
TEXT
100
AcDbPolyline
 90
        4
 70
     1
 43
0.0
 10
0.673630590401281
 20
-0.2872884043688799
 10
0.5849702717414225
 20
-0.2872884043688799
 42
0.9999999999999998
 10
0.5849702717414225
 20
-0.3296869448727406
 10
0.673630590401281
 20
-0.3296869448727406
 42
1.0
  0
ARC
  5
449
330
18
100
AcDbEntity
  8
TEXT
100
AcDbCircle
 10
0.578411559334997
 20
-0.2930165986274105
 30
0.0
 40
0.0676855811441166
100
AcDbArc
 50
90.0
 51
153.7768192527749
  0
LINE
  5
44A
330
18
100
AcDbEntity
  8
TEXT
100
AcDbLine
 10
0.7951842021741529
 20
-0.3902523823529051
 30
0.0
 11
0.7951842021741476
 21
-0.2129618769214367
 31
0.0
  0
LINE
  5
44B
330
18
100
AcDbEntity
  8
TEXT
100
AcDbLine
 10
0.5176922004269704
 20
-0.1880560440211596
 30
0.0
 11
0.5176922004269704
 21
-0.2631084500953662
 31
0.0
  0
LINE
  5
44C
330
18
100
AcDbEntity
  8
TEXT
100
AcDbLine
 10
0.820090077456812
 20
-0.1880560440211596
 30
0.0
 11
0.8967380587493698
 21
-0.1880560440211596
 31
0.0
  0
LINE
  5
44D
330
18
100
AcDbEntity
  8
TEXT
100
AcDbLine
 10
0.8922581714228696
 20
-0.1237793493643942
 30
0.0
 11
0.8247584537733532
 21
-0.1237793493643942
 31
0.0
  0
LWPOLYLINE
  5
44E
330
18
100
AcDbEntity
  8
TEXT
100
AcDbPolyline
 90
        2
 70
     0
 43
0.0
 10
0.3118821996492862
 20
-0.1880560440211596
 42
-0.4142135623731017
 10
0.3194359888153997
 20
-0.1956098331872695
 42
-0.9999999999999998
  0
LWPOLYLINE
  5
44F
330
18
100
AcDbEntity
  8
TEXT
100
AcDbPolyline
 90
        2
 70
     0
 43
0.0
 10
0.44062763251819
 20
-0.1880560440211596
 42
-0.4142135623731017
 10
0.4481814216843035
 20
-0.1956098331872695
 42
-0.9999999999999998
  0
LWPOLYLINE
  5
450
330
18
100
AcDbEntity
  8
TEXT
100
AcDbPolyline
 90
        2
 70
     0
 43
0.0
 10
0.3292339226993075
 20
-0.1237793493643906
 42
-0.3328679258950098
 10
0.3650156134124689
 20
-0.1509468461252865
 42
6.772930709997214
  0
LWPOLYLINE
  5
451
330
18
100
AcDbEntity
  8
TEXT
100
AcDbPolyline
 90
        3
 70
     0
 43
0.0
 10
0.4833157722285133
 20
-0.1237793493643906
 10
0.3650156134124689
 20
-0.1237793493643906
 10
0.3650156134124689
 20
-0.1509468461252865
 42
-1.960274751411753
  0
LINE
  5
452
330
18
100
AcDbEntity
  8
TEXT
100
AcDbLine
 10
0.3864940355972406
 20
-0.1880560440211596
 30
0.0
 11
0.4406276325181909
 21
-0.1880560440211596
 31
0.0
  0
LINE
  5
453
330
18
100
AcDbEntity
  8
TEXT
100
AcDbLine
 10
0.2620469198261395
 20
-0.1880560440211596
 30
0.0
 11
0.3118821996492871
 21
-0.1880560440211596
 31
0.0
  0
LINE
  5
454
330
18
100
AcDbEntity
  8
TEXT
100
AcDbLine
 10
0.3292339226993066
 20
-0.1237793493643942
 30
0.0
 11
0.1952158667681703
 21
-0.1237793493643942
 31
0.0
  0
LINE
  5
455
330
18
100
AcDbEntity
  8
TEXT
100
AcDbLine
 10
0.3194359888154006
 20
-0.3902523823529051
 30
0.0
 11
0.3864940355972406
 21
-0.3902523823529051
 31
0.0
  0
LINE
  5
456
330
18
100
AcDbEntity
  8
TEXT
100
AcDbLine
 10
0.1640435861267049
 20
-0.3902523823529051
 30
0.0
 11
0.2620469198261395
 21
-0.3902523823529051
 31
0.0
  0
LINE
  5
457
330
18
100
AcDbEntity
  8
TEXT
100
AcDbLine
 10
0.1952158667681703
 20
-0.3246435560968024
 30
0.0
 11
0.1782222298835689
 21
-0.3246435560968024
 31
0.0
  0
ARC
  5
458
330
18
100
AcDbEntity
  8
TEXT
100
AcDbCircle
 10
0.1782222298835681
 20
-0.3092617498533769
 30
0.0
 40
0.0153818062434269
100
AcDbArc
 50
174.7883570302258
 51
270.0
  0
LINE
  5
459
330
18
100
AcDbEntity
  8
TEXT
100
AcDbLine
 10
0.2620469198261395
 20
-0.3902523823529051
 30
0.0
 11
0.2620469198261395
 21
-0.1880560440211596
 31
0.0
  0
LINE
  5
45A
330
18
100
AcDbEntity
  8
TEXT
100
AcDbLine
 10
0.3194359888154006
 20
-0.1956098331872695
 30
0.0
 11
0.3194359888154006
 21
-0.3902523823529051
 31
0.0
  0
LINE
  5
45B
330
18
100
AcDbEntity
  8
TEXT
100
AcDbLine
 10
0.3864940355972406
 20
-0.3902523823529051
 30
0.0
 11
0.3864940355972406
 21
-0.1880560440211596
 31
0.0
  0
LINE
  5
45C
330
18
100
AcDbEntity
  8
TEXT
100
AcDbLine
 10
0.1952158667681703
 20
-0.1237793493643942
 30
0.0
 11
0.1952158667681703
 21
-0.3246435560968024
 31
0.0
  0
LINE
  5
45D
330
18
100
AcDbEntity
  8
TEXT
100
AcDbLine
 10
0.1629040126305101
 20
-0.3078645442499059
 30
0.0
 11
0.1629040126305101
 21
-0.0557678716255836
 31
0.0
  0
LINE
  5
45E
330
18
100
AcDbEntity
  8
TEXT
100
AcDbLine
 10
0.0960953000641451
 20
-0.0557678716255836
 30
0.0
 11
0.0960953000641451
 21
-0.1237793493643942
 31
0.0
  0
LINE
  5
45F
330
18
100
AcDbEntity
  8
TEXT
100
AcDbLine
 10
0.0960953000641451
 20
-0.1237793493643942
 30
0.0
 11
0.0659733872707689
 21
-0.1237793493643942
 31
0.0
  0
LINE
  5
460
330
18
100
AcDbEntity
  8
TEXT
100
AcDbLine
 10
0.0659733872707689
 20
-0.1237793493643942
 30
0.0
 11
0.0072248244649034
 21
-0.2246513454775147
 31
0.0
  0
LINE
  5
461
330
18
100
AcDbEntity
  8
TEXT
100
AcDbLine
 10
0.0072248244649034
 20
-0.2246513454775147
 30
0.0
 11
-0.0514054965670345
 21
-0.1237793493643942
 31
0.0
  0
LINE
  5
462
330
18
100
AcDbEntity
  8
TEXT
100
AcDbLine
 10
-0.1232044627109419
 20
-0.1237793493643942
 30
0.0
 11
-0.1232044627109419
 21
-0.089391431770256
 31
0.0
  0
LINE
  5
463
330
18
100
AcDbEntity
  8
TEXT
100
AcDbLine
 10
-0.1232044627109419
 20
-0.089391431770256
 30
0.0
 11
-0.1832470675549489
 21
-0.089391431770256
 31
0.0
  0
LINE
  5
464
330
18
100
AcDbEntity
  8
TEXT
100
AcDbLine
 10
-0.1832470675549489
 20
-0.089391431770256
 30
0.0
 11
-0.1832470675549489
 21
-0.1237793493643942
 31
0.0
  0
LINE
  5
465
330
18
100
AcDbEntity
  8
TEXT
100
AcDbLine
 10
-0.0514054965670345
 20
-0.1237793493643942
 30
0.0
 11
-0.1232044627109419
 21
-0.1237793493643942
 31
0.0
  0
ARC
  5
466
330
18
100
AcDbEntity
  8
TEXT
100
AcDbCircle
 10
-0.036418972444265
 20
-0.3507046600792094
 30
0.0
 40
0.0392772371940762
100
AcDbArc
 50
270.1604552698595
 51
330.0831797321295
  0
ARC
  5
467
330
18
100
AcDbEntity
  8
TEXT
100
AcDbCircle
 10
-0.1267198183364897
 20
-0.3304599910148553
 30
0.0
 40
0.0601160179737537
100
AcDbArc
 50
180.0000000000003
 51
264.0521544866073
  0
LINE
  5
468
330
18
100
AcDbEntity
  8
TEXT
100
AcDbLine
 10
-0.1329492288301362
 20
-0.3902523823529051
 30
0.0
 11
-0.0363089777551418
 21
-0.3899817432546229
 31
0.0
  0
LWPOLYLINE
  5
469
330
18
100
AcDbEntity
  8
TEXT
100
AcDbPolyline
 90
        6
 70
     1
 43
0.0
 10
-0.0904254252549866
 20
-0.1880560440211596
 10
-0.1207420194751947
 20
-0.1880560440211596
 10
-0.1207420194751947
 20
-0.3111670420760539
 42
0.407328721240804
 10
-0.1091983683137183
 20
-0.32298595675244
 10
-0.0485766692689875
 20
-0.32298595675244
 10
-0.0311113288616696
 20
-0.2901737277089609
  0
LINE
  5
46A
330
18
100
AcDbEntity
  8
TEXT
100
AcDbLine
 10
-0.1868358363102418
 20
-0.1880560440211596
 30
0.0
 11
-0.1868358363102418
 21
-0.3304599910148553
 31
0.0
  0
LINE
  5
46B
330
18
100
AcDbEntity
  8
TEXT
100
AcDbLine
 10
-0.002375412532051
 20
-0.3702938762478922
 30
0.0
 11
0.0949242935613937
 21
-0.2059436653126241
 31
0.0
  0
LINE
  5
46C
330
18
100
AcDbEntity
  8
TEXT
100
AcDbLine
 10
0.0949242935613937
 20
-0.2059436653126241
 30
0.0
 11
0.0949242935613937
 21
-0.3387010401379804
 31
0.0
  0
LWPOLYLINE
  5
46D
330
18
100
AcDbEntity
  8
TEXT
100
AcDbPolyline
 90
        2
 70
     0
 43
0.0
 10
0.0949242935613928
 20
-0.3387010401379769
 42
0.3318488747599744
 10
0.1640435861267058
 20
-0.3902523823529051
 42
-6.868794160588311
  0
LINE
  5
46E
330
18
100
AcDbEntity
  8
TEXT
100
AcDbLine
 10
0.1629040126305101
 20
-0.0557678716255836
 30
0.0
 11
0.0960953000641451
 21
-0.0557678716255836
 31
0.0
  0
LWPOLYLINE
  5
46F
330
18
100
AcDbEntity
  8
TEXT
100
AcDbPolyline
 90
        4
 70
     0
 43
0.0
 10
0.4481814216843035
 20
-0.1956098331872695
 10
0.4481814216843035
 20
-0.3902523823529051
 10
0.5166597049721613
 20
-0.3902523823529051
 10
0.5166597049721613
 20
-0.346761437402467
 42
-1.714843617202739
  0
LWPOLYLINE
  5
470
330
18
100
AcDbEntity
  8
TEXT
100
AcDbPolyline
 90
        2
 70
     0
 43
0.0
 10
0.4833157722285133
 20
-0.1237793493643906
 42
-0.3277054968067132
 10
0.5190974629416783
 20
-0.1521018951340345
 42
6.667889725900311
  0
TEXT
  5
471
330
18
100
AcDbEntity
  8
TEXT
100
AcDbText
 10
1.26566173675507
 20
-0.2973665737074089
 30
0.0
 40
0.0522247191011236
  1
Minneapolis, MN 55432-0008
 41
1.11444212721585
 72
     5
 11
2.594594321024734
 21
-0.2973665737074089
 31
0.0
100
AcDbText
  0
TEXT
  5
472
330
18
100
AcDbEntity
  8
TEXT
100
AcDbText
 10
1.26566173675507
 20
-0.2041081467411168
 30
0.0
 40
0.0522247191011236
  1
6536 Main St. N.E. * P.O. Box 32008
 41
0.8388932496075353
 72
     5
 11
2.594594321024734
 21
-0.2041081467411168
 31
0.0
100
AcDbText
  0
TEXT
  5
473
330
18
100
AcDbEntity
  8
TEXT
100
AcDbText
 10
1.26566173675507
 20
-0.1108497197748246
 30
0.0
 40
0.0522247191011236
  1
Stylmark  Incorporated
 41
1.221428571428571
 72
     5
 11
2.594594321024734
 21
-0.1108497197748246
 31
0.0
100
AcDbText
  0
TEXT
  5
474
330
18
100
AcDbEntity
  8
TEXT
100
AcDbText
 10
1.26566173675507
 20
-0.3906250006737011
 30
0.0
 40
0.0522247191011236
  1
Phone  1-800-328-2495
 41
1.272321428571429
 72
     5
 11
2.594594321024734
 21
-0.3906250006737011
 31
0.0
100
AcDbText
  0
LINE
  5
475
330
18
100
AcDbEntity
  8
TEXT
100
AcDbLine
 10
-0.2881413540949111
 20
-0.2238607656317875
 30
0.0
 11
-0.3537414903392122
 21
-0.2238607656317875
 31
0.0
  0
ARC
  5
476
330
18
100
AcDbEntity
  8
TEXT
100
AcDbCircle
 10
-0.3537414903392122
 20
-0.2059584048264718
 30
0.0
 40
0.017902360805315
100
AcDbArc
 50
90.0
 51
270.0
  0
LINE
  5
477
330
18
100
AcDbEntity
  8
TEXT
100
AcDbLine
 10
-0.3589788204534603
 20
-0.2879542682574012
 30
0.0
 11
-0.2832009801886315
 21
-0.2879542682574012
 31
0.0
  0
LINE
  5
478
330
18
100
AcDbEntity
  8
TEXT
100
AcDbLine
 10
-0.2832009801886315
 20
-0.3218953760194658
 30
0.0
 11
-0.4410662798999656
 21
-0.3218953760194658
 31
0.0
  0
LINE
  5
479
330
18
100
AcDbEntity
  8
TEXT
100
AcDbLine
 10
-0.4410662798999639
 20
-0.3902523823529051
 30
0.0
 11
-0.2881413540949111
 21
-0.3902523823529051
 31
0.0
  0
ARC
  5
47A
330
18
100
AcDbEntity
  8
TEXT
100
AcDbCircle
 10
-0.3589788204534603
 20
-0.2058668088108959
 30
0.0
 40
0.0820874594465043
100
AcDbArc
 50
90.0
 51
270.0
  0
LINE
  5
47B
330
18
100
AcDbEntity
  8
TEXT
100
AcDbLine
 10
-0.1832470675549489
 20
-0.1237793493643942
 30
0.0
 11
-0.3589788204534603
 21
-0.1237793493643942
 31
0.0
  0
ARC
  5
47C
330
18
100
AcDbEntity
  8
TEXT
100
AcDbCircle
 10
-0.2832009801886315
 20
-0.3049248221384317
 30
0.0
 40
0.0169705538810321
100
AcDbArc
 50
270.0
 51
90.0
  0
ARC
  5
47D
330
18
100
AcDbEntity
  8
TEXT
100
AcDbCircle
 10
-0.2881413540949111
 20
-0.3070565739923481
 30
0.0
 40
0.0831958083605586
100
AcDbArc
 50
270.0
 51
90.0
  0
LINE
  5
47E
330
18
100
AcDbEntity
  8
TEXT
100
AcDbLine
 10
-0.3537414903392122
 20
-0.1880560440211596
 30
0.0
 11
-0.1868358363102418
 21
-0.1880560440211596
 31
0.0
  0
LWPOLYLINE
  5
47F
330
18
100
AcDbEntity
  8
TEXT
100
AcDbPolyline
 90
        2
 70
     0
 43
0.0006660908203125
 10
-0.650499259999739
 20
-0.2370147888175182
 10
-0.623855627187238
 20
-0.2370147888175182
  0
LINE
  5
480
330
18
100
AcDbEntity
  8
TEXT
100
AcDbLine
 10
-0.4410662798999656
 20
-0.3218953760194658
 30
0.0
 11
-0.4410662798999639
 21
-0.3902523823529051
 31
0.0
  0
LWPOLYLINE
  5
481
330
18
100
AcDbEntity
  8
TEXT
100
AcDbPolyline
 90
        2
 70
     0
 43
0.0006660908203125
 10
-0.650499259999739
 20
-0.2769802380362663
 10
-0.623855627187238
 20
-0.2769802380362663
  0
LWPOLYLINE
  5
482
330
18
100
AcDbEntity
  8
TEXT
100
AcDbPolyline
 90
        2
 70
     0
 43
0.0001332181640625
 10
-0.7370910666403639
 20
-0.1237793493643906
 10
-0.7470824289450527
 20
-0.1970493395987702
  0
LWPOLYLINE
  5
483
330
18
100
AcDbEntity
  8
TEXT
100
AcDbPolyline
 90
        2
 70
     0
 43
0.0001332181640625
 10
-0.7370910666403639
 20
-0.1504229821768916
 10
-0.7470824289450527
 20
-0.2103711560050172
  0
LWPOLYLINE
  5
484
330
18
100
AcDbEntity
  8
TEXT
100
AcDbPolyline
 90
        2
 70
     0
 43
0.0006660908203125
 10
-0.7370910666403639
 20
-0.1504229821768916
 10
-0.7370910666403639
 20
-0.1237793493643906
  0
LWPOLYLINE
  5
485
330
18
100
AcDbEntity
  8
TEXT
100
AcDbPolyline
 90
        5
 70
     0
 43
0.0001332181640625
 10
-0.7470824289450527
 20
-0.1970493395987702
 10
-0.7470824289450527
 20
-0.2103711560050172
 10
-0.7104474338278628
 20
-0.2103711560050172
 10
-0.7104474338278628
 20
-0.247006151122207
 10
-0.6971256174216141
 20
-0.247006151122207
  0
LWPOLYLINE
  5
486
330
18
100
AcDbEntity
  8
TEXT
100
AcDbPolyline
 90
        2
 70
     0
 43
0.0001332181640625
 10
-0.7770565158591154
 20
-0.1504229821768916
 10
-0.7670651535544249
 20
-0.2103711560050172
  0
LWPOLYLINE
  5
487
330
18
100
AcDbEntity
  8
TEXT
100
AcDbPolyline
 90
        2
 70
     0
 43
0.0001332181640625
 10
-0.7670651535544249
 20
-0.1970493395987702
 10
-0.7770565158591154
 20
-0.1237793493643906
  0
LWPOLYLINE
  5
488
330
18
100
AcDbEntity
  8
TEXT
100
AcDbPolyline
 90
        2
 70
     0
 43
0.0006660908203125
 10
-0.7770565158591154
 20
-0.1504229821768916
 10
-0.7770565158591154
 20
-0.1237793493643906
  0
LWPOLYLINE
  5
489
330
18
100
AcDbEntity
  8
TEXT
100
AcDbPolyline
 90
        5
 70
     0
 43
0.0001332181640625
 10
-0.8170219650778633
 20
-0.247006151122207
 10
-0.8037001486716146
 20
-0.247006151122207
 10
-0.8037001486716146
 20
-0.2103711560050172
 10
-0.7670651535544249
 20
-0.2103711560050172
 10
-0.7670651535544249
 20
-0.1970493395987702
  0
LWPOLYLINE
  5
48A
330
18
100
AcDbEntity
  8
TEXT
100
AcDbPolyline
 90
        2
 70
     0
 43
0.0006660908203125
 10
-0.8636483224997402
 20
-0.2370147888175182
 10
-0.8902919553122377
 20
-0.2370147888175182
  0
LWPOLYLINE
  5
48B
330
18
100
AcDbEntity
  8
TEXT
100
AcDbPolyline
 90
        2
 70
     0
 43
0.0001332181640625
 10
-0.8902919553122377
 20
-0.2370147888175182
 10
-0.8170219650778633
 20
-0.247006151122207
  0
LWPOLYLINE
  5
48C
330
18
100
AcDbEntity
  8
TEXT
100
AcDbPolyline
 90
        2
 70
     0
 43
0.0001332181640625
 10
-0.8636483224997402
 20
-0.2370147888175182
 10
-0.8037001486716146
 20
-0.247006151122207
  0
LWPOLYLINE
  5
48D
330
18
100
AcDbEntity
  8
TEXT
100
AcDbPolyline
 90
        2
 70
     0
 43
0.0001332181640625
 10
-0.8636483224997402
 20
-0.1504229821768916
 10
-0.8037001486716146
 20
-0.2103711560050172
  0
LWPOLYLINE
  5
48E
330
18
100
AcDbEntity
  8
TEXT
100
AcDbPolyline
 90
        3
 70
     0
 43
0.0006660908203125
 10
-0.7770565158591154
 20
-0.1504229821768916
 10
-0.8636483224997402
 20
-0.1504229821768916
 10
-0.8636483224997402
 20
-0.2370147888175182
  0
LWPOLYLINE
  5
48F
330
18
100
AcDbEntity
  8
TEXT
100
AcDbPolyline
 90
        3
 70
     0
 43
0.0006660908203125
 10
-0.7770565158591154
 20
-0.1237793493643906
 10
-0.8902919553122377
 20
-0.1237793493643906
 10
-0.8902919553122377
 20
-0.2370147888175182
  0
LWPOLYLINE
  5
490
330
18
100
AcDbEntity
  8
TEXT
100
AcDbPolyline
 90
        5
 70
     0
 43
0.0001332181640625
 10
-0.6971256174216141
 20
-0.266988875731581
 10
-0.7104474338278628
 20
-0.266988875731581
 10
-0.7104474338278628
 20
-0.3036238708487673
 10
-0.7470824289450527
 20
-0.3036238708487673
 10
-0.7470824289450527
 20
-0.3169456872550178
  0
LWPOLYLINE
  5
491
330
18
100
AcDbEntity
  8
TEXT
100
AcDbPolyline
 90
        2
 70
     0
 43
0.0006660908203125
 10
-0.7370910666403639
 20
-0.3635720446768929
 10
-0.7370910666403639
 20
-0.3902156774893939
  0
LWPOLYLINE
  5
492
330
18
100
AcDbEntity
  8
TEXT
100
AcDbPolyline
 90
        2
 70
     0
 43
0.0001332181640625
 10
-0.7470824289450527
 20
-0.3169456872550178
 10
-0.7370910666403639
 20
-0.3902156774893939
  0
LWPOLYLINE
  5
493
330
18
100
AcDbEntity
  8
TEXT
100
AcDbPolyline
 90
        2
 70
     0
 43
0.0001332181640625
 10
-0.7370910666403639
 20
-0.3635720446768929
 10
-0.7470824289450527
 20
-0.3036238708487673
  0
LWPOLYLINE
  5
494
330
18
100
AcDbEntity
  8
TEXT
100
AcDbPolyline
 90
        2
 70
     0
 43
0.0001332181640625
 10
-0.7770565158591154
 20
-0.3902156774893939
 10
-0.7670651535544249
 20
-0.3169456872550178
  0
LWPOLYLINE
  5
495
330
18
100
AcDbEntity
  8
TEXT
100
AcDbPolyline
 90
        2
 70
     0
 43
0.0001332181640625
 10
-0.7770565158591154
 20
-0.3635720446768929
 10
-0.7670651535544249
 20
-0.3036238708487673
  0
LWPOLYLINE
  5
496
330
18
100
AcDbEntity
  8
TEXT
100
AcDbPolyline
 90
        2
 70
     0
 43
0.0006660908203125
 10
-0.7770565158591154
 20
-0.3635720446768929
 10
-0.7770565158591154
 20
-0.3902156774893939
  0
LWPOLYLINE
  5
497
330
18
100
AcDbEntity
  8
TEXT
100
AcDbPolyline
 90
        5
 70
     0
 43
0.0001332181640625
 10
-0.7670651535544249
 20
-0.3169456872550178
 10
-0.7670651535544249
 20
-0.3036238708487673
 10
-0.8037001486716128
 20
-0.3036238708487673
 10
-0.8037001486716128
 20
-0.266988875731581
 10
-0.8170219650778633
 20
-0.266988875731581
  0
LWPOLYLINE
  5
498
330
18
100
AcDbEntity
  8
TEXT
100
AcDbPolyline
 90
        2
 70
     0
 43
0.0006660908203125
 10
-0.8636483224997402
 20
-0.2769802380362663
 10
-0.8902919553122377
 20
-0.2769802380362663
  0
LWPOLYLINE
  5
499
330
18
100
AcDbEntity
  8
TEXT
100
AcDbPolyline
 90
        2
 70
     0
 43
0.0001332181640625
 10
-0.8636483224997402
 20
-0.3635720446768929
 10
-0.8037001486716128
 20
-0.3036238708487673
  0
LWPOLYLINE
  5
49A
330
18
100
AcDbEntity
  8
TEXT
100
AcDbPolyline
 90
        2
 70
     0
 43
0.0001332181640625
 10
-0.8636483224997402
 20
-0.2769802380362663
 10
-0.8037001486716128
 20
-0.266988875731581
  0
LWPOLYLINE
  5
49B
330
18
100
AcDbEntity
  8
TEXT
100
AcDbPolyline
 90
        2
 70
     0
 43
0.0001332181640625
 10
-0.8170219650778633
 20
-0.266988875731581
 10
-0.8902919553122377
 20
-0.2769802380362663
  0
LWPOLYLINE
  5
49C
330
18
100
AcDbEntity
  8
TEXT
100
AcDbPolyline
 90
        3
 70
     0
 43
0.0006660908203125
 10
-0.8636483224997402
 20
-0.2769802380362663
 10
-0.8636483224997402
 20
-0.3635720446768929
 10
-0.7770565158591154
 20
-0.3635720446768929
  0
LWPOLYLINE
  5
49D
330
18
100
AcDbEntity
  8
TEXT
100
AcDbPolyline
 90
        3
 70
     0
 43
0.0006660908203125
 10
-0.8902919553122377
 20
-0.2769802380362663
 10
-0.8902919553122377
 20
-0.3902156774893939
 10
-0.7770565158591154
 20
-0.3902156774893939
  0
LWPOLYLINE
  5
49E
330
18
100
AcDbEntity
  8
TEXT
100
AcDbPolyline
 90
        3
 70
     0
 43
0.0006660908203125
 10
-0.7370910666403639
 20
-0.3902156774893939
 10
-0.623855627187238
 20
-0.3902156774893939
 10
-0.623855627187238
 20
-0.2769802380362663
  0
LWPOLYLINE
  5
49F
330
18
100
AcDbEntity
  8
TEXT
100
AcDbPolyline
 90
        3
 70
     0
 43
0.0006660908203125
 10
-0.7370910666403639
 20
-0.3635720446768929
 10
-0.650499259999739
 20
-0.3635720446768929
 10
-0.650499259999739
 20
-0.2769802380362663
  0
LWPOLYLINE
  5
4A0
330
18
100
AcDbEntity
  8
TEXT
100
AcDbPolyline
 90
        2
 70
     0
 43
0.0001332181640625
 10
-0.650499259999739
 20
-0.3635720446768929
 10
-0.7104474338278628
 20
-0.3036238708487673
  0
LWPOLYLINE
  5
4A1
330
18
100
AcDbEntity
  8
TEXT
100
AcDbPolyline
 90
        2
 70
     0
 43
0.0001332181640625
 10
-0.650499259999739
 20
-0.2769802380362663
 10
-0.7104474338278628
 20
-0.266988875731581
  0
LWPOLYLINE
  5
4A2
330
18
100
AcDbEntity
  8
TEXT
100
AcDbPolyline
 90
        2
 70
     0
 43
0.0001332181640625
 10
-0.623855627187238
 20
-0.2769802380362663
 10
-0.6971256174216141
 20
-0.266988875731581
  0
LWPOLYLINE
  5
4A3
330
18
100
AcDbEntity
  8
TEXT
100
AcDbPolyline
 90
        2
 70
     0
 43
0.0001332181640625
 10
-0.650499259999739
 20
-0.1504229821768916
 10
-0.7104474338278628
 20
-0.2103711560050172
  0
LWPOLYLINE
  5
4A4
330
18
100
AcDbEntity
  8
TEXT
100
AcDbPolyline
 90
        2
 70
     0
 43
0.0001332181640625
 10
-0.650499259999739
 20
-0.2370147888175182
 10
-0.7104474338278628
 20
-0.247006151122207
  0
LWPOLYLINE
  5
4A5
330
18
100
AcDbEntity
  8
TEXT
100
AcDbPolyline
 90
        2
 70
     0
 43
0.0001332181640625
 10
-0.6971256174216141
 20
-0.247006151122207
 10
-0.623855627187238
 20
-0.2370147888175182
  0
LWPOLYLINE
  5
4A6
330
18
100
AcDbEntity
  8
TEXT
100
AcDbPolyline
 90
        3
 70
     0
 43
0.0006660908203125
 10
-0.650499259999739
 20
-0.2370147888175182
 10
-0.650499259999739
 20
-0.1504229821768916
 10
-0.7370910666403639
 20
-0.1504229821768916
  0
LWPOLYLINE
  5
4A7
330
18
100
AcDbEntity
  8
TEXT
100
AcDbPolyline
 90
        3
 70
     0
 43
0.0006660908203125
 10
-0.623855627187238
 20
-0.2370147888175182
 10
-0.623855627187238
 20
-0.1237793493643906
 10
-0.7370910666403639
 20
-0.1237793493643906
  0
ENDSEC
  0
SECTION
  2
OBJECTS
  0
DICTIONARY
  5
C
330
0
100
AcDbDictionary
  3
ACAD_GROUP
350
D
  3
ACAD_LAYOUT
350
4AC
  3
ACAD_MLINESTYLE
350
E
  3
ACAD_PLOTSETTINGS
350
4AD
  3
ACAD_PLOTSTYLENAME
350
4AA
  3
ACDBHEADERROUNDTRIPXREC
350
4B8
  3
ACDBVARIABLEDICTIONARY
350
4B5
  0
DICTIONARY
  5
4DA
330
18
100
AcDbDictionary
280
     1
  3
ACAD_LAYOUTSELFREF
360
4DB
  0
DICTIONARY
  5
4D8
330
15
100
AcDbDictionary
280
     1
  3
ACAD_LAYOUTSELFREF
360
4D9
  0
DICTIONARY
  5
D
102
{ACAD_REACTORS
330
C
102
}
330
C
100
AcDbDictionary
  0
DICTIONARY
  5
4AC
102
{ACAD_REACTORS
330
C
102
}
330
C
100
AcDbDictionary
  0
DICTIONARY
  5
E
102
{ACAD_REACTORS
330
C
102
}
330
C
100
AcDbDictionary
  3
STANDARD
350
1B
  0
DICTIONARY
  5
4AD
102
{ACAD_REACTORS
330
C
102
}
330
C
100
AcDbDictionary
  0
ACDBDICTIONARYWDFLT
  5
4AA
102
{ACAD_REACTORS
330
C
102
}
330
C
100
AcDbDictionary
281
     1
  3
Normal
350
4AB
100
AcDbDictionaryWithDefault
340
4AB
  0
DICTIONARY
  5
4B8
102
{ACAD_REACTORS
330
C
102
}
330
C
100
AcDbDictionary
  3
CEPSNTYPE
350
4C2
  3
FINGERPRINTGUID
350
4C3
  3
HYPERLINKBASE
350
4BB
  3
INSUNITS
350
4C1
  3
LAYOUTDICT
350
4BD
  3
LWETCUNION
350
4C0
  3
PLOTSETDICT
350
4BE
  3
PLOTSTYLNAMDICT
350
4BF
  3
PSVPSCALE
350
4C5
  3
PUCSBASE
350
4C8
  3
PUCSORGBACK
350
4CE
  3
PUCSORGBOTTOM
350
4CA
  3
PUCSORGFRONT
350
4CD
  3
PUCSORGLEFT
350
4CB
  3
PUCSORGRIGHT
350
4CC
  3
PUCSORGTOP
350
4C9
  3
PUCSORTHOREF
350
4C6
  3
PUCSORTHOVIEW
350
4C7
  3
STYLESHEET
350
4BC
  3
TSTACKALIGN
350
4B9
  3
TSTACKSIZE
350
4BA
  3
UCSBASE
350
4D1
  3
UCSORGBACK
350
4D7
  3
UCSORGBOTTOM
350
4D3
  3
UCSORGFRONT
350
4D6
  3
UCSORGLEFT
350
4D4
  3
UCSORGRIGHT
350
4D5
  3
UCSORGTOP
350
4D2
  3
UCSORTHOREF
350
4CF
  3
UCSORTHOVIEW
350
4D0
  3
VERSIONGUID
350
4C4
  0
DICTIONARY
  5
4B5
102
{ACAD_REACTORS
330
C
102
}
330
C
100
AcDbDictionary
  3
DIMASSOC
350
4B6
  0
XRECORD
  5
4DB
102
{ACAD_REACTORS
330
4DA
102
}
330
4DA
100
AcDbXrecord
340
18
  0
XRECORD
  5
4D9
102
{ACAD_REACTORS
330
4D8
102
}
330
4D8
100
AcDbXrecord
340
15
  0
MLINESTYLE
  5
1B
102
{ACAD_REACTORS
330
E
102
}
330
E
100
AcDbMlineStyle
  2
STANDARD
 70
     0
  3

 62
     0
 51
90.0
 52
90.0
 71
     2
 49
0.5
 62
   256
  6
BYLAYER
 49
-0.5
 62
   256
  6
BYLAYER
  0
ACDBPLACEHOLDER
  5
4AB
102
{ACAD_REACTORS
330
4AA
102
}
330
4AA
100
AcDbPlaceHolder
280
     0
  0
XRECORD
  5
4C2
102
{ACAD_REACTORS
330
4B8
102
}
330
4B8
100
AcDbXrecord
 90
        0
  0
XRECORD
  5
4C3
102
{ACAD_REACTORS
330
4B8
102
}
330
4B8
100
AcDbXrecord
  1
{51456A60-8DB4-11D6-88E6-0090279574E7}
  0
XRECORD
  5
4BB
102
{ACAD_REACTORS
330
4B8
102
}
330
4B8
100
AcDbXrecord
  1

  0
XRECORD
  5
4C1
102
{ACAD_REACTORS
330
4B8
102
}
330
4B8
100
AcDbXrecord
 90
        0
  0
XRECORD
  5
4BD
102
{ACAD_REACTORS
330
4B8
102
}
330
4B8
100
AcDbXrecord
340
4AC
  0
XRECORD
  5
4C0
102
{ACAD_REACTORS
330
4B8
102
}
330
4B8
100
AcDbXrecord
 90
    14877
  0
XRECORD
  5
4BE
102
{ACAD_REACTORS
330
4B8
102
}
330
4B8
100
AcDbXrecord
340
4AD
  0
XRECORD
  5
4BF
102
{ACAD_REACTORS
330
4B8
102
}
330
4B8
100
AcDbXrecord
340
4AA
  0
XRECORD
  5
4C5
102
{ACAD_REACTORS
330
4B8
102
}
330
4B8
100
AcDbXrecord
 40
0.0
  0
XRECORD
  5
4C8
102
{ACAD_REACTORS
330
4B8
102
}
330
4B8
100
AcDbXrecord
340
0
  0
XRECORD
  5
4CE
102
{ACAD_REACTORS
330
4B8
102
}
330
4B8
100
AcDbXrecord
 10
0.0
 20
0.0
 30
0.0
  0
XRECORD
  5
4CA
102
{ACAD_REACTORS
330
4B8
102
}
330
4B8
100
AcDbXrecord
 10
0.0
 20
0.0
 30
0.0
  0
XRECORD
  5
4CD
102
{ACAD_REACTORS
330
4B8
102
}
330
4B8
100
AcDbXrecord
 10
0.0
 20
0.0
 30
0.0
  0
XRECORD
  5
4CB
102
{ACAD_REACTORS
330
4B8
102
}
330
4B8
100
AcDbXrecord
 10
0.0
 20
0.0
 30
0.0
  0
XRECORD
  5
4CC
102
{ACAD_REACTORS
330
4B8
102
}
330
4B8
100
AcDbXrecord
 10
0.0
 20
0.0
 30
0.0
  0
XRECORD
  5
4C9
102
{ACAD_REACTORS
330
4B8
102
}
330
4B8
100
AcDbXrecord
 10
0.0
 20
0.0
 30
0.0
  0
XRECORD
  5
4C6
102
{ACAD_REACTORS
330
4B8
102
}
330
4B8
100
AcDbXrecord
340
0
  0
XRECORD
  5
4C7
102
{ACAD_REACTORS
330
4B8
102
}
330
4B8
100
AcDbXrecord
 70
     0
  0
XRECORD
  5
4BC
102
{ACAD_REACTORS
330
4B8
102
}
330
4B8
100
AcDbXrecord
  1

  0
XRECORD
  5
4B9
102
{ACAD_REACTORS
330
4B8
102
}
330
4B8
100
AcDbXrecord
 90
        1
  0
XRECORD
  5
4BA
102
{ACAD_REACTORS
330
4B8
102
}
330
4B8
100
AcDbXrecord
 90
       70
  0
XRECORD
  5
4D1
102
{ACAD_REACTORS
330
4B8
102
}
330
4B8
100
AcDbXrecord
340
0
  0
XRECORD
  5
4D7
102
{ACAD_REACTORS
330
4B8
102
}
330
4B8
100
AcDbXrecord
 10
0.0
 20
0.0
 30
0.0
  0
XRECORD
  5
4D3
102
{ACAD_REACTORS
330
4B8
102
}
330
4B8
100
AcDbXrecord
 10
0.0
 20
0.0
 30
0.0
  0
XRECORD
  5
4D6
102
{ACAD_REACTORS
330
4B8
102
}
330
4B8
100
AcDbXrecord
 10
0.0
 20
0.0
 30
0.0
  0
XRECORD
  5
4D4
102
{ACAD_REACTORS
330
4B8
102
}
330
4B8
100
AcDbXrecord
 10
0.0
 20
0.0
 30
0.0
  0
XRECORD
  5
4D5
102
{ACAD_REACTORS
330
4B8
102
}
330
4B8
100
AcDbXrecord
 10
0.0
 20
0.0
 30
0.0
  0
XRECORD
  5
4D2
102
{ACAD_REACTORS
330
4B8
102
}
330
4B8
100
AcDbXrecord
 10
0.0
 20
0.0
 30
0.0
  0
XRECORD
  5
4CF
102
{ACAD_REACTORS
330
4B8
102
}
330
4B8
100
AcDbXrecord
340
0
  0
XRECORD
  5
4D0
102
{ACAD_REACTORS
330
4B8
102
}
330
4B8
100
AcDbXrecord
 70
     0
  0
XRECORD
  5
4C4
102
{ACAD_REACTORS
330
4B8
102
}
330
4B8
100
AcDbXrecord
  1
{51456A62-8DB4-11D6-88E6-0090279574E7}
  0
DICTIONARYVAR
  5
4B6
102
{ACAD_REACTORS
330
4B5
102
}
330
4B5
100
DictionaryVariables
280
     0
  1
1
  0
ENDSEC
  0
EOF
