  0
SECTION
  2
HEADER
  9
$ACADVER
  1
AC1014
  9
$ACADMAINTVER
 70
     9
  9
$DWGCODEPAGE
  3
ANSI_1252
  9
$INSBASE
 10
1.650815806441477
 20
1.832210022171121
 30
0.0
  9
$EXTMIN
 10
-0.0231657727856656
 20
-0.0476835819114598
 30
0.0
  9
$EXTMAX
 10
3.462053548961462
 20
2.217210022171123
 30
0.0
  9
$LIMMIN
 10
0.0
 20
0.0
  9
$LIMMAX
 10
18.0
 20
12.0
  9
$ORTHOMODE
 70
     1
  9
$REGENMODE
 70
     1
  9
$FILLMODE
 70
     1
  9
$QTEXTMODE
 70
     0
  9
$MIRRTEXT
 70
     0
  9
$DRAGMODE
 70
     2
  9
$LTSCALE
 40
1.0
  9
$OSMODE
 70
    39
  9
$ATTMODE
 70
     1
  9
$TEXTSIZE
 40
0.125
  9
$TRACEWID
 40
0.05
  9
$TEXTSTYLE
  7
ROMANS
  9
$CLAYER
  8
0
  9
$CELTYPE
  6
BYLAYER
  9
$CECOLOR
 62
   256
  9
$CELTSCALE
 40
1.0
  9
$DELOBJ
 70
     1
  9
$DISPSILH
 70
     1
  9
$DIMSCALE
 40
1.0
  9
$DIMASZ
 40
0.125
  9
$DIMEXO
 40
0.125
  9
$DIMDLI
 40
0.375
  9
$DIMRND
 40
0.0
  9
$DIMDLE
 40
0.0
  9
$DIMEXE
 40
0.125
  9
$DIMTP
 40
0.0
  9
$DIMTM
 40
0.0
  9
$DIMTXT
 40
0.125
  9
$DIMCEN
 40
-0.125
  9
$DIMTSZ
 40
0.0
  9
$DIMTOL
 70
     0
  9
$DIMLIM
 70
     0
  9
$DIMTIH
 70
     1
  9
$DIMTOH
 70
     1
  9
$DIMSE1
 70
     0
  9
$DIMSE2
 70
     0
  9
$DIMTAD
 70
     0
  9
$DIMZIN
 70
     4
  9
$DIMBLK
  1

  9
$DIMASO
 70
     1
  9
$DIMSHO
 70
     1
  9
$DIMPOST
  1

  9
$DIMAPOST
  1

  9
$DIMALT
 70
     0
  9
$DIMALTD
 70
     2
  9
$DIMALTF
 40
25.4
  9
$DIMLFAC
 40
1.0
  9
$DIMTOFL
 70
     0
  9
$DIMTVP
 40
0.0
  9
$DIMTIX
 70
     1
  9
$DIMSOXD
 70
     0
  9
$DIMSAH
 70
     0
  9
$DIMBLK1
  1

  9
$DIMBLK2
  1

  9
$DIMSTYLE
  2
STANDARD
  9
$DIMCLRD
 70
     0
  9
$DIMCLRE
 70
     0
  9
$DIMCLRT
 70
     0
  9
$DIMTFAC
 40
1.0
  9
$DIMGAP
 40
0.09
  9
$DIMJUST
 70
     0
  9
$DIMSD1
 70
     0
  9
$DIMSD2
 70
     0
  9
$DIMTOLJ
 70
     1
  9
$DIMTZIN
 70
     4
  9
$DIMALTZ
 70
     0
  9
$DIMALTTZ
 70
     0
  9
$DIMFIT
 70
     3
  9
$DIMUPT
 70
     0
  9
$DIMUNIT
 70
     2
  9
$DIMDEC
 70
     3
  9
$DIMTDEC
 70
     3
  9
$DIMALTU
 70
     2
  9
$DIMALTTD
 70
     2
  9
$DIMTXSTY
  7
ROMANS
  9
$DIMAUNIT
 70
     0
  9
$LUNITS
 70
     2
  9
$LUPREC
 70
     3
  9
$SKETCHINC
 40
0.1
  9
$FILLETRAD
 40
0.03125
  9
$AUNITS
 70
     0
  9
$AUPREC
 70
     0
  9
$MENU
  1
ACAD
  9
$ELEVATION
 40
0.0
  9
$PELEVATION
 40
0.0
  9
$THICKNESS
 40
0.0
  9
$LIMCHECK
 70
     0
  9
$BLIPMODE
 70
     0
  9
$CHAMFERA
 40
0.0
  9
$CHAMFERB
 40
0.0
  9
$CHAMFERC
 40
0.0
  9
$CHAMFERD
 40
0.0
  9
$SKPOLY
 70
     0
  9
$TDCREATE
 40
2448994.319338889
  9
$TDUPDATE
 40
2452458.296999143
  9
$TDINDWG
 40
0.0027621181
  9
$TDUSRTIMER
 40
0.0027621181
  9
$USRTIMER
 70
     1
  9
$ANGBASE
 50
0.0
  9
$ANGDIR
 70
     0
  9
$PDMODE
 70
     0
  9
$PDSIZE
 40
0.0
  9
$PLINEWID
 40
0.0
  9
$COORDS
 70
     2
  9
$SPLFRAME
 70
     0
  9
$SPLINETYPE
 70
     6
  9
$SPLINESEGS
 70
     8
  9
$ATTDIA
 70
     0
  9
$ATTREQ
 70
     1
  9
$HANDLING
 70
 22529
  9
$HANDSEED
  5
3EF0D9A1ECEB060
  9
$SURFTAB1
 70
     6
  9
$SURFTAB2
 70
     6
  9
$SURFTYPE
 70
     6
  9
$SURFU
 70
     6
  9
$SURFV
 70
     6
  9
$UCSNAME
  2

  9
$UCSORG
 10
0.0
 20
0.0
 30
0.0
  9
$UCSXDIR
 10
1.0
 20
0.0
 30
0.0
  9
$UCSYDIR
 10
0.0
 20
1.0
 30
0.0
  9
$PUCSNAME
  2

  9
$PUCSORG
 10
0.0
 20
0.0
 30
0.0
  9
$PUCSXDIR
 10
1.0
 20
0.0
 30
0.0
  9
$PUCSYDIR
 10
0.0
 20
1.0
 30
0.0
  9
$USERI1
 70
     0
  9
$USERI2
 70
     0
  9
$USERI3
 70
     0
  9
$USERI4
 70
     0
  9
$USERI5
 70
     0
  9
$USERR1
 40
0.0
  9
$USERR2
 40
0.0
  9
$USERR3
 40
0.0
  9
$USERR4
 40
0.0
  9
$USERR5
 40
0.0
  9
$WORLDVIEW
 70
     1
  9
$SHADEDGE
 70
     3
  9
$SHADEDIF
 70
    70
  9
$TILEMODE
 70
     1
  9
$MAXACTVP
 70
    16
  9
$PINSBASE
 10
0.0
 20
0.0
 30
0.0
  9
$PLIMCHECK
 70
     0
  9
$PEXTMIN
 10
1.000000000000000E+20
 20
1.000000000000000E+20
 30
1.000000000000000E+20
  9
$PEXTMAX
 10
-1.000000000000000E+20
 20
-1.000000000000000E+20
 30
-1.000000000000000E+20
  9
$PLIMMIN
 10
0.0
 20
0.0
  9
$PLIMMAX
 10
12.0
 20
9.0
  9
$UNITMODE
 70
     0
  9
$VISRETAIN
 70
     0
  9
$PLINEGEN
 70
     1
  9
$PSLTSCALE
 70
     0
  9
$TREEDEPTH
 70
  3020
  9
$PICKSTYLE
 70
     1
  9
$CMLSTYLE
  2
STANDARD
  9
$CMLJUST
 70
     0
  9
$CMLSCALE
 40
1.0
  9
$PROXYGRAPHICS
 70
     1
  9
$MEASUREMENT
 70
     0
  0
ENDSEC
  0
SECTION
  2
CLASSES
  0
CLASS
  1
LWPOLYLINE
  2
AcDbPolyline
  3
AutoCAD 2000
 90
        0
280
     0
281
     1
  0
CLASS
  1
ACDBDICTIONARYWDFLT
  2
AcDbDictionaryWithDefault
  3
AutoCAD 2000
 90
        0
280
     0
281
     0
  0
CLASS
  1
ACDBPLACEHOLDER
  2
AcDbPlaceHolder
  3
AutoCAD 2000
 90
        0
280
     0
281
     0
  0
CLASS
  1
LAYOUT
  2
AcDbLayout
  3
AutoCAD 2000
 90
        0
280
     0
281
     0
  0
CLASS
  1
DICTIONARYVAR
  2
AcDbDictionaryVar
  3
AutoCAD 2000
 90
        0
280
     0
281
     0
  0
CLASS
  1
LONG_TRANSACTION
  2
AcDbLongTransaction
  3
AutoCAD 2000
 90
        0
280
     0
281
     0
  0
CLASS
  1
LWPOLYLINE
  2
AcDbPolyline
  3
AutoCAD 2000
 90
        0
280
     0
281
     1
  0
CLASS
  1
HATCH
  2
AcDbHatch
  3
AutoCAD 2000
 90
        0
280
     0
281
     1
  0
CLASS
  1
XRECORD
  2
AcDbXrecord
  3
AutoCAD 2000
 90
        0
280
     0
281
     0
  0
ENDSEC
  0
SECTION
  2
TABLES
  0
TABLE
  2
VPORT
  5
3EF0D9A1ECEB007
330
0
100
AcDbSymbolTable
 70
     2
  0
VPORT
  5
3EF0D9A1ECEB03B
330
3EF0D9A1ECEB007
100
AcDbSymbolTableRecord
100
AcDbViewportTableRecord
  2
*ACTIVE
 70
     0
 10
0.0
 20
0.0
 11
1.0
 21
1.0
 12
5.05438118903969
 22
1.084820021779892
 13
0.0
 23
0.0
 14
0.015625
 24
0.015625
 15
0.0
 25
0.0
 16
0.0
 26
0.0
 36
1.0
 17
0.0
 27
0.0
 37
0.0
 40
2.557879214920306
 41
4.320930232558139
 42
50.0
 43
0.0
 44
0.0
 50
0.0
 51
0.0
 71
     0
 72
  2000
 73
     1
 74
     0
 75
     1
 76
     0
 77
     0
 78
     0
  0
ENDTAB
  0
TABLE
  2
LTYPE
  5
3EF0D9A1ECEB004
330
0
100
AcDbSymbolTable
 70
     1
  0
LTYPE
  5
3EF0D9A1ECEB011
330
3EF0D9A1ECEB004
100
AcDbSymbolTableRecord
100
AcDbLinetypeTableRecord
  2
BYBLOCK
 70
     0
  3

 72
    65
 73
     0
 40
0.0
  0
LTYPE
  5
3EF0D9A1ECEB012
330
3EF0D9A1ECEB004
100
AcDbSymbolTableRecord
100
AcDbLinetypeTableRecord
  2
BYLAYER
 70
     0
  3

 72
    65
 73
     0
 40
0.0
  0
LTYPE
  5
3EF0D9A1ECEB013
330
3EF0D9A1ECEB004
100
AcDbSymbolTableRecord
100
AcDbLinetypeTableRecord
  2
CONTINUOUS
 70
     0
  3
Solid line
 72
    65
 73
     0
 40
0.0
  0
ENDTAB
  0
TABLE
  2
LAYER
  5
3EF0D9A1ECEB001
330
0
100
AcDbSymbolTable
 70
     2
  0
LAYER
  5
3EF0D9A1ECEB00E
330
3EF0D9A1ECEB001
100
AcDbSymbolTableRecord
100
AcDbLayerTableRecord
  2
0
 70
     0
 62
     7
  6
CONTINUOUS
  0
LAYER
  5
3EF0D9A1ECEB01E
330
3EF0D9A1ECEB001
100
AcDbSymbolTableRecord
100
AcDbLayerTableRecord
  2
TEXT
 70
     0
 62
     3
  6
CONTINUOUS
  0
ENDTAB
  0
TABLE
  2
STYLE
  5
3EF0D9A1ECEB002
330
0
100
AcDbSymbolTable
 70
     3
  0
STYLE
  5
3EF0D9A1ECEB00F
330
3EF0D9A1ECEB002
100
AcDbSymbolTableRecord
100
AcDbTextStyleTableRecord
  2
STANDARD
 70
     0
 40
0.0
 41
1.0
 50
0.0
 71
     0
 42
0.3125
  3
txt
  4

  0
STYLE
  5
3EF0D9A1ECEB01B
330
3EF0D9A1ECEB002
100
AcDbSymbolTableRecord
100
AcDbTextStyleTableRecord
  2
ITALICC
 70
     0
 40
0.0
 41
1.0
 50
0.0
 71
     0
 42
0.125
  3
italicc
  4

  0
STYLE
  5
3EF0D9A1ECEB02B
330
3EF0D9A1ECEB002
100
AcDbSymbolTableRecord
100
AcDbTextStyleTableRecord
  2
ROMANS
 70
     0
 40
0.0
 41
1.0
 50
0.0
 71
     0
 42
0.125
  3
romans.shx
  4

  0
ENDTAB
  0
TABLE
  2
VIEW
  5
3EF0D9A1ECEB005
330
0
100
AcDbSymbolTable
 70
     0
  0
ENDTAB
  0
TABLE
  2
UCS
  5
3EF0D9A1ECEB006
330
0
100
AcDbSymbolTable
 70
     0
  0
ENDTAB
  0
TABLE
  2
APPID
  5
3EF0D9A1ECEB008
330
0
100
AcDbSymbolTable
 70
     1
  0
APPID
  5
3EF0D9A1ECEB010
330
3EF0D9A1ECEB008
100
AcDbSymbolTableRecord
100
AcDbRegAppTableRecord
  2
ACAD
 70
     0
  0
ENDTAB
  0
TABLE
  2
DIMSTYLE
  5
3EF0D9A1ECEB009
330
0
100
AcDbSymbolTable
 70
     1
  0
DIMSTYLE
105
3EF0D9A1ECEB023
330
3EF0D9A1ECEB009
100
AcDbSymbolTableRecord
100
AcDbDimStyleTableRecord
  2
STANDARD
 70
     0
  3

  4

  5

  6

  7

 40
1.0
 41
0.125
 42
0.125
 43
0.375
 44
0.125
 45
0.0
 46
0.0
 47
0.0
 48
0.0
140
0.125
141
-0.125
142
0.0
143
25.4
144
1.0
145
0.0
146
1.0
147
0.09
 71
     0
 72
     0
 73
     1
 74
     1
 75
     0
 76
     0
 77
     0
 78
     4
170
     0
171
     2
172
     0
173
     0
174
     1
175
     0
176
     0
177
     0
178
     0
270
     2
271
     3
272
     3
273
     2
274
     2
340
3EF0D9A1ECEB02B
275
     0
280
     0
281
     0
282
     0
283
     1
284
     4
285
     0
286
     0
287
     3
288
     0
  0
ENDTAB
  0
TABLE
  2
BLOCK_RECORD
  5
3EF0D9A1ECEB000
330
0
100
AcDbSymbolTable
 70
     0
  0
BLOCK_RECORD
  5
3EF0D9A1ECEB017
102
{ACAD_XDICTIONARY
360
3EF0D9A1ECEB05E
102
}
330
3EF0D9A1ECEB000
100
AcDbSymbolTableRecord
100
AcDbBlockTableRecord
  2
*MODEL_SPACE
  0
BLOCK_RECORD
  5
3EF0D9A1ECEB014
102
{ACAD_XDICTIONARY
360
3EF0D9A1ECEB05C
102
}
330
3EF0D9A1ECEB000
100
AcDbSymbolTableRecord
100
AcDbBlockTableRecord
  2
*PAPER_SPACE
  0
ENDTAB
  0
ENDSEC
  0
SECTION
  2
BLOCKS
  0
BLOCK
  5
3EF0D9A1ECEB021
330
3EF0D9A1ECEB017
100
AcDbEntity
  8
0
100
AcDbBlockBegin
  2
*MODEL_SPACE
 70
     0
 10
0.0
 20
0.0
 30
0.0
  3
*MODEL_SPACE
  1

  0
ENDBLK
  5
3EF0D9A1ECEB022
330
3EF0D9A1ECEB017
100
AcDbEntity
  8
0
100
AcDbBlockEnd
  0
BLOCK
  5
3EF0D9A1ECEB01F
330
3EF0D9A1ECEB014
100
AcDbEntity
 67
     1
  8
0
100
AcDbBlockBegin
  2
*PAPER_SPACE
 70
     0
 10
0.0
 20
0.0
 30
0.0
  3
*PAPER_SPACE
  1

  0
ENDBLK
  5
3EF0D9A1ECEB020
330
3EF0D9A1ECEB014
100
AcDbEntity
 67
     1
  8
0
100
AcDbBlockEnd
  0
ENDSEC
  0
SECTION
  2
ENTITIES
  0
LWPOLYLINE
  5
3EF0D9A1ECE9BE7
330
3EF0D9A1ECEB017
100
AcDbEntity
  8
0
100
AcDbPolyline
 90
       25
 70
     1
 43
0.0
 10
1.556815806441477
 20
1.530210022171121
 10
1.512815806441476
 20
1.530210022171121
 10
1.512815806441476
 20
0.7532100221711218
 42
-1.0
 10
1.440815806441477
 20
0.7532100221711218
 42
-0.0139470013947004
 10
1.440815806441473
 20
2.187210022171122
 42
-1.0
 10
1.500815806441476
 20
2.187210022171121
 10
1.500815806441478
 20
1.902210022171121
 10
1.650815806441477
 20
1.902210022171121
 10
1.800815806441476
 20
1.902210022171121
 10
1.800815806441478
 20
2.187210022171121
 42
-1.0
 10
1.860815806441474
 20
2.187210022171117
 42
-0.0139470013947004
 10
1.860815806441474
 20
0.7532100221711194
 42
-1.0
 10
1.788815806441477
 20
0.7532100221711218
 10
1.788815806441477
 20
0.9572696109416609
 10
1.798786012056207
 20
0.9672398165563915
 10
1.788815806441477
 20
0.9772100221711212
 10
1.788815806441477
 20
1.530210022171121
 10
1.744815806441477
 20
1.530210022171121
 10
1.744815806441477
 20
1.590210022171121
 10
1.788815806441477
 20
1.590210022171121
 10
1.788815806441477
 20
1.832210022171121
 10
1.650815806441477
 20
1.832210022171121
 10
1.512815806441476
 20
1.832210022171121
 10
1.512815806441476
 20
1.590210022171121
 10
1.556815806441477
 20
1.590210022171121
  0
TEXT
  5
3EF0D9A1ECEAEC2
330
3EF0D9A1ECEB017
100
AcDbEntity
  8
TEXT
100
AcDbText
 10
0.9668396159652871
 20
0.4103350221711218
 30
0.0
 40
0.125
  1
PART #110140
  7
ITALICC
 72
     1
 11
1.719815806441477
 21
0.4103350221711218
 31
0.0
100
AcDbText
  0
TEXT
  5
3EF0D9A1ECEAEC3
330
3EF0D9A1ECEB017
100
AcDbEntity
  8
TEXT
100
AcDbText
 10
2.133120964691798
 20
-0.0365876205012534
 30
0.0
 40
0.0522247191011236
  1
Phone  1-800-328-2495
 41
1.272321428571429
 72
     5
 11
3.462053548961462
 21
-0.0365876205012534
 31
0.0
100
AcDbText
  0
TEXT
  5
3EF0D9A1ECEAEC4
330
3EF0D9A1ECEB017
100
AcDbEntity
  8
TEXT
100
AcDbText
 10
2.133120964691798
 20
0.2431876603976231
 30
0.0
 40
0.0522247191011236
  1
Stylmark  Incorporated
 41
1.221428571428573
 72
     5
 11
3.462053548961462
 21
0.2431876603976231
 31
0.0
100
AcDbText
  0
TEXT
  5
3EF0D9A1ECEAEC5
330
3EF0D9A1ECEB017
100
AcDbEntity
  8
TEXT
100
AcDbText
 10
2.133120964691798
 20
0.1499292334313309
 30
0.0
 40
0.0522247191011236
  1
6536 Main St. N.E. * P.O. Box 32008
 41
0.8388932496075366
 72
     5
 11
3.462053548961462
 21
0.1499292334313309
 31
0.0
100
AcDbText
  0
TEXT
  5
3EF0D9A1ECEAEC6
330
3EF0D9A1ECEB017
100
AcDbEntity
  8
TEXT
100
AcDbText
 10
2.133120964691798
 20
0.0566708064650388
 30
0.0
 40
0.0522247191011236
  1
Minneapolis, MN 55432-0008
 41
1.11444212721585
 72
     5
 11
3.462053548961462
 21
0.0566708064650388
 31
0.0
100
AcDbText
  0
LWPOLYLINE
  5
3EF0D9A1ECEAEC7
330
3EF0D9A1ECEB017
100
AcDbEntity
  8
TEXT
100
AcDbPolyline
 90
        3
 70
     0
 43
0.0006660908203125
 10
-0.0228327273755094
 20
0.0770571421361814
 10
-0.0228327273755094
 20
-0.0361782973169462
 10
0.090402712077613
 20
-0.0361782973169462
  0
LWPOLYLINE
  5
3EF0D9A1ECEAECC
330
3EF0D9A1ECEB017
100
AcDbEntity
  8
TEXT
100
AcDbPolyline
 90
        3
 70
     0
 43
0.0006660908203125
 10
0.0038109054369881
 20
0.0770571421361814
 10
0.0038109054369881
 20
-0.0095346645044452
 10
0.090402712077613
 20
-0.0095346645044452
  0
LWPOLYLINE
  5
3EF0D9A1ECEAED1
330
3EF0D9A1ECEB017
100
AcDbEntity
  8
TEXT
100
AcDbPolyline
 90
        2
 70
     0
 43
0.0001332181640625
 10
0.050437262858865
 20
0.0870485044408667
 10
-0.0228327273755094
 20
0.0770571421361814
  0
LWPOLYLINE
  5
3EF0D9A1ECEAED5
330
3EF0D9A1ECEB017
100
AcDbEntity
  8
TEXT
100
AcDbPolyline
 90
        2
 70
     0
 43
0.0001332181640625
 10
0.0038109054369881
 20
0.0770571421361814
 10
0.0637590792651155
 20
0.0870485044408667
  0
LWPOLYLINE
  5
3EF0D9A1ECEAED9
330
3EF0D9A1ECEB017
100
AcDbEntity
  8
TEXT
100
AcDbPolyline
 90
        2
 70
     0
 43
0.0001332181640625
 10
0.0038109054369881
 20
-0.0095346645044452
 10
0.0637590792651155
 20
0.0504135093236804
  0
LWPOLYLINE
  5
3EF0D9A1ECEAEDD
330
3EF0D9A1ECEB017
100
AcDbEntity
  8
TEXT
100
AcDbPolyline
 90
        3
 70
     0
 43
0.0006660908203125
 10
0.090402712077613
 20
0.2302580308080571
 10
-0.0228327273755094
 20
0.2302580308080571
 10
-0.0228327273755094
 20
0.1170225913549294
  0
LWPOLYLINE
  5
3EF0D9A1ECEAEE2
330
3EF0D9A1ECEB017
100
AcDbEntity
  8
TEXT
100
AcDbPolyline
 90
        3
 70
     0
 43
0.0006660908203125
 10
0.090402712077613
 20
0.203614397995556
 10
0.0038109054369881
 20
0.203614397995556
 10
0.0038109054369881
 20
0.1170225913549294
  0
LWPOLYLINE
  5
3EF0D9A1ECEAEE7
330
3EF0D9A1ECEB017
100
AcDbEntity
  8
TEXT
100
AcDbPolyline
 90
        2
 70
     0
 43
0.0001332181640625
 10
0.0038109054369881
 20
0.203614397995556
 10
0.0637590792651137
 20
0.1436662241674305
  0
LWPOLYLINE
  5
3EF0D9A1ECEAEEB
330
3EF0D9A1ECEB017
100
AcDbEntity
  8
TEXT
100
AcDbPolyline
 90
        2
 70
     0
 43
0.0001332181640625
 10
0.0038109054369881
 20
0.1170225913549294
 10
0.0637590792651137
 20
0.1070312290502406
  0
LWPOLYLINE
  5
3EF0D9A1ECEAEEF
330
3EF0D9A1ECEB017
100
AcDbEntity
  8
TEXT
100
AcDbPolyline
 90
        2
 70
     0
 43
0.0001332181640625
 10
-0.0228327273755094
 20
0.1170225913549294
 10
0.050437262858865
 20
0.1070312290502406
  0
LWPOLYLINE
  5
3EF0D9A1ECEAEF3
330
3EF0D9A1ECEB017
100
AcDbEntity
  8
TEXT
100
AcDbPolyline
 90
        2
 70
     0
 43
0.0006660908203125
 10
0.0038109054369881
 20
0.0770571421361814
 10
-0.0228327273755094
 20
0.0770571421361814
  0
LWPOLYLINE
  5
3EF0D9A1ECEAEF7
330
3EF0D9A1ECEB017
100
AcDbEntity
  8
TEXT
100
AcDbPolyline
 90
        2
 70
     0
 43
0.0006660908203125
 10
0.0038109054369881
 20
0.1170225913549294
 10
-0.0228327273755094
 20
0.1170225913549294
  0
LINE
  5
3EF0D9A1ECEAEFB
330
3EF0D9A1ECEB017
100
AcDbEntity
  8
TEXT
100
AcDbLine
 10
1.492357701750988
 20
0.1659813361512881
 30
0.0
 11
1.385151428363698
 21
0.1659813361512881
 31
0.0
  0
LINE
  5
3EF0D9A1ECEAEFC
330
3EF0D9A1ECEB017
100
AcDbEntity
  8
TEXT
100
AcDbLine
 10
1.521388600095466
 20
0.2302580308080535
 30
0.0
 11
1.386556690878407
 21
0.2302580308080535
 31
0.0
  0
ARC
  5
3EF0D9A1ECEAEFD
330
3EF0D9A1ECEB017
100
AcDbEntity
  8
TEXT
100
AcDbCircle
 10
1.445870787271724
 20
0.0610207815450372
 30
0.0
 40
0.0676855811441166
100
AcDbArc
 50
90.0
 51
153.7768192527749
  0
LWPOLYLINE
  5
3EF0D9A1ECEAEFE
330
3EF0D9A1ECEB017
100
AcDbEntity
  8
TEXT
100
AcDbPolyline
 90
        2
 70
     0
 43
0.0
 10
1.384118932908888
 20
0.0072759427699807
 42
0.2901071551932823
 10
1.427194865776524
 20
-0.0362150021804575
 42
5.328517124445801
  0
ARC
  5
3EF0D9A1ECEAF02
330
3EF0D9A1ECEB017
100
AcDbEntity
  8
TEXT
100
AcDbCircle
 10
0.7407394096002387
 20
0.0235773891575923
 30
0.0
 40
0.0601160179737537
100
AcDbArc
 50
180.0000000000003
 51
264.0521544866073
  0
LINE
  5
3EF0D9A1ECEAF03
330
3EF0D9A1ECEB017
100
AcDbEntity
  8
TEXT
100
AcDbLine
 10
0.7442547652257865
 20
0.2646459484021917
 30
0.0
 11
0.6842121603817795
 21
0.2646459484021917
 31
0.0
  0
ARC
  5
3EF0D9A1ECEAF04
330
3EF0D9A1ECEB017
100
AcDbEntity
  8
TEXT
100
AcDbCircle
 10
0.5084804074832681
 20
0.1481705713615518
 30
0.0
 40
0.0820874594465043
100
AcDbArc
 50
90.0
 51
270.0
  0
LWPOLYLINE
  5
3EF0D9A1ECEAF05
330
3EF0D9A1ECEB017
100
AcDbEntity
  8
TEXT
100
AcDbPolyline
 90
        2
 70
     0
 43
0.0001332181640625
 10
0.1003940743823035
 20
0.1569880405736774
 10
0.090402712077613
 20
0.2302580308080571
  0
LWPOLYLINE
  5
3EF0D9A1ECEAF09
330
3EF0D9A1ECEB017
100
AcDbEntity
  8
TEXT
100
AcDbPolyline
 90
        2
 70
     0
 43
0.0001332181640625
 10
0.090402712077613
 20
0.203614397995556
 10
0.1003940743823035
 20
0.1436662241674305
  0
LWPOLYLINE
  5
3EF0D9A1ECEAF0D
330
3EF0D9A1ECEB017
100
AcDbEntity
  8
TEXT
100
AcDbPolyline
 90
        3
 70
     0
 43
0.0006660908203125
 10
0.2436036007494904
 20
0.1170225913549294
 10
0.2436036007494904
 20
0.2302580308080571
 10
0.1303681612963645
 20
0.2302580308080571
  0
LWPOLYLINE
  5
3EF0D9A1ECEAF12
330
3EF0D9A1ECEB017
100
AcDbEntity
  8
TEXT
100
AcDbPolyline
 90
        3
 70
     0
 43
0.0006660908203125
 10
0.2169599679369893
 20
0.1170225913549294
 10
0.2169599679369893
 20
0.203614397995556
 10
0.1303681612963645
 20
0.203614397995556
  0
LWPOLYLINE
  5
3EF0D9A1ECEAF17
330
3EF0D9A1ECEB017
100
AcDbEntity
  8
TEXT
100
AcDbPolyline
 90
        2
 70
     0
 43
0.0001332181640625
 10
0.2169599679369893
 20
0.203614397995556
 10
0.1570117941088656
 20
0.1436662241674305
  0
LWPOLYLINE
  5
3EF0D9A1ECEAF1B
330
3EF0D9A1ECEB017
100
AcDbEntity
  8
TEXT
100
AcDbPolyline
 90
        2
 70
     0
 43
0.0001332181640625
 10
0.1303681612963645
 20
0.203614397995556
 10
0.1203767989916757
 20
0.1436662241674305
  0
LWPOLYLINE
  5
3EF0D9A1ECEAF1F
330
3EF0D9A1ECEB017
100
AcDbEntity
  8
TEXT
100
AcDbPolyline
 90
        2
 70
     0
 43
0.0001332181640625
 10
0.1303681612963645
 20
0.2302580308080571
 10
0.1203767989916757
 20
0.1569880405736774
  0
LWPOLYLINE
  5
3EF0D9A1ECEAF23
330
3EF0D9A1ECEB017
100
AcDbEntity
  8
TEXT
100
AcDbPolyline
 90
        2
 70
     0
 43
0.0001332181640625
 10
0.1703336105151143
 20
0.1070312290502406
 10
0.2436036007494904
 20
0.1170225913549294
  0
LWPOLYLINE
  5
3EF0D9A1ECEAF27
330
3EF0D9A1ECEB017
100
AcDbEntity
  8
TEXT
100
AcDbPolyline
 90
        2
 70
     0
 43
0.0001332181640625
 10
0.2169599679369893
 20
0.1170225913549294
 10
0.1570117941088656
 20
0.1070312290502406
  0
LWPOLYLINE
  5
3EF0D9A1ECEAF2B
330
3EF0D9A1ECEB017
100
AcDbEntity
  8
TEXT
100
AcDbPolyline
 90
        2
 70
     0
 43
0.0001332181640625
 10
0.2436036007494904
 20
0.0770571421361814
 10
0.1703336105151143
 20
0.0870485044408667
  0
LWPOLYLINE
  5
3EF0D9A1ECEAF2F
330
3EF0D9A1ECEB017
100
AcDbEntity
  8
TEXT
100
AcDbPolyline
 90
        2
 70
     0
 43
0.0001332181640625
 10
0.2169599679369893
 20
0.0770571421361814
 10
0.1570117941088656
 20
0.0870485044408667
  0
LWPOLYLINE
  5
3EF0D9A1ECEAF33
330
3EF0D9A1ECEB017
100
AcDbEntity
  8
TEXT
100
AcDbPolyline
 90
        2
 70
     0
 43
0.0001332181640625
 10
0.2169599679369893
 20
-0.0095346645044452
 10
0.1570117941088656
 20
0.0504135093236804
  0
LWPOLYLINE
  5
3EF0D9A1ECEAF37
330
3EF0D9A1ECEB017
100
AcDbEntity
  8
TEXT
100
AcDbPolyline
 90
        3
 70
     0
 43
0.0006660908203125
 10
0.1303681612963645
 20
-0.0095346645044452
 10
0.2169599679369893
 20
-0.0095346645044452
 10
0.2169599679369893
 20
0.0770571421361814
  0
LWPOLYLINE
  5
3EF0D9A1ECEAF3C
330
3EF0D9A1ECEB017
100
AcDbEntity
  8
TEXT
100
AcDbPolyline
 90
        3
 70
     0
 43
0.0006660908203125
 10
0.1303681612963645
 20
-0.0361782973169462
 10
0.2436036007494904
 20
-0.0361782973169462
 10
0.2436036007494904
 20
0.0770571421361814
  0
LWPOLYLINE
  5
3EF0D9A1ECEAF41
330
3EF0D9A1ECEB017
100
AcDbEntity
  8
TEXT
100
AcDbPolyline
 90
        5
 70
     0
 43
0.0001332181640625
 10
0.1003940743823035
 20
0.0370916929174299
 10
0.1003940743823035
 20
0.0504135093236804
 10
0.0637590792651155
 20
0.0504135093236804
 10
0.0637590792651155
 20
0.0870485044408667
 10
0.050437262858865
 20
0.0870485044408667
  0
LWPOLYLINE
  5
3EF0D9A1ECEAF48
330
3EF0D9A1ECEB017
100
AcDbEntity
  8
TEXT
100
AcDbPolyline
 90
        2
 70
     0
 43
0.0006660908203125
 10
0.090402712077613
 20
-0.0095346645044452
 10
0.090402712077613
 20
-0.0361782973169462
  0
LWPOLYLINE
  5
3EF0D9A1ECEAF4C
330
3EF0D9A1ECEB017
100
AcDbEntity
  8
TEXT
100
AcDbPolyline
 90
        2
 70
     0
 43
0.0001332181640625
 10
0.090402712077613
 20
-0.0095346645044452
 10
0.1003940743823035
 20
0.0504135093236804
  0
LWPOLYLINE
  5
3EF0D9A1ECEAF50
330
3EF0D9A1ECEB017
100
AcDbEntity
  8
TEXT
100
AcDbPolyline
 90
        2
 70
     0
 43
0.0001332181640625
 10
0.090402712077613
 20
-0.0361782973169462
 10
0.1003940743823035
 20
0.0370916929174299
  0
LWPOLYLINE
  5
3EF0D9A1ECEAF54
330
3EF0D9A1ECEB017
100
AcDbEntity
  8
TEXT
100
AcDbPolyline
 90
        5
 70
     0
 43
0.0001332181640625
 10
0.050437262858865
 20
0.1070312290502406
 10
0.0637590792651137
 20
0.1070312290502406
 10
0.0637590792651137
 20
0.1436662241674305
 10
0.1003940743823035
 20
0.1436662241674305
 10
0.1003940743823035
 20
0.1569880405736774
  0
LWPOLYLINE
  5
3EF0D9A1ECEAF5B
330
3EF0D9A1ECEB017
100
AcDbEntity
  8
TEXT
100
AcDbPolyline
 90
        5
 70
     0
 43
0.0001332181640625
 10
0.1203767989916757
 20
0.1569880405736774
 10
0.1203767989916757
 20
0.1436662241674305
 10
0.1570117941088656
 20
0.1436662241674305
 10
0.1570117941088656
 20
0.1070312290502406
 10
0.1703336105151143
 20
0.1070312290502406
  0
LWPOLYLINE
  5
3EF0D9A1ECEAF62
330
3EF0D9A1ECEB017
100
AcDbEntity
  8
TEXT
100
AcDbPolyline
 90
        2
 70
     0
 43
0.0001332181640625
 10
0.1303681612963645
 20
-0.0095346645044452
 10
0.1203767989916757
 20
0.0504135093236804
  0
LWPOLYLINE
  5
3EF0D9A1ECEAF66
330
3EF0D9A1ECEB017
100
AcDbEntity
  8
TEXT
100
AcDbPolyline
 90
        2
 70
     0
 43
0.0001332181640625
 10
0.1203767989916757
 20
0.0370916929174299
 10
0.1303681612963645
 20
-0.0361782973169462
  0
LWPOLYLINE
  5
3EF0D9A1ECEAF6A
330
3EF0D9A1ECEB017
100
AcDbEntity
  8
TEXT
100
AcDbPolyline
 90
        2
 70
     0
 43
0.0006660908203125
 10
0.1303681612963645
 20
-0.0095346645044452
 10
0.1303681612963645
 20
-0.0361782973169462
  0
LWPOLYLINE
  5
3EF0D9A1ECEAF6E
330
3EF0D9A1ECEB017
100
AcDbEntity
  8
TEXT
100
AcDbPolyline
 90
        5
 70
     0
 43
0.0001332181640625
 10
0.1703336105151143
 20
0.0870485044408667
 10
0.1570117941088656
 20
0.0870485044408667
 10
0.1570117941088656
 20
0.0504135093236804
 10
0.1203767989916757
 20
0.0504135093236804
 10
0.1203767989916757
 20
0.0370916929174299
  0
LWPOLYLINE
  5
3EF0D9A1ECEAF75
330
3EF0D9A1ECEB017
100
AcDbEntity
  8
TEXT
100
AcDbPolyline
 90
        2
 70
     0
 43
0.0006660908203125
 10
0.2169599679369893
 20
0.1170225913549294
 10
0.2436036007494904
 20
0.1170225913549294
  0
LWPOLYLINE
  5
3EF0D9A1ECEAF79
330
3EF0D9A1ECEB017
100
AcDbEntity
  8
TEXT
100
AcDbPolyline
 90
        2
 70
     0
 43
0.0006660908203125
 10
0.2169599679369893
 20
0.0770571421361814
 10
0.2436036007494904
 20
0.0770571421361814
  0
LINE
  5
3EF0D9A1ECEAF7D
330
3EF0D9A1ECEB017
100
AcDbEntity
  8
TEXT
100
AcDbLine
 10
0.5137177375975153
 20
0.1659813361512881
 30
0.0
 11
0.6806233916264866
 21
0.1659813361512881
 31
0.0
  0
LINE
  5
3EF0D9A1ECEAF7E
330
3EF0D9A1ECEB017
100
AcDbEntity
  8
TEXT
100
AcDbLine
 10
0.5793178738418164
 20
0.1301766145406602
 30
0.0
 11
0.5137177375975153
 21
0.1301766145406602
 31
0.0
  0
LINE
  5
3EF0D9A1ECEAF7F
330
3EF0D9A1ECEB017
100
AcDbEntity
  8
TEXT
100
AcDbLine
 10
0.4263929480367637
 20
-0.0362150021804575
 30
0.0
 11
0.5793178738418164
 21
-0.0362150021804575
 31
0.0
  0
LINE
  5
3EF0D9A1ECEAF80
330
3EF0D9A1ECEB017
100
AcDbEntity
  8
TEXT
100
AcDbLine
 10
0.584258247748096
 20
0.0321420041529819
 30
0.0
 11
0.4263929480367619
 21
0.0321420041529819
 31
0.0
  0
LINE
  5
3EF0D9A1ECEAF81
330
3EF0D9A1ECEB017
100
AcDbEntity
  8
TEXT
100
AcDbLine
 10
0.5084804074832672
 20
0.0660831119150465
 30
0.0
 11
0.584258247748096
 21
0.0660831119150465
 31
0.0
  0
ARC
  5
3EF0D9A1ECEAF82
330
3EF0D9A1ECEB017
100
AcDbEntity
  8
TEXT
100
AcDbCircle
 10
0.5137177375975162
 20
0.1480789753459759
 30
0.0
 40
0.017902360805315
100
AcDbArc
 50
90.0
 51
270.0
  0
LINE
  5
3EF0D9A1ECEAF83
330
3EF0D9A1ECEB017
100
AcDbEntity
  8
TEXT
100
AcDbLine
 10
0.4263929480367619
 20
0.0321420041529819
 30
0.0
 11
0.4263929480367637
 21
-0.0362150021804575
 31
0.0
  0
LINE
  5
3EF0D9A1ECEAF84
330
3EF0D9A1ECEB017
100
AcDbEntity
  8
TEXT
100
AcDbLine
 10
0.6806233916264866
 20
0.1659813361512881
 30
0.0
 11
0.6806233916264866
 21
0.0235773891575923
 31
0.0
  0
ARC
  5
3EF0D9A1ECEAF85
330
3EF0D9A1ECEB017
100
AcDbEntity
  8
TEXT
100
AcDbCircle
 10
0.5793178738418172
 20
0.0469808061800996
 30
0.0
 40
0.0831958083605586
100
AcDbArc
 50
270.0
 51
90.0
  0
ARC
  5
3EF0D9A1ECEAF86
330
3EF0D9A1ECEB017
100
AcDbEntity
  8
TEXT
100
AcDbCircle
 10
0.5842582477480969
 20
0.0491125580340159
 30
0.0
 40
0.0169705538810321
100
AcDbArc
 50
270.0
 51
90.0
  0
LWPOLYLINE
  5
3EF0D9A1ECEAF87
330
3EF0D9A1ECEB017
100
AcDbEntity
  8
TEXT
100
AcDbPolyline
 90
        2
 70
     0
 43
0.0006660908203125
 10
0.090402712077613
 20
0.203614397995556
 10
0.090402712077613
 20
0.2302580308080571
  0
LWPOLYLINE
  5
3EF0D9A1ECEAF8B
330
3EF0D9A1ECEB017
100
AcDbEntity
  8
TEXT
100
AcDbPolyline
 90
        2
 70
     0
 43
0.0006660908203125
 10
0.1303681612963645
 20
0.203614397995556
 10
0.1303681612963645
 20
0.2302580308080571
  0
LINE
  5
3EF0D9A1ECEAF8F
330
3EF0D9A1ECEB017
100
AcDbEntity
  8
TEXT
100
AcDbLine
 10
0.6842121603817795
 20
0.2302580308080535
 30
0.0
 11
0.5084804074832672
 21
0.2302580308080535
 31
0.0
  0
LINE
  5
3EF0D9A1ECEAF90
330
3EF0D9A1ECEB017
100
AcDbEntity
  8
TEXT
100
AcDbLine
 10
0.6842121603817795
 20
0.2646459484021917
 30
0.0
 11
0.6842121603817795
 21
0.2302580308080535
 31
0.0
  0
LINE
  5
3EF0D9A1ECEAF91
330
3EF0D9A1ECEB017
100
AcDbEntity
  8
TEXT
100
AcDbLine
 10
0.8746840524016317
 20
0.1293860346949329
 30
0.0
 11
0.8160537313696938
 21
0.2302580308080535
 31
0.0
  0
LINE
  5
3EF0D9A1ECEAF92
330
3EF0D9A1ECEB017
100
AcDbEntity
  8
TEXT
100
AcDbLine
 10
0.9334326152074972
 20
0.2302580308080535
 30
0.0
 11
0.8746840524016317
 21
0.1293860346949329
 31
0.0
  0
LINE
  5
3EF0D9A1ECEAF93
330
3EF0D9A1ECEB017
100
AcDbEntity
  8
TEXT
100
AcDbLine
 10
1.030363240567238
 20
0.0461728359225417
 30
0.0
 11
1.030363240567238
 21
0.2982695085468641
 31
0.0
  0
LINE
  5
3EF0D9A1ECEAF94
330
3EF0D9A1ECEB017
100
AcDbEntity
  8
TEXT
100
AcDbLine
 10
1.062675094704898
 20
0.2302580308080535
 30
0.0
 11
1.062675094704898
 21
0.0293938240756453
 31
0.0
  0
LINE
  5
3EF0D9A1ECEAF95
330
3EF0D9A1ECEB017
100
AcDbEntity
  8
TEXT
100
AcDbLine
 10
1.062675094704898
 20
0.0293938240756453
 30
0.0
 11
1.045681457820297
 21
0.0293938240756453
 31
0.0
  0
LINE
  5
3EF0D9A1ECEAF96
330
3EF0D9A1ECEB017
100
AcDbEntity
  8
TEXT
100
AcDbLine
 10
1.031502814063433
 20
-0.0362150021804575
 30
0.0
 11
1.129506147762867
 21
-0.0362150021804575
 31
0.0
  0
LINE
  5
3EF0D9A1ECEAF97
330
3EF0D9A1ECEB017
100
AcDbEntity
  8
TEXT
100
AcDbLine
 10
0.8650838154046773
 20
-0.0162564960754446
 30
0.0
 11
0.962383521498122
 21
0.1480937148598236
 31
0.0
  0
ARC
  5
3EF0D9A1ECEAF98
330
3EF0D9A1ECEB017
100
AcDbEntity
  8
TEXT
100
AcDbCircle
 10
0.8310402554924634
 20
0.0033327200932383
 30
0.0
 40
0.0392772371940762
100
AcDbArc
 50
270.1604552698595
 51
330.0831797321295
  0
LINE
  5
3EF0D9A1ECEAF99
330
3EF0D9A1ECEB017
100
AcDbEntity
  8
TEXT
100
AcDbLine
 10
0.7345099991065922
 20
-0.0362150021804575
 30
0.0
 11
0.8311502501815866
 21
-0.0359443630821752
 31
0.0
  0
LWPOLYLINE
  5
3EF0D9A1ECEAF9A
330
3EF0D9A1ECEB017
100
AcDbEntity
  8
TEXT
100
AcDbPolyline
 90
        6
 70
     1
 43
0.0
 10
0.7770338026817419
 20
0.1659813361512881
 10
0.7467172084615337
 20
0.1659813361512881
 10
0.7467172084615337
 20
0.0428703380963937
 42
0.407328721240804
 10
0.7582608596230101
 20
0.0310514234200077
 10
0.8188825586677408
 20
0.0310514234200077
 10
0.8363478990750587
 20
0.0638636524634868
  0
LINE
  5
3EF0D9A1ECEAFA2
330
3EF0D9A1ECEB017
100
AcDbEntity
  8
TEXT
100
AcDbLine
 10
0.962383521498122
 20
0.1480937148598236
 30
0.0
 11
0.962383521498122
 21
0.0153363400344673
 31
0.0
  0
ARC
  5
3EF0D9A1ECEAFA3
330
3EF0D9A1ECEB017
100
AcDbEntity
  8
TEXT
100
AcDbCircle
 10
1.045681457820295
 20
0.0447756303190707
 30
0.0
 40
0.0153818062434269
100
AcDbArc
 50
174.7883570302258
 51
270.0
  0
LWPOLYLINE
  5
3EF0D9A1ECEAFA4
330
3EF0D9A1ECEB017
100
AcDbEntity
  8
TEXT
100
AcDbPolyline
 90
        2
 70
     0
 43
0.0
 10
0.9623835214981202
 20
0.0153363400344708
 42
0.3318488747599744
 10
1.031502814063433
 20
-0.0362150021804575
 42
-6.868794160588311
  0
LINE
  5
3EF0D9A1ECEAFA8
330
3EF0D9A1ECEB017
100
AcDbEntity
  8
TEXT
100
AcDbLine
 10
1.186895216752128
 20
-0.0362150021804575
 30
0.0
 11
1.253953263533968
 21
-0.0362150021804575
 31
0.0
  0
LINE
  5
3EF0D9A1ECEAFA9
330
3EF0D9A1ECEB017
100
AcDbEntity
  8
TEXT
100
AcDbLine
 10
1.186895216752128
 20
0.1584275469851781
 30
0.0
 11
1.186895216752128
 21
-0.0362150021804575
 31
0.0
  0
LINE
  5
3EF0D9A1ECEAFAA
330
3EF0D9A1ECEB017
100
AcDbEntity
  8
TEXT
100
AcDbLine
 10
1.129506147762867
 20
0.1659813361512881
 30
0.0
 11
1.179341427586015
 21
0.1659813361512881
 31
0.0
  0
LINE
  5
3EF0D9A1ECEAFAB
330
3EF0D9A1ECEB017
100
AcDbEntity
  8
TEXT
100
AcDbLine
 10
1.129506147762867
 20
-0.0362150021804575
 30
0.0
 11
1.129506147762867
 21
0.1659813361512881
 31
0.0
  0
LWPOLYLINE
  5
3EF0D9A1ECEAFAC
330
3EF0D9A1ECEB017
100
AcDbEntity
  8
TEXT
100
AcDbPolyline
 90
        2
 70
     0
 43
0.0
 10
1.179341427586013
 20
0.1659813361512881
 42
-0.4142135623731017
 10
1.186895216752127
 20
0.1584275469851781
 42
-0.9999999999999998
  0
LINE
  5
3EF0D9A1ECEAFB0
330
3EF0D9A1ECEB017
100
AcDbEntity
  8
TEXT
100
AcDbLine
 10
1.385151428363698
 20
0.1659813361512881
 30
0.0
 11
1.385151428363698
 21
0.0909289300770815
 31
0.0
  0
LINE
  5
3EF0D9A1ECEAFB1
330
3EF0D9A1ECEB017
100
AcDbEntity
  8
TEXT
100
AcDbLine
 10
1.253953263533968
 20
0.1659813361512881
 30
0.0
 11
1.308086860454919
 21
0.1659813361512881
 31
0.0
  0
LINE
  5
3EF0D9A1ECEAFB2
330
3EF0D9A1ECEB017
100
AcDbEntity
  8
TEXT
100
AcDbLine
 10
1.253953263533968
 20
-0.0362150021804575
 30
0.0
 11
1.253953263533968
 21
0.1659813361512881
 31
0.0
  0
LWPOLYLINE
  5
3EF0D9A1ECEAFB3
330
3EF0D9A1ECEB017
100
AcDbEntity
  8
TEXT
100
AcDbPolyline
 90
        2
 70
     0
 43
0.0
 10
1.308086860454917
 20
0.1659813361512881
 42
-0.4142135623731017
 10
1.31564064962103
 20
0.1584275469851781
 42
-0.9999999999999998
  0
LWPOLYLINE
  5
3EF0D9A1ECEAFB7
330
3EF0D9A1ECEB017
100
AcDbEntity
  8
TEXT
100
AcDbPolyline
 90
        4
 70
     0
 43
0.0
 10
1.31564064962103
 20
0.1584275469851781
 10
1.31564064962103
 20
-0.0362150021804575
 10
1.384118932908888
 20
-0.0362150021804575
 10
1.384118932908888
 20
0.0072759427699807
 42
-1.714843617202739
  0
LINE
  5
3EF0D9A1ECEAFBD
330
3EF0D9A1ECEB017
100
AcDbEntity
  8
TEXT
100
AcDbLine
 10
0.7442547652257865
 20
0.2302580308080535
 30
0.0
 11
0.7442547652257865
 21
0.2646459484021917
 31
0.0
  0
LINE
  5
3EF0D9A1ECEAFBE
330
3EF0D9A1ECEB017
100
AcDbEntity
  8
TEXT
100
AcDbLine
 10
0.8160537313696938
 20
0.2302580308080535
 30
0.0
 11
0.7442547652257865
 21
0.2302580308080535
 31
0.0
  0
LINE
  5
3EF0D9A1ECEAFBF
330
3EF0D9A1ECEB017
100
AcDbEntity
  8
TEXT
100
AcDbLine
 10
0.9635545280008734
 20
0.2302580308080535
 30
0.0
 11
0.9334326152074972
 21
0.2302580308080535
 31
0.0
  0
LINE
  5
3EF0D9A1ECEAFC0
330
3EF0D9A1ECEB017
100
AcDbEntity
  8
TEXT
100
AcDbLine
 10
0.9635545280008734
 20
0.2982695085468641
 30
0.0
 11
0.9635545280008734
 21
0.2302580308080535
 31
0.0
  0
LINE
  5
3EF0D9A1ECEAFC1
330
3EF0D9A1ECEB017
100
AcDbEntity
  8
TEXT
100
AcDbLine
 10
1.030363240567238
 20
0.2982695085468641
 30
0.0
 11
0.9635545280008734
 21
0.2982695085468641
 31
0.0
  0
LWPOLYLINE
  5
3EF0D9A1ECEAFC2
330
3EF0D9A1ECEB017
100
AcDbEntity
  8
TEXT
100
AcDbPolyline
 90
        3
 70
     0
 43
0.0
 10
1.35077500016524
 20
0.2302580308080571
 10
1.232474841349196
 20
0.2302580308080571
 10
1.232474841349196
 20
0.2030905340471611
 42
-1.960274751411753
  0
LINE
  5
3EF0D9A1ECEAFC7
330
3EF0D9A1ECEB017
100
AcDbEntity
  8
TEXT
100
AcDbLine
 10
1.196693150636034
 20
0.2302580308080535
 30
0.0
 11
1.062675094704898
 21
0.2302580308080535
 31
0.0
  0
LWPOLYLINE
  5
3EF0D9A1ECEAFC8
330
3EF0D9A1ECEB017
100
AcDbEntity
  8
TEXT
100
AcDbPolyline
 90
        2
 70
     0
 43
0.0
 10
1.196693150636034
 20
0.2302580308080571
 42
-0.3328679258950098
 10
1.232474841349196
 20
0.2030905340471611
 42
6.772930709997214
  0
LINE
  5
3EF0D9A1ECEAFCC
330
3EF0D9A1ECEB017
100
AcDbEntity
  8
TEXT
100
AcDbLine
 10
1.386556690878407
 20
0.2302580308080535
 30
0.0
 11
1.386556690878407
 21
0.2019354850384096
 31
0.0
  0
LWPOLYLINE
  5
3EF0D9A1ECEAFCD
330
3EF0D9A1ECEB017
100
AcDbEntity
  8
TEXT
100
AcDbPolyline
 90
        2
 70
     0
 43
0.0
 10
1.35077500016524
 20
0.2302580308080571
 42
-0.3277054968067132
 10
1.386556690878405
 20
0.2019354850384132
 42
6.667889725900311
  0
LINE
  5
3EF0D9A1ECEAFD1
330
3EF0D9A1ECEB017
100
AcDbEntity
  8
TEXT
100
AcDbLine
 10
1.600348538970507
 20
0.1250460522546262
 30
0.0
 11
1.556597767788606
 21
0.2072963282507714
 31
0.0
  0
LINE
  5
3EF0D9A1ECEAFD2
330
3EF0D9A1ECEB017
100
AcDbEntity
  8
TEXT
100
AcDbLine
 10
1.600348538970507
 20
0.2302580308080535
 30
0.0
 11
1.600348538970507
 21
0.1250460522546262
 31
0.0
  0
LINE
  5
3EF0D9A1ECEAFD3
330
3EF0D9A1ECEB017
100
AcDbEntity
  8
TEXT
100
AcDbLine
 10
1.828032277908876
 20
0.1543927043965154
 30
0.0
 11
1.828032277908876
 21
0.2957222365756542
 31
0.0
  0
LINE
  5
3EF0D9A1ECEAFD4
330
3EF0D9A1ECEB017
100
AcDbEntity
  8
TEXT
100
AcDbLine
 10
1.875130436464861
 20
0.2302580308080535
 30
0.0
 11
1.828032277908876
 21
0.1543927043965154
 31
0.0
  0
LINE
  5
3EF0D9A1ECEAFD5
330
3EF0D9A1ECEB017
100
AcDbEntity
  8
TEXT
100
AcDbLine
 10
1.885565153228784
 20
0.1203647878670799
 30
0.0
 11
1.950122269194489
 21
0.2302580308080535
 31
0.0
  0
LINE
  5
3EF0D9A1ECEAFD6
330
3EF0D9A1ECEB017
100
AcDbEntity
  8
TEXT
100
AcDbLine
 10
1.764197286686103
 20
-0.0362150021804575
 30
0.0
 11
1.828575471004723
 21
-0.0362150021804575
 31
0.0
  0
LWPOLYLINE
  5
3EF0D9A1ECEAFD7
330
3EF0D9A1ECEB017
100
AcDbEntity
  8
TEXT
100
AcDbPolyline
 90
        2
 70
     0
 43
0.0
 10
1.604288216275545
 20
0.0072759427699807
 42
-0.2901071551932486
 10
1.5612122834079
 20
-0.0362150021804575
 42
-5.328517124445184
  0
ARC
  5
3EF0D9A1ECEAFDB
330
3EF0D9A1ECEB017
100
AcDbEntity
  8
TEXT
100
AcDbCircle
 10
1.492357701750986
 20
0.1376219611512908
 30
0.0
 40
0.028359375
100
AcDbArc
 50
25.78218179591245
 51
90.0
  0
LINE
  5
3EF0D9A1ECEAFDC
330
3EF0D9A1ECEB017
100
AcDbEntity
  8
TEXT
100
AcDbLine
 10
1.528158777055109
 20
0.1287063626891558
 30
0.0
 11
1.517894016641545
 21
0.1499569022618501
 31
0.0
  0
LINE
  5
3EF0D9A1ECEAFDD
330
3EF0D9A1ECEB017
100
AcDbEntity
  8
TEXT
100
AcDbLine
 10
1.445870787271726
 20
0.1287063626891558
 30
0.0
 11
1.528158777055109
 21
0.1287063626891558
 31
0.0
  0
LWPOLYLINE
  5
3EF0D9A1ECEAFDE
330
3EF0D9A1ECEB017
100
AcDbEntity
  8
TEXT
100
AcDbPolyline
 90
        4
 70
     1
 43
0.0
 10
1.541089818338008
 20
0.0667489758035678
 10
1.452429499678149
 20
0.0667489758035678
 42
0.9999999999999998
 10
1.452429499678149
 20
0.0243504352997071
 10
1.541089818338008
 20
0.0243504352997071
 42
1.0
  0
LWPOLYLINE
  5
3EF0D9A1ECEAFE4
330
3EF0D9A1ECEB017
100
AcDbEntity
  8
TEXT
100
AcDbPolyline
 90
        2
 70
     0
 43
0.0
 10
1.427194865776524
 20
-0.0362150021804575
 10
1.5612122834079
 20
-0.0362150021804575
 42
0.9999999999999998
  0
LINE
  5
3EF0D9A1ECEAFE8
330
3EF0D9A1ECEB017
100
AcDbEntity
  8
TEXT
100
AcDbLine
 10
1.68754930539354
 20
0.1659813361512881
 30
0.0
 11
1.764197286686098
 21
0.1659813361512881
 31
0.0
  0
LINE
  5
3EF0D9A1ECEAFE9
330
3EF0D9A1ECEB017
100
AcDbEntity
  8
TEXT
100
AcDbLine
 10
1.764197286686098
 20
0.1659813361512881
 30
0.0
 11
1.764197286686103
 21
-0.0362150021804575
 31
0.0
  0
ARC
  5
3EF0D9A1ECEAFEA
330
3EF0D9A1ECEB017
100
AcDbEntity
  8
TEXT
100
AcDbCircle
 10
1.687549305393538
 20
0.1410754608686253
 30
0.0
 40
0.0249058752826653
100
AcDbArc
 50
89.99971217465335
 51
179.9999999999985
  0
LINE
  5
3EF0D9A1ECEAFEB
330
3EF0D9A1ECEB017
100
AcDbEntity
  8
TEXT
100
AcDbLine
 10
1.662643430110881
 20
-0.0362150021804575
 30
0.0
 11
1.662643430110875
 21
0.1410755032510109
 31
0.0
  0
LWPOLYLINE
  5
3EF0D9A1ECEAFEC
330
3EF0D9A1ECEB017
100
AcDbEntity
  8
TEXT
100
AcDbPolyline
 90
        2
 70
     0
 43
0.0
 10
1.604288216275545
 20
-0.0362150021804575
 10
1.662643430110879
 20
-0.0362150021804575
  0
LWPOLYLINE
  5
3EF0D9A1ECEAFF0
330
3EF0D9A1ECEB017
100
AcDbEntity
  8
TEXT
100
AcDbPolyline
 90
        2
 70
     0
 43
0.0
 10
1.604288216275545
 20
0.0072759427699807
 10
1.604288216275545
 20
-0.0362150021804575
  0
LINE
  5
3EF0D9A1ECEAFF4
330
3EF0D9A1ECEB017
100
AcDbEntity
  8
TEXT
100
AcDbLine
 10
1.981057376592394
 20
-0.0362150021804575
 30
0.0
 11
1.885565153228784
 21
0.1203647878670799
 31
0.0
  0
LINE
  5
3EF0D9A1ECEAFF5
330
3EF0D9A1ECEB017
100
AcDbEntity
  8
TEXT
100
AcDbLine
 10
1.904479004216188
 20
-0.0362150021804575
 30
0.0
 11
1.981057376592394
 21
-0.0362150021804575
 31
0.0
  0
LINE
  5
3EF0D9A1ECEAFF6
330
3EF0D9A1ECEB017
100
AcDbEntity
  8
TEXT
100
AcDbLine
 10
1.828575471004723
 20
0.0953645662957228
 30
0.0
 11
1.904479004216188
 21
-0.0362150021804575
 31
0.0
  0
LINE
  5
3EF0D9A1ECEAFF7
330
3EF0D9A1ECEB017
100
AcDbEntity
  8
TEXT
100
AcDbLine
 10
1.828575471004723
 20
-0.0362150021804575
 30
0.0
 11
1.828575471004723
 21
0.0953645662957228
 31
0.0
  0
LINE
  5
3EF0D9A1ECEAFF8
330
3EF0D9A1ECEB017
100
AcDbEntity
  8
TEXT
100
AcDbLine
 10
1.828032277908876
 20
0.2957222365756542
 30
0.0
 11
1.759717399359603
 21
0.2957222365756542
 31
0.0
  0
ARC
  5
3EF0D9A1ECEAFF9
330
3EF0D9A1ECEB017
100
AcDbEntity
  8
TEXT
100
AcDbCircle
 10
1.519361660318397
 20
0.1886744636871511
 30
0.0
 40
0.0416329381542859
100
AcDbArc
 50
26.56974201007528
 51
87.20939649401342
  0
LINE
  5
3EF0D9A1ECEAFFA
330
3EF0D9A1ECEB017
100
AcDbEntity
  8
TEXT
100
AcDbLine
 10
1.664245445270008
 20
0.2302580308080535
 30
0.0
 11
1.600348538970507
 21
0.2302580308080535
 31
0.0
  0
LINE
  5
3EF0D9A1ECEAFFB
330
3EF0D9A1ECEB017
100
AcDbEntity
  8
TEXT
100
AcDbLine
 10
1.664245445270008
 20
0.2027103809471789
 30
0.0
 11
1.664245445270008
 21
0.2302580308080535
 31
0.0
  0
ARC
  5
3EF0D9A1ECEAFFC
330
3EF0D9A1ECEB017
100
AcDbEntity
  8
TEXT
100
AcDbCircle
 10
1.695438262333116
 20
0.1990123035257887
 30
0.0
 40
0.0314112657011332
100
AcDbArc
 50
95.88484768694724
 51
173.2388340632136
  0
LINE
  5
3EF0D9A1ECEAFFD
330
3EF0D9A1ECEB017
100
AcDbEntity
  8
TEXT
100
AcDbLine
 10
1.759717399359598
 20
0.2302580308080535
 30
0.0
 11
1.692217681710081
 21
0.2302580308080535
 31
0.0
  0
LINE
  5
3EF0D9A1ECEAFFE
330
3EF0D9A1ECEB017
100
AcDbEntity
  8
TEXT
100
AcDbLine
 10
1.759717399359603
 20
0.2957222365756542
 30
0.0
 11
1.759717399359598
 21
0.2302580308080535
 31
0.0
  0
LINE
  5
3EF0D9A1ECEAFFF
330
3EF0D9A1ECEB017
100
AcDbEntity
  8
TEXT
100
AcDbLine
 10
1.950122269194489
 20
0.2302580308080535
 30
0.0
 11
1.875130436464862
 21
0.2302580308080535
 31
0.0
  0
ENDSEC
  0
SECTION
  2
OBJECTS
  0
DICTIONARY
  5
3EF0D9A1ECEB00B
330
0
100
AcDbDictionary
  3
ACAD_GROUP
350
3EF0D9A1ECEB00C
  3
ACAD_LAYOUT
350
3EF0D9A1ECEB031
  3
ACAD_MLINESTYLE
350
3EF0D9A1ECEB00D
  3
ACAD_PLOTSETTINGS
350
3EF0D9A1ECEB032
  3
ACAD_PLOTSTYLENAME
350
3EF0D9A1ECEB02F
  3
ACDBHEADERROUNDTRIPXREC
350
3EF0D9A1ECEB03C
  3
ACDBVARIABLEDICTIONARY
350
3EF0D9A1ECEB039
  0
DICTIONARY
  5
3EF0D9A1ECEB05E
330
3EF0D9A1ECEB017
100
AcDbDictionary
280
     1
  3
ACAD_LAYOUTSELFREF
360
3EF0D9A1ECEB05F
  0
DICTIONARY
  5
3EF0D9A1ECEB05C
330
3EF0D9A1ECEB014
100
AcDbDictionary
280
     1
  3
ACAD_LAYOUTSELFREF
360
3EF0D9A1ECEB05D
  0
DICTIONARY
  5
3EF0D9A1ECEB00C
102
{ACAD_REACTORS
330
3EF0D9A1ECEB00B
102
}
330
3EF0D9A1ECEB00B
100
AcDbDictionary
  0
DICTIONARY
  5
3EF0D9A1ECEB031
102
{ACAD_REACTORS
330
3EF0D9A1ECEB00B
102
}
330
3EF0D9A1ECEB00B
100
AcDbDictionary
  0
DICTIONARY
  5
3EF0D9A1ECEB00D
102
{ACAD_REACTORS
330
3EF0D9A1ECEB00B
102
}
330
3EF0D9A1ECEB00B
100
AcDbDictionary
  3
STANDARD
350
3EF0D9A1ECEB01A
  0
DICTIONARY
  5
3EF0D9A1ECEB032
102
{ACAD_REACTORS
330
3EF0D9A1ECEB00B
102
}
330
3EF0D9A1ECEB00B
100
AcDbDictionary
  0
ACDBDICTIONARYWDFLT
  5
3EF0D9A1ECEB02F
102
{ACAD_REACTORS
330
3EF0D9A1ECEB00B
102
}
330
3EF0D9A1ECEB00B
100
AcDbDictionary
281
     1
  3
Normal
350
3EF0D9A1ECEB030
100
AcDbDictionaryWithDefault
340
3EF0D9A1ECEB030
  0
DICTIONARY
  5
3EF0D9A1ECEB03C
102
{ACAD_REACTORS
330
3EF0D9A1ECEB00B
102
}
330
3EF0D9A1ECEB00B
100
AcDbDictionary
  3
CEPSNTYPE
350
3EF0D9A1ECEB046
  3
FINGERPRINTGUID
350
3EF0D9A1ECEB047
  3
HYPERLINKBASE
350
3EF0D9A1ECEB03F
  3
INSUNITS
350
3EF0D9A1ECEB045
  3
LAYOUTDICT
350
3EF0D9A1ECEB041
  3
LWETCUNION
350
3EF0D9A1ECEB044
  3
PLOTSETDICT
350
3EF0D9A1ECEB042
  3
PLOTSTYLNAMDICT
350
3EF0D9A1ECEB043
  3
PSVPSCALE
350
3EF0D9A1ECEB049
  3
PUCSBASE
350
3EF0D9A1ECEB04C
  3
PUCSORGBACK
350
3EF0D9A1ECEB052
  3
PUCSORGBOTTOM
350
3EF0D9A1ECEB04E
  3
PUCSORGFRONT
350
3EF0D9A1ECEB051
  3
PUCSORGLEFT
350
3EF0D9A1ECEB04F
  3
PUCSORGRIGHT
350
3EF0D9A1ECEB050
  3
PUCSORGTOP
350
3EF0D9A1ECEB04D
  3
PUCSORTHOREF
350
3EF0D9A1ECEB04A
  3
PUCSORTHOVIEW
350
3EF0D9A1ECEB04B
  3
STYLESHEET
350
3EF0D9A1ECEB040
  3
TSTACKALIGN
350
3EF0D9A1ECEB03D
  3
TSTACKSIZE
350
3EF0D9A1ECEB03E
  3
UCSBASE
350
3EF0D9A1ECEB055
  3
UCSORGBACK
350
3EF0D9A1ECEB05B
  3
UCSORGBOTTOM
350
3EF0D9A1ECEB057
  3
UCSORGFRONT
350
3EF0D9A1ECEB05A
  3
UCSORGLEFT
350
3EF0D9A1ECEB058
  3
UCSORGRIGHT
350
3EF0D9A1ECEB059
  3
UCSORGTOP
350
3EF0D9A1ECEB056
  3
UCSORTHOREF
350
3EF0D9A1ECEB053
  3
UCSORTHOVIEW
350
3EF0D9A1ECEB054
  3
VERSIONGUID
350
3EF0D9A1ECEB048
  0
DICTIONARY
  5
3EF0D9A1ECEB039
102
{ACAD_REACTORS
330
3EF0D9A1ECEB00B
102
}
330
3EF0D9A1ECEB00B
100
AcDbDictionary
  3
DIMASSOC
350
3EF0D9A1ECEB03A
  0
XRECORD
  5
3EF0D9A1ECEB05F
102
{ACAD_REACTORS
330
3EF0D9A1ECEB05E
102
}
330
3EF0D9A1ECEB05E
100
AcDbXrecord
340
3EF0D9A1ECEB017
  0
XRECORD
  5
3EF0D9A1ECEB05D
102
{ACAD_REACTORS
330
3EF0D9A1ECEB05C
102
}
330
3EF0D9A1ECEB05C
100
AcDbXrecord
340
3EF0D9A1ECEB014
  0
MLINESTYLE
  5
3EF0D9A1ECEB01A
102
{ACAD_REACTORS
330
3EF0D9A1ECEB00D
102
}
330
3EF0D9A1ECEB00D
100
AcDbMlineStyle
  2
STANDARD
 70
     0
  3

 62
     0
 51
90.0
 52
90.0
 71
     2
 49
0.5
 62
   256
  6
BYLAYER
 49
-0.5
 62
   256
  6
BYLAYER
  0
ACDBPLACEHOLDER
  5
3EF0D9A1ECEB030
102
{ACAD_REACTORS
330
3EF0D9A1ECEB02F
102
}
330
3EF0D9A1ECEB02F
100
AcDbPlaceHolder
280
     0
  0
XRECORD
  5
3EF0D9A1ECEB046
102
{ACAD_REACTORS
330
3EF0D9A1ECEB03C
102
}
330
3EF0D9A1ECEB03C
100
AcDbXrecord
 90
        0
  0
XRECORD
  5
3EF0D9A1ECEB047
102
{ACAD_REACTORS
330
3EF0D9A1ECEB03C
102
}
330
3EF0D9A1ECEB03C
100
AcDbXrecord
  1
{4D2583D0-8DB4-11D6-88E6-0090279574E7}
  0
XRECORD
  5
3EF0D9A1ECEB03F
102
{ACAD_REACTORS
330
3EF0D9A1ECEB03C
102
}
330
3EF0D9A1ECEB03C
100
AcDbXrecord
  1

  0
XRECORD
  5
3EF0D9A1ECEB045
102
{ACAD_REACTORS
330
3EF0D9A1ECEB03C
102
}
330
3EF0D9A1ECEB03C
100
AcDbXrecord
 90
        0
  0
XRECORD
  5
3EF0D9A1ECEB041
102
{ACAD_REACTORS
330
3EF0D9A1ECEB03C
102
}
330
3EF0D9A1ECEB03C
100
AcDbXrecord
340
3EF0D9A1ECEB031
  0
XRECORD
  5
3EF0D9A1ECEB044
102
{ACAD_REACTORS
330
3EF0D9A1ECEB03C
102
}
330
3EF0D9A1ECEB03C
100
AcDbXrecord
 90
    14877
  0
XRECORD
  5
3EF0D9A1ECEB042
102
{ACAD_REACTORS
330
3EF0D9A1ECEB03C
102
}
330
3EF0D9A1ECEB03C
100
AcDbXrecord
340
3EF0D9A1ECEB032
  0
XRECORD
  5
3EF0D9A1ECEB043
102
{ACAD_REACTORS
330
3EF0D9A1ECEB03C
102
}
330
3EF0D9A1ECEB03C
100
AcDbXrecord
340
3EF0D9A1ECEB02F
  0
XRECORD
  5
3EF0D9A1ECEB049
102
{ACAD_REACTORS
330
3EF0D9A1ECEB03C
102
}
330
3EF0D9A1ECEB03C
100
AcDbXrecord
 40
0.0
  0
XRECORD
  5
3EF0D9A1ECEB04C
102
{ACAD_REACTORS
330
3EF0D9A1ECEB03C
102
}
330
3EF0D9A1ECEB03C
100
AcDbXrecord
340
0
  0
XRECORD
  5
3EF0D9A1ECEB052
102
{ACAD_REACTORS
330
3EF0D9A1ECEB03C
102
}
330
3EF0D9A1ECEB03C
100
AcDbXrecord
 10
0.0
 20
0.0
 30
0.0
  0
XRECORD
  5
3EF0D9A1ECEB04E
102
{ACAD_REACTORS
330
3EF0D9A1ECEB03C
102
}
330
3EF0D9A1ECEB03C
100
AcDbXrecord
 10
0.0
 20
0.0
 30
0.0
  0
XRECORD
  5
3EF0D9A1ECEB051
102
{ACAD_REACTORS
330
3EF0D9A1ECEB03C
102
}
330
3EF0D9A1ECEB03C
100
AcDbXrecord
 10
0.0
 20
0.0
 30
0.0
  0
XRECORD
  5
3EF0D9A1ECEB04F
102
{ACAD_REACTORS
330
3EF0D9A1ECEB03C
102
}
330
3EF0D9A1ECEB03C
100
AcDbXrecord
 10
0.0
 20
0.0
 30
0.0
  0
XRECORD
  5
3EF0D9A1ECEB050
102
{ACAD_REACTORS
330
3EF0D9A1ECEB03C
102
}
330
3EF0D9A1ECEB03C
100
AcDbXrecord
 10
0.0
 20
0.0
 30
0.0
  0
XRECORD
  5
3EF0D9A1ECEB04D
102
{ACAD_REACTORS
330
3EF0D9A1ECEB03C
102
}
330
3EF0D9A1ECEB03C
100
AcDbXrecord
 10
0.0
 20
0.0
 30
0.0
  0
XRECORD
  5
3EF0D9A1ECEB04A
102
{ACAD_REACTORS
330
3EF0D9A1ECEB03C
102
}
330
3EF0D9A1ECEB03C
100
AcDbXrecord
340
0
  0
XRECORD
  5
3EF0D9A1ECEB04B
102
{ACAD_REACTORS
330
3EF0D9A1ECEB03C
102
}
330
3EF0D9A1ECEB03C
100
AcDbXrecord
 70
     0
  0
XRECORD
  5
3EF0D9A1ECEB040
102
{ACAD_REACTORS
330
3EF0D9A1ECEB03C
102
}
330
3EF0D9A1ECEB03C
100
AcDbXrecord
  1

  0
XRECORD
  5
3EF0D9A1ECEB03D
102
{ACAD_REACTORS
330
3EF0D9A1ECEB03C
102
}
330
3EF0D9A1ECEB03C
100
AcDbXrecord
 90
        1
  0
XRECORD
  5
3EF0D9A1ECEB03E
102
{ACAD_REACTORS
330
3EF0D9A1ECEB03C
102
}
330
3EF0D9A1ECEB03C
100
AcDbXrecord
 90
       70
  0
XRECORD
  5
3EF0D9A1ECEB055
102
{ACAD_REACTORS
330
3EF0D9A1ECEB03C
102
}
330
3EF0D9A1ECEB03C
100
AcDbXrecord
340
0
  0
XRECORD
  5
3EF0D9A1ECEB05B
102
{ACAD_REACTORS
330
3EF0D9A1ECEB03C
102
}
330
3EF0D9A1ECEB03C
100
AcDbXrecord
 10
0.0
 20
0.0
 30
0.0
  0
XRECORD
  5
3EF0D9A1ECEB057
102
{ACAD_REACTORS
330
3EF0D9A1ECEB03C
102
}
330
3EF0D9A1ECEB03C
100
AcDbXrecord
 10
0.0
 20
0.0
 30
0.0
  0
XRECORD
  5
3EF0D9A1ECEB05A
102
{ACAD_REACTORS
330
3EF0D9A1ECEB03C
102
}
330
3EF0D9A1ECEB03C
100
AcDbXrecord
 10
0.0
 20
0.0
 30
0.0
  0
XRECORD
  5
3EF0D9A1ECEB058
102
{ACAD_REACTORS
330
3EF0D9A1ECEB03C
102
}
330
3EF0D9A1ECEB03C
100
AcDbXrecord
 10
0.0
 20
0.0
 30
0.0
  0
XRECORD
  5
3EF0D9A1ECEB059
102
{ACAD_REACTORS
330
3EF0D9A1ECEB03C
102
}
330
3EF0D9A1ECEB03C
100
AcDbXrecord
 10
0.0
 20
0.0
 30
0.0
  0
XRECORD
  5
3EF0D9A1ECEB056
102
{ACAD_REACTORS
330
3EF0D9A1ECEB03C
102
}
330
3EF0D9A1ECEB03C
100
AcDbXrecord
 10
0.0
 20
0.0
 30
0.0
  0
XRECORD
  5
3EF0D9A1ECEB053
102
{ACAD_REACTORS
330
3EF0D9A1ECEB03C
102
}
330
3EF0D9A1ECEB03C
100
AcDbXrecord
340
0
  0
XRECORD
  5
3EF0D9A1ECEB054
102
{ACAD_REACTORS
330
3EF0D9A1ECEB03C
102
}
330
3EF0D9A1ECEB03C
100
AcDbXrecord
 70
     0
  0
XRECORD
  5
3EF0D9A1ECEB048
102
{ACAD_REACTORS
330
3EF0D9A1ECEB03C
102
}
330
3EF0D9A1ECEB03C
100
AcDbXrecord
  1
{4D2583D2-8DB4-11D6-88E6-0090279574E7}
  0
DICTIONARYVAR
  5
3EF0D9A1ECEB03A
102
{ACAD_REACTORS
330
3EF0D9A1ECEB039
102
}
330
3EF0D9A1ECEB039
100
DictionaryVariables
280
     0
  1
1
  0
ENDSEC
  0
EOF
