  0
SECTION
  2
HEADER
  9
$ACADVER
  1
AC1014
  9
$ACADMAINTVER
 70
     9
  9
$DWGCODEPAGE
  3
ANSI_1252
  9
$INSBASE
 10
2.65625
 20
1.890625
 30
0.0
  9
$EXTMIN
 10
0.9416177715658003
 20
0.7419980954620133
 30
0.0
  9
$EXTMAX
 10
4.42683709331293
 20
2.258437009761378
 30
0.0
  9
$LIMMIN
 10
0.0
 20
0.0
  9
$LIMMAX
 10
18.0
 20
12.0
  9
$ORTHOMODE
 70
     1
  9
$REGENMODE
 70
     1
  9
$FILLMODE
 70
     1
  9
$QTEXTMODE
 70
     0
  9
$MIRRTEXT
 70
     0
  9
$DRAGMODE
 70
     2
  9
$LTSCALE
 40
1.0
  9
$OSMODE
 70
    39
  9
$ATTMODE
 70
     1
  9
$TEXTSIZE
 40
0.125
  9
$TRACEWID
 40
0.05
  9
$TEXTSTYLE
  7
ROMANS
  9
$CLAYER
  8
0
  9
$CELTYPE
  6
BYLAYER
  9
$CECOLOR
 62
   256
  9
$CELTSCALE
 40
1.0
  9
$DELOBJ
 70
     1
  9
$DISPSILH
 70
     1
  9
$DIMSCALE
 40
1.0
  9
$DIMASZ
 40
0.125
  9
$DIMEXO
 40
0.125
  9
$DIMDLI
 40
0.375
  9
$DIMRND
 40
0.0
  9
$DIMDLE
 40
0.0
  9
$DIMEXE
 40
0.125
  9
$DIMTP
 40
0.0
  9
$DIMTM
 40
0.0
  9
$DIMTXT
 40
0.125
  9
$DIMCEN
 40
-0.125
  9
$DIMTSZ
 40
0.0
  9
$DIMTOL
 70
     0
  9
$DIMLIM
 70
     0
  9
$DIMTIH
 70
     1
  9
$DIMTOH
 70
     1
  9
$DIMSE1
 70
     0
  9
$DIMSE2
 70
     0
  9
$DIMTAD
 70
     0
  9
$DIMZIN
 70
     4
  9
$DIMBLK
  1

  9
$DIMASO
 70
     1
  9
$DIMSHO
 70
     1
  9
$DIMPOST
  1

  9
$DIMAPOST
  1

  9
$DIMALT
 70
     0
  9
$DIMALTD
 70
     2
  9
$DIMALTF
 40
25.4
  9
$DIMLFAC
 40
1.0
  9
$DIMTOFL
 70
     0
  9
$DIMTVP
 40
0.0
  9
$DIMTIX
 70
     1
  9
$DIMSOXD
 70
     0
  9
$DIMSAH
 70
     0
  9
$DIMBLK1
  1

  9
$DIMBLK2
  1

  9
$DIMSTYLE
  2
STANDARD
  9
$DIMCLRD
 70
     0
  9
$DIMCLRE
 70
     0
  9
$DIMCLRT
 70
     0
  9
$DIMTFAC
 40
1.0
  9
$DIMGAP
 40
0.09
  9
$DIMJUST
 70
     0
  9
$DIMSD1
 70
     0
  9
$DIMSD2
 70
     0
  9
$DIMTOLJ
 70
     1
  9
$DIMTZIN
 70
     4
  9
$DIMALTZ
 70
     0
  9
$DIMALTTZ
 70
     0
  9
$DIMFIT
 70
     3
  9
$DIMUPT
 70
     0
  9
$DIMUNIT
 70
     2
  9
$DIMDEC
 70
     3
  9
$DIMTDEC
 70
     3
  9
$DIMALTU
 70
     2
  9
$DIMALTTD
 70
     2
  9
$DIMTXSTY
  7
ROMANS
  9
$DIMAUNIT
 70
     0
  9
$LUNITS
 70
     2
  9
$LUPREC
 70
     3
  9
$SKETCHINC
 40
0.1
  9
$FILLETRAD
 40
0.03125
  9
$AUNITS
 70
     0
  9
$AUPREC
 70
     0
  9
$MENU
  1
ACAD
  9
$ELEVATION
 40
0.0
  9
$PELEVATION
 40
0.0
  9
$THICKNESS
 40
0.0
  9
$LIMCHECK
 70
     0
  9
$BLIPMODE
 70
     0
  9
$CHAMFERA
 40
0.0
  9
$CHAMFERB
 40
0.0
  9
$CHAMFERC
 40
0.0
  9
$CHAMFERD
 40
0.0
  9
$SKPOLY
 70
     0
  9
$TDCREATE
 40
2448994.317988078
  9
$TDUPDATE
 40
2452458.296927743
  9
$TDINDWG
 40
0.0005478588
  9
$TDUSRTIMER
 40
0.0005478588
  9
$USRTIMER
 70
     1
  9
$ANGBASE
 50
0.0
  9
$ANGDIR
 70
     0
  9
$PDMODE
 70
     0
  9
$PDSIZE
 40
0.0
  9
$PLINEWID
 40
0.0
  9
$COORDS
 70
     2
  9
$SPLFRAME
 70
     0
  9
$SPLINETYPE
 70
     6
  9
$SPLINESEGS
 70
     8
  9
$ATTDIA
 70
     0
  9
$ATTREQ
 70
     1
  9
$HANDLING
 70
 22529
  9
$HANDSEED
  5
3EF0D9A1ECEABA1
  9
$SURFTAB1
 70
     6
  9
$SURFTAB2
 70
     6
  9
$SURFTYPE
 70
     6
  9
$SURFU
 70
     6
  9
$SURFV
 70
     6
  9
$UCSNAME
  2

  9
$UCSORG
 10
0.0
 20
0.0
 30
0.0
  9
$UCSXDIR
 10
1.0
 20
0.0
 30
0.0
  9
$UCSYDIR
 10
0.0
 20
1.0
 30
0.0
  9
$PUCSNAME
  2

  9
$PUCSORG
 10
0.0
 20
0.0
 30
0.0
  9
$PUCSXDIR
 10
1.0
 20
0.0
 30
0.0
  9
$PUCSYDIR
 10
0.0
 20
1.0
 30
0.0
  9
$USERI1
 70
     0
  9
$USERI2
 70
     0
  9
$USERI3
 70
     0
  9
$USERI4
 70
     0
  9
$USERI5
 70
     0
  9
$USERR1
 40
0.0
  9
$USERR2
 40
0.0
  9
$USERR3
 40
0.0
  9
$USERR4
 40
0.0
  9
$USERR5
 40
0.0
  9
$WORLDVIEW
 70
     1
  9
$SHADEDGE
 70
     3
  9
$SHADEDIF
 70
    70
  9
$TILEMODE
 70
     1
  9
$MAXACTVP
 70
    16
  9
$PINSBASE
 10
1.465474325699224
 20
50.00000000000001
 30
2.179878066762754
  9
$PLIMCHECK
 70
     0
  9
$PEXTMIN
 10
1.000000000000000E+20
 20
1.000000000000000E+20
 30
1.000000000000000E+20
  9
$PEXTMAX
 10
-1.000000000000000E+20
 20
-1.000000000000000E+20
 30
-1.000000000000000E+20
  9
$PLIMMIN
 10
0.0
 20
0.0
  9
$PLIMMAX
 10
12.0
 20
9.0
  9
$UNITMODE
 70
     0
  9
$VISRETAIN
 70
     0
  9
$PLINEGEN
 70
     1
  9
$PSLTSCALE
 70
     0
  9
$TREEDEPTH
 70
  3020
  9
$PICKSTYLE
 70
     1
  9
$CMLSTYLE
  2
STANDARD
  9
$CMLJUST
 70
     0
  9
$CMLSCALE
 40
1.0
  9
$PROXYGRAPHICS
 70
     1
  9
$MEASUREMENT
 70
     0
  0
ENDSEC
  0
SECTION
  2
CLASSES
  0
CLASS
  1
LWPOLYLINE
  2
AcDbPolyline
  3
AutoCAD 2000
 90
        0
280
     0
281
     1
  0
CLASS
  1
ACDBDICTIONARYWDFLT
  2
AcDbDictionaryWithDefault
  3
AutoCAD 2000
 90
        0
280
     0
281
     0
  0
CLASS
  1
ACDBPLACEHOLDER
  2
AcDbPlaceHolder
  3
AutoCAD 2000
 90
        0
280
     0
281
     0
  0
CLASS
  1
LAYOUT
  2
AcDbLayout
  3
AutoCAD 2000
 90
        0
280
     0
281
     0
  0
CLASS
  1
DICTIONARYVAR
  2
AcDbDictionaryVar
  3
AutoCAD 2000
 90
        0
280
     0
281
     0
  0
CLASS
  1
LONG_TRANSACTION
  2
AcDbLongTransaction
  3
AutoCAD 2000
 90
        0
280
     0
281
     0
  0
CLASS
  1
LWPOLYLINE
  2
AcDbPolyline
  3
AutoCAD 2000
 90
        0
280
     0
281
     1
  0
CLASS
  1
HATCH
  2
AcDbHatch
  3
AutoCAD 2000
 90
        0
280
     0
281
     1
  0
CLASS
  1
XRECORD
  2
AcDbXrecord
  3
AutoCAD 2000
 90
        0
280
     0
281
     0
  0
ENDSEC
  0
SECTION
  2
TABLES
  0
TABLE
  2
VPORT
  5
3EF0D9A1ECEAB48
330
0
100
AcDbSymbolTable
 70
     2
  0
VPORT
  5
3EF0D9A1ECEAB7C
330
3EF0D9A1ECEAB48
100
AcDbSymbolTableRecord
100
AcDbViewportTableRecord
  2
*ACTIVE
 70
     0
 10
0.0
 20
0.0
 11
1.0
 21
1.0
 12
5.659398695273871
 22
1.50018312816995
 13
0.0
 23
0.0
 14
0.015625
 24
0.015625
 15
0.0
 25
0.0
 16
0.0
 26
0.0
 36
1.0
 17
0.0
 27
0.0
 37
0.0
 40
2.281748181188984
 41
4.320930232558139
 42
50.0
 43
0.0
 44
0.0
 50
0.0
 51
0.0
 71
     0
 72
  2000
 73
     1
 74
     0
 75
     1
 76
     0
 77
     0
 78
     0
  0
ENDTAB
  0
TABLE
  2
LTYPE
  5
3EF0D9A1ECEAB45
330
0
100
AcDbSymbolTable
 70
     1
  0
LTYPE
  5
3EF0D9A1ECEAB52
330
3EF0D9A1ECEAB45
100
AcDbSymbolTableRecord
100
AcDbLinetypeTableRecord
  2
BYBLOCK
 70
     0
  3

 72
    65
 73
     0
 40
0.0
  0
LTYPE
  5
3EF0D9A1ECEAB53
330
3EF0D9A1ECEAB45
100
AcDbSymbolTableRecord
100
AcDbLinetypeTableRecord
  2
BYLAYER
 70
     0
  3

 72
    65
 73
     0
 40
0.0
  0
LTYPE
  5
3EF0D9A1ECEAB54
330
3EF0D9A1ECEAB45
100
AcDbSymbolTableRecord
100
AcDbLinetypeTableRecord
  2
CONTINUOUS
 70
     0
  3
Solid line
 72
    65
 73
     0
 40
0.0
  0
ENDTAB
  0
TABLE
  2
LAYER
  5
3EF0D9A1ECEAB42
330
0
100
AcDbSymbolTable
 70
     2
  0
LAYER
  5
3EF0D9A1ECEAB4F
330
3EF0D9A1ECEAB42
100
AcDbSymbolTableRecord
100
AcDbLayerTableRecord
  2
0
 70
     0
 62
     7
  6
CONTINUOUS
  0
LAYER
  5
3EF0D9A1ECEAB5F
330
3EF0D9A1ECEAB42
100
AcDbSymbolTableRecord
100
AcDbLayerTableRecord
  2
TEXT
 70
     0
 62
     3
  6
CONTINUOUS
  0
ENDTAB
  0
TABLE
  2
STYLE
  5
3EF0D9A1ECEAB43
330
0
100
AcDbSymbolTable
 70
     3
  0
STYLE
  5
3EF0D9A1ECEAB50
330
3EF0D9A1ECEAB43
100
AcDbSymbolTableRecord
100
AcDbTextStyleTableRecord
  2
STANDARD
 70
     0
 40
0.0
 41
1.0
 50
0.0
 71
     0
 42
0.3125
  3
txt
  4

  0
STYLE
  5
3EF0D9A1ECEAB5C
330
3EF0D9A1ECEAB43
100
AcDbSymbolTableRecord
100
AcDbTextStyleTableRecord
  2
ITALICC
 70
     0
 40
0.0
 41
1.0
 50
0.0
 71
     0
 42
0.125
  3
italicc
  4

  0
STYLE
  5
3EF0D9A1ECEAB6C
330
3EF0D9A1ECEAB43
100
AcDbSymbolTableRecord
100
AcDbTextStyleTableRecord
  2
ROMANS
 70
     0
 40
0.0
 41
1.0
 50
0.0
 71
     0
 42
0.125
  3
romans.shx
  4

  0
ENDTAB
  0
TABLE
  2
VIEW
  5
3EF0D9A1ECEAB46
330
0
100
AcDbSymbolTable
 70
     0
  0
ENDTAB
  0
TABLE
  2
UCS
  5
3EF0D9A1ECEAB47
330
0
100
AcDbSymbolTable
 70
     0
  0
ENDTAB
  0
TABLE
  2
APPID
  5
3EF0D9A1ECEAB49
330
0
100
AcDbSymbolTable
 70
     1
  0
APPID
  5
3EF0D9A1ECEAB51
330
3EF0D9A1ECEAB49
100
AcDbSymbolTableRecord
100
AcDbRegAppTableRecord
  2
ACAD
 70
     0
  0
ENDTAB
  0
TABLE
  2
DIMSTYLE
  5
3EF0D9A1ECEAB4A
330
0
100
AcDbSymbolTable
 70
     1
  0
DIMSTYLE
105
3EF0D9A1ECEAB64
330
3EF0D9A1ECEAB4A
100
AcDbSymbolTableRecord
100
AcDbDimStyleTableRecord
  2
STANDARD
 70
     0
  3

  4

  5

  6

  7

 40
1.0
 41
0.125
 42
0.125
 43
0.375
 44
0.125
 45
0.0
 46
0.0
 47
0.0
 48
0.0
140
0.125
141
-0.125
142
0.0
143
25.4
144
1.0
145
0.0
146
1.0
147
0.09
 71
     0
 72
     0
 73
     1
 74
     1
 75
     0
 76
     0
 77
     0
 78
     4
170
     0
171
     2
172
     0
173
     0
174
     1
175
     0
176
     0
177
     0
178
     0
270
     2
271
     3
272
     3
273
     2
274
     2
340
3EF0D9A1ECEAB6C
275
     0
280
     0
281
     0
282
     0
283
     1
284
     4
285
     0
286
     0
287
     3
288
     0
  0
ENDTAB
  0
TABLE
  2
BLOCK_RECORD
  5
3EF0D9A1ECEAB41
330
0
100
AcDbSymbolTable
 70
     0
  0
BLOCK_RECORD
  5
3EF0D9A1ECEAB58
102
{ACAD_XDICTIONARY
360
3EF0D9A1ECEAB9F
102
}
330
3EF0D9A1ECEAB41
100
AcDbSymbolTableRecord
100
AcDbBlockTableRecord
  2
*MODEL_SPACE
  0
BLOCK_RECORD
  5
3EF0D9A1ECEAB55
102
{ACAD_XDICTIONARY
360
3EF0D9A1ECEAB9D
102
}
330
3EF0D9A1ECEAB41
100
AcDbSymbolTableRecord
100
AcDbBlockTableRecord
  2
*PAPER_SPACE
  0
ENDTAB
  0
ENDSEC
  0
SECTION
  2
BLOCKS
  0
BLOCK
  5
3EF0D9A1ECEAB62
330
3EF0D9A1ECEAB58
100
AcDbEntity
  8
0
100
AcDbBlockBegin
  2
*MODEL_SPACE
 70
     0
 10
0.0
 20
0.0
 30
0.0
  3
*MODEL_SPACE
  1

  0
ENDBLK
  5
3EF0D9A1ECEAB63
330
3EF0D9A1ECEAB58
100
AcDbEntity
  8
0
100
AcDbBlockEnd
  0
BLOCK
  5
3EF0D9A1ECEAB60
330
3EF0D9A1ECEAB55
100
AcDbEntity
 67
     1
  8
0
100
AcDbBlockBegin
  2
*PAPER_SPACE
 70
     0
 10
0.0
 20
0.0
 30
0.0
  3
*PAPER_SPACE
  1

  0
ENDBLK
  5
3EF0D9A1ECEAB61
330
3EF0D9A1ECEAB55
100
AcDbEntity
 67
     1
  8
0
100
AcDbBlockEnd
  0
ENDSEC
  0
SECTION
  2
ENTITIES
  0
LWPOLYLINE
  5
3EF0D9A1ECE9585
330
3EF0D9A1ECEAB58
100
AcDbEntity
  8
0
100
AcDbPolyline
 90
       22
 70
     1
 43
0.0
 10
2.246599350792943
 20
2.221016699544595
 10
2.246599350792943
 20
1.502016699544595
 10
2.308599350792943
 20
1.502016699544595
 10
2.308599350792943
 20
1.877016699544595
 10
2.371599350792943
 20
1.877016699544595
 10
2.308599350792943
 20
1.940016699544595
 10
2.308599350792943
 20
2.190016699544595
 10
2.434599350792943
 20
2.190016699544595
 10
2.434599350792943
 20
1.976335458677463
 10
2.470918109925811
 20
1.940016699544594
 10
2.674599350792943
 20
1.940016699544595
 10
2.684599350792943
 20
1.950016699544594
 10
2.694599350792943
 20
1.940016699544595
 10
3.059599350792943
 20
1.940016699544595
 10
2.996599350792943
 20
1.877016699544595
 10
3.121599350792943
 20
1.877016699544595
 10
3.121599350792943
 20
1.971016699544595
 42
0.4142135623730951
 10
3.090599350792943
 20
2.002016699544594
 10
2.496599350792943
 20
2.002016699544594
 10
2.496599350792943
 20
2.221016699544595
 42
0.4142135623730948
 10
2.465599350792943
 20
2.252016699544594
 10
2.277599350792943
 20
2.252016699544595
 42
0.4142135623730951
  0
TEXT
  5
3EF0D9A1ECEAA03
330
3EF0D9A1ECEAB58
100
AcDbEntity
  8
TEXT
100
AcDbText
 10
1.928646969840562
 20
1.200016699544594
 30
0.0
 40
0.125
  1
PART #110137
  7
ITALICC
 72
     1
 11
2.684599350792943
 21
1.200016699544594
 31
0.0
100
AcDbText
  0
TEXT
  5
3EF0D9A1ECEAA04
330
3EF0D9A1ECEAB58
100
AcDbEntity
  8
TEXT
100
AcDbText
 10
3.097904509043264
 20
0.7530940568722198
 30
0.0
 40
0.0522247191011236
  1
Phone  1-800-328-2495
 41
1.272321428571429
 72
     5
 11
4.426837093312927
 21
0.7530940568722198
 31
0.0
100
AcDbText
  0
TEXT
  5
3EF0D9A1ECEAA05
330
3EF0D9A1ECEAB58
100
AcDbEntity
  8
TEXT
100
AcDbText
 10
3.097904509043264
 20
1.032869337771096
 30
0.0
 40
0.0522247191011236
  1
Stylmark  Incorporated
 41
1.221428571428573
 72
     5
 11
4.426837093312927
 21
1.032869337771096
 31
0.0
100
AcDbText
  0
TEXT
  5
3EF0D9A1ECEAA06
330
3EF0D9A1ECEAB58
100
AcDbEntity
  8
TEXT
100
AcDbText
 10
3.097904509043264
 20
0.939610910804804
 30
0.0
 40
0.0522247191011236
  1
6536 Main St. N.E. * P.O. Box 32008
 41
0.8388932496075366
 72
     5
 11
4.426837093312927
 21
0.939610910804804
 31
0.0
100
AcDbText
  0
TEXT
  5
3EF0D9A1ECEAA07
330
3EF0D9A1ECEAB58
100
AcDbEntity
  8
TEXT
100
AcDbText
 10
3.097904509043264
 20
0.8463524838385119
 30
0.0
 40
0.0522247191011236
  1
Minneapolis, MN 55432-0008
 41
1.11444212721585
 72
     5
 11
4.426837093312927
 21
0.8463524838385119
 31
0.0
100
AcDbText
  0
LWPOLYLINE
  5
3EF0D9A1ECEAA08
330
3EF0D9A1ECEAB58
100
AcDbEntity
  8
TEXT
100
AcDbPolyline
 90
        3
 70
     0
 43
0.0006660908203125
 10
0.9419508169759565
 20
0.8667388195096545
 10
0.9419508169759565
 20
0.753503380056527
 10
1.055186256429078
 20
0.753503380056527
  0
LWPOLYLINE
  5
3EF0D9A1ECEAA0D
330
3EF0D9A1ECEAB58
100
AcDbEntity
  8
TEXT
100
AcDbPolyline
 90
        3
 70
     0
 43
0.0006660908203125
 10
0.9685944497884539
 20
0.8667388195096545
 10
0.9685944497884539
 20
0.780147012869028
 10
1.055186256429078
 20
0.780147012869028
  0
LWPOLYLINE
  5
3EF0D9A1ECEAA12
330
3EF0D9A1ECEAB58
100
AcDbEntity
  8
TEXT
100
AcDbPolyline
 90
        2
 70
     0
 43
0.0001332181640625
 10
1.01522080721033
 20
0.8767301818143398
 10
0.9419508169759565
 20
0.8667388195096545
  0
LWPOLYLINE
  5
3EF0D9A1ECEAA16
330
3EF0D9A1ECEAB58
100
AcDbEntity
  8
TEXT
100
AcDbPolyline
 90
        2
 70
     0
 43
0.0001332181640625
 10
0.9685944497884539
 20
0.8667388195096545
 10
1.028542623616581
 20
0.8767301818143398
  0
LWPOLYLINE
  5
3EF0D9A1ECEAA1A
330
3EF0D9A1ECEAB58
100
AcDbEntity
  8
TEXT
100
AcDbPolyline
 90
        2
 70
     0
 43
0.0001332181640625
 10
0.9685944497884539
 20
0.780147012869028
 10
1.028542623616581
 20
0.8400951866971535
  0
LWPOLYLINE
  5
3EF0D9A1ECEAA1E
330
3EF0D9A1ECEAB58
100
AcDbEntity
  8
TEXT
100
AcDbPolyline
 90
        3
 70
     0
 43
0.0006660908203125
 10
1.055186256429078
 20
1.01993970818153
 10
0.9419508169759565
 20
1.01993970818153
 10
0.9419508169759565
 20
0.9067042687284025
  0
LWPOLYLINE
  5
3EF0D9A1ECEAA23
330
3EF0D9A1ECEAB58
100
AcDbEntity
  8
TEXT
100
AcDbPolyline
 90
        3
 70
     0
 43
0.0006660908203125
 10
1.055186256429078
 20
0.9932960753690291
 10
0.9685944497884539
 20
0.9932960753690291
 10
0.9685944497884539
 20
0.9067042687284025
  0
LWPOLYLINE
  5
3EF0D9A1ECEAA28
330
3EF0D9A1ECEAB58
100
AcDbEntity
  8
TEXT
100
AcDbPolyline
 90
        2
 70
     0
 43
0.0001332181640625
 10
0.9685944497884539
 20
0.9932960753690291
 10
1.028542623616579
 20
0.9333479015409036
  0
LWPOLYLINE
  5
3EF0D9A1ECEAA2C
330
3EF0D9A1ECEAB58
100
AcDbEntity
  8
TEXT
100
AcDbPolyline
 90
        2
 70
     0
 43
0.0001332181640625
 10
0.9685944497884539
 20
0.9067042687284025
 10
1.028542623616579
 20
0.8967129064237138
  0
LWPOLYLINE
  5
3EF0D9A1ECEAA30
330
3EF0D9A1ECEAB58
100
AcDbEntity
  8
TEXT
100
AcDbPolyline
 90
        2
 70
     0
 43
0.0001332181640625
 10
0.9419508169759565
 20
0.9067042687284025
 10
1.01522080721033
 20
0.8967129064237138
  0
LWPOLYLINE
  5
3EF0D9A1ECEAA34
330
3EF0D9A1ECEAB58
100
AcDbEntity
  8
TEXT
100
AcDbPolyline
 90
        2
 70
     0
 43
0.0006660908203125
 10
0.9685944497884539
 20
0.8667388195096545
 10
0.9419508169759565
 20
0.8667388195096545
  0
LWPOLYLINE
  5
3EF0D9A1ECEAA38
330
3EF0D9A1ECEAB58
100
AcDbEntity
  8
TEXT
100
AcDbPolyline
 90
        2
 70
     0
 43
0.0006660908203125
 10
0.9685944497884539
 20
0.9067042687284025
 10
0.9419508169759565
 20
0.9067042687284025
  0
LINE
  5
3EF0D9A1ECEAA3C
330
3EF0D9A1ECEAB58
100
AcDbEntity
  8
TEXT
100
AcDbLine
 10
2.457141246102453
 20
0.9556630135247612
 30
0.0
 11
2.349934972715164
 21
0.9556630135247612
 31
0.0
  0
LINE
  5
3EF0D9A1ECEAA3D
330
3EF0D9A1ECEAB58
100
AcDbEntity
  8
TEXT
100
AcDbLine
 10
2.486172144446932
 20
1.019939708181526
 30
0.0
 11
2.351340235229873
 21
1.019939708181526
 31
0.0
  0
ARC
  5
3EF0D9A1ECEAA3E
330
3EF0D9A1ECEAB58
100
AcDbEntity
  8
TEXT
100
AcDbCircle
 10
2.41065433162319
 20
0.8507024589185103
 30
0.0
 40
0.0676855811441166
100
AcDbArc
 50
90.0
 51
153.7768192527749
  0
LWPOLYLINE
  5
3EF0D9A1ECEAA3F
330
3EF0D9A1ECEAB58
100
AcDbEntity
  8
TEXT
100
AcDbPolyline
 90
        2
 70
     0
 43
0.0
 10
2.348902477260354
 20
0.7969576201434539
 42
0.2901071551932823
 10
2.39197841012799
 20
0.7534666751930157
 42
5.328517124445801
  0
ARC
  5
3EF0D9A1ECEAA43
330
3EF0D9A1ECEAB58
100
AcDbEntity
  8
TEXT
100
AcDbCircle
 10
1.705522953951704
 20
0.8132590665310654
 30
0.0
 40
0.0601160179737537
100
AcDbArc
 50
180.0000000000003
 51
264.0521544866073
  0
LINE
  5
3EF0D9A1ECEAA44
330
3EF0D9A1ECEAB58
100
AcDbEntity
  8
TEXT
100
AcDbLine
 10
1.709038309577252
 20
1.054327625775664
 30
0.0
 11
1.648995704733245
 21
1.054327625775664
 31
0.0
  0
ARC
  5
3EF0D9A1ECEAA45
330
3EF0D9A1ECEAB58
100
AcDbEntity
  8
TEXT
100
AcDbCircle
 10
1.473263951834733
 20
0.9378522487350249
 30
0.0
 40
0.0820874594465043
100
AcDbArc
 50
90.0
 51
270.0
  0
LWPOLYLINE
  5
3EF0D9A1ECEAA46
330
3EF0D9A1ECEAB58
100
AcDbEntity
  8
TEXT
100
AcDbPolyline
 90
        2
 70
     0
 43
0.0001332181640625
 10
1.065177618733769
 20
0.9466697179471506
 10
1.055186256429078
 20
1.01993970818153
  0
LWPOLYLINE
  5
3EF0D9A1ECEAA4A
330
3EF0D9A1ECEAB58
100
AcDbEntity
  8
TEXT
100
AcDbPolyline
 90
        2
 70
     0
 43
0.0001332181640625
 10
1.055186256429078
 20
0.9932960753690291
 10
1.065177618733769
 20
0.9333479015409036
  0
LWPOLYLINE
  5
3EF0D9A1ECEAA4E
330
3EF0D9A1ECEAB58
100
AcDbEntity
  8
TEXT
100
AcDbPolyline
 90
        3
 70
     0
 43
0.0006660908203125
 10
1.208387145100956
 20
0.9067042687284025
 10
1.208387145100956
 20
1.01993970818153
 10
1.09515170564783
 20
1.01993970818153
  0
LWPOLYLINE
  5
3EF0D9A1ECEAA53
330
3EF0D9A1ECEAB58
100
AcDbEntity
  8
TEXT
100
AcDbPolyline
 90
        3
 70
     0
 43
0.0006660908203125
 10
1.181743512288455
 20
0.9067042687284025
 10
1.181743512288455
 20
0.9932960753690291
 10
1.09515170564783
 20
0.9932960753690291
  0
LWPOLYLINE
  5
3EF0D9A1ECEAA58
330
3EF0D9A1ECEAB58
100
AcDbEntity
  8
TEXT
100
AcDbPolyline
 90
        2
 70
     0
 43
0.0001332181640625
 10
1.181743512288455
 20
0.9932960753690291
 10
1.121795338460331
 20
0.9333479015409036
  0
LWPOLYLINE
  5
3EF0D9A1ECEAA5C
330
3EF0D9A1ECEAB58
100
AcDbEntity
  8
TEXT
100
AcDbPolyline
 90
        2
 70
     0
 43
0.0001332181640625
 10
1.09515170564783
 20
0.9932960753690291
 10
1.085160343343141
 20
0.9333479015409036
  0
LWPOLYLINE
  5
3EF0D9A1ECEAA60
330
3EF0D9A1ECEAB58
100
AcDbEntity
  8
TEXT
100
AcDbPolyline
 90
        2
 70
     0
 43
0.0001332181640625
 10
1.09515170564783
 20
1.01993970818153
 10
1.085160343343141
 20
0.9466697179471506
  0
LWPOLYLINE
  5
3EF0D9A1ECEAA64
330
3EF0D9A1ECEAB58
100
AcDbEntity
  8
TEXT
100
AcDbPolyline
 90
        2
 70
     0
 43
0.0001332181640625
 10
1.13511715486658
 20
0.8967129064237138
 10
1.208387145100956
 20
0.9067042687284025
  0
LWPOLYLINE
  5
3EF0D9A1ECEAA68
330
3EF0D9A1ECEAB58
100
AcDbEntity
  8
TEXT
100
AcDbPolyline
 90
        2
 70
     0
 43
0.0001332181640625
 10
1.181743512288455
 20
0.9067042687284025
 10
1.121795338460331
 20
0.8967129064237138
  0
LWPOLYLINE
  5
3EF0D9A1ECEAA6C
330
3EF0D9A1ECEAB58
100
AcDbEntity
  8
TEXT
100
AcDbPolyline
 90
        2
 70
     0
 43
0.0001332181640625
 10
1.208387145100956
 20
0.8667388195096545
 10
1.13511715486658
 20
0.8767301818143398
  0
LWPOLYLINE
  5
3EF0D9A1ECEAA70
330
3EF0D9A1ECEAB58
100
AcDbEntity
  8
TEXT
100
AcDbPolyline
 90
        2
 70
     0
 43
0.0001332181640625
 10
1.181743512288455
 20
0.8667388195096545
 10
1.121795338460331
 20
0.8767301818143398
  0
LWPOLYLINE
  5
3EF0D9A1ECEAA74
330
3EF0D9A1ECEAB58
100
AcDbEntity
  8
TEXT
100
AcDbPolyline
 90
        2
 70
     0
 43
0.0001332181640625
 10
1.181743512288455
 20
0.780147012869028
 10
1.121795338460331
 20
0.8400951866971535
  0
LWPOLYLINE
  5
3EF0D9A1ECEAA78
330
3EF0D9A1ECEAB58
100
AcDbEntity
  8
TEXT
100
AcDbPolyline
 90
        3
 70
     0
 43
0.0006660908203125
 10
1.09515170564783
 20
0.780147012869028
 10
1.181743512288455
 20
0.780147012869028
 10
1.181743512288455
 20
0.8667388195096545
  0
LWPOLYLINE
  5
3EF0D9A1ECEAA7D
330
3EF0D9A1ECEAB58
100
AcDbEntity
  8
TEXT
100
AcDbPolyline
 90
        3
 70
     0
 43
0.0006660908203125
 10
1.09515170564783
 20
0.753503380056527
 10
1.208387145100956
 20
0.753503380056527
 10
1.208387145100956
 20
0.8667388195096545
  0
LWPOLYLINE
  5
3EF0D9A1ECEAA82
330
3EF0D9A1ECEAB58
100
AcDbEntity
  8
TEXT
100
AcDbPolyline
 90
        5
 70
     0
 43
0.0001332181640625
 10
1.065177618733769
 20
0.826773370290903
 10
1.065177618733769
 20
0.8400951866971535
 10
1.028542623616581
 20
0.8400951866971535
 10
1.028542623616581
 20
0.8767301818143398
 10
1.01522080721033
 20
0.8767301818143398
  0
LWPOLYLINE
  5
3EF0D9A1ECEAA89
330
3EF0D9A1ECEAB58
100
AcDbEntity
  8
TEXT
100
AcDbPolyline
 90
        2
 70
     0
 43
0.0006660908203125
 10
1.055186256429078
 20
0.780147012869028
 10
1.055186256429078
 20
0.753503380056527
  0
LWPOLYLINE
  5
3EF0D9A1ECEAA8D
330
3EF0D9A1ECEAB58
100
AcDbEntity
  8
TEXT
100
AcDbPolyline
 90
        2
 70
     0
 43
0.0001332181640625
 10
1.055186256429078
 20
0.780147012869028
 10
1.065177618733769
 20
0.8400951866971535
  0
LWPOLYLINE
  5
3EF0D9A1ECEAA91
330
3EF0D9A1ECEAB58
100
AcDbEntity
  8
TEXT
100
AcDbPolyline
 90
        2
 70
     0
 43
0.0001332181640625
 10
1.055186256429078
 20
0.753503380056527
 10
1.065177618733769
 20
0.826773370290903
  0
LWPOLYLINE
  5
3EF0D9A1ECEAA95
330
3EF0D9A1ECEAB58
100
AcDbEntity
  8
TEXT
100
AcDbPolyline
 90
        5
 70
     0
 43
0.0001332181640625
 10
1.01522080721033
 20
0.8967129064237138
 10
1.028542623616579
 20
0.8967129064237138
 10
1.028542623616579
 20
0.9333479015409036
 10
1.065177618733769
 20
0.9333479015409036
 10
1.065177618733769
 20
0.9466697179471506
  0
LWPOLYLINE
  5
3EF0D9A1ECEAA9C
330
3EF0D9A1ECEAB58
100
AcDbEntity
  8
TEXT
100
AcDbPolyline
 90
        5
 70
     0
 43
0.0001332181640625
 10
1.085160343343141
 20
0.9466697179471506
 10
1.085160343343141
 20
0.9333479015409036
 10
1.121795338460331
 20
0.9333479015409036
 10
1.121795338460331
 20
0.8967129064237138
 10
1.13511715486658
 20
0.8967129064237138
  0
LWPOLYLINE
  5
3EF0D9A1ECEAAA3
330
3EF0D9A1ECEAB58
100
AcDbEntity
  8
TEXT
100
AcDbPolyline
 90
        2
 70
     0
 43
0.0001332181640625
 10
1.09515170564783
 20
0.780147012869028
 10
1.085160343343141
 20
0.8400951866971535
  0
LWPOLYLINE
  5
3EF0D9A1ECEAAA7
330
3EF0D9A1ECEAB58
100
AcDbEntity
  8
TEXT
100
AcDbPolyline
 90
        2
 70
     0
 43
0.0001332181640625
 10
1.085160343343141
 20
0.826773370290903
 10
1.09515170564783
 20
0.753503380056527
  0
LWPOLYLINE
  5
3EF0D9A1ECEAAAB
330
3EF0D9A1ECEAB58
100
AcDbEntity
  8
TEXT
100
AcDbPolyline
 90
        2
 70
     0
 43
0.0006660908203125
 10
1.09515170564783
 20
0.780147012869028
 10
1.09515170564783
 20
0.753503380056527
  0
LWPOLYLINE
  5
3EF0D9A1ECEAAAF
330
3EF0D9A1ECEAB58
100
AcDbEntity
  8
TEXT
100
AcDbPolyline
 90
        5
 70
     0
 43
0.0001332181640625
 10
1.13511715486658
 20
0.8767301818143398
 10
1.121795338460331
 20
0.8767301818143398
 10
1.121795338460331
 20
0.8400951866971535
 10
1.085160343343141
 20
0.8400951866971535
 10
1.085160343343141
 20
0.826773370290903
  0
LWPOLYLINE
  5
3EF0D9A1ECEAAB6
330
3EF0D9A1ECEAB58
100
AcDbEntity
  8
TEXT
100
AcDbPolyline
 90
        2
 70
     0
 43
0.0006660908203125
 10
1.181743512288455
 20
0.9067042687284025
 10
1.208387145100956
 20
0.9067042687284025
  0
LWPOLYLINE
  5
3EF0D9A1ECEAABA
330
3EF0D9A1ECEAB58
100
AcDbEntity
  8
TEXT
100
AcDbPolyline
 90
        2
 70
     0
 43
0.0006660908203125
 10
1.181743512288455
 20
0.8667388195096545
 10
1.208387145100956
 20
0.8667388195096545
  0
LINE
  5
3EF0D9A1ECEAABE
330
3EF0D9A1ECEAB58
100
AcDbEntity
  8
TEXT
100
AcDbLine
 10
1.478501281948981
 20
0.9556630135247612
 30
0.0
 11
1.645406935977952
 21
0.9556630135247612
 31
0.0
  0
LINE
  5
3EF0D9A1ECEAABF
330
3EF0D9A1ECEAB58
100
AcDbEntity
  8
TEXT
100
AcDbLine
 10
1.544101418193282
 20
0.9198582919141333
 30
0.0
 11
1.478501281948981
 21
0.9198582919141333
 31
0.0
  0
LINE
  5
3EF0D9A1ECEAAC0
330
3EF0D9A1ECEAB58
100
AcDbEntity
  8
TEXT
100
AcDbLine
 10
1.391176492388229
 20
0.7534666751930157
 30
0.0
 11
1.544101418193282
 21
0.7534666751930157
 31
0.0
  0
LINE
  5
3EF0D9A1ECEAAC1
330
3EF0D9A1ECEAB58
100
AcDbEntity
  8
TEXT
100
AcDbLine
 10
1.549041792099561
 20
0.821823681526455
 30
0.0
 11
1.391176492388227
 21
0.821823681526455
 31
0.0
  0
LINE
  5
3EF0D9A1ECEAAC2
330
3EF0D9A1ECEAB58
100
AcDbEntity
  8
TEXT
100
AcDbLine
 10
1.473263951834733
 20
0.8557647892885196
 30
0.0
 11
1.549041792099561
 21
0.8557647892885196
 31
0.0
  0
ARC
  5
3EF0D9A1ECEAAC3
330
3EF0D9A1ECEAB58
100
AcDbEntity
  8
TEXT
100
AcDbCircle
 10
1.478501281948982
 20
0.937760652719449
 30
0.0
 40
0.017902360805315
100
AcDbArc
 50
90.0
 51
270.0
  0
LINE
  5
3EF0D9A1ECEAAC4
330
3EF0D9A1ECEAB58
100
AcDbEntity
  8
TEXT
100
AcDbLine
 10
1.391176492388227
 20
0.821823681526455
 30
0.0
 11
1.391176492388229
 21
0.7534666751930157
 31
0.0
  0
LINE
  5
3EF0D9A1ECEAAC5
330
3EF0D9A1ECEAB58
100
AcDbEntity
  8
TEXT
100
AcDbLine
 10
1.645406935977952
 20
0.9556630135247612
 30
0.0
 11
1.645406935977952
 21
0.8132590665310654
 31
0.0
  0
ARC
  5
3EF0D9A1ECEAAC6
330
3EF0D9A1ECEAB58
100
AcDbEntity
  8
TEXT
100
AcDbCircle
 10
1.544101418193283
 20
0.8366624835535727
 30
0.0
 40
0.0831958083605586
100
AcDbArc
 50
270.0
 51
90.0
  0
ARC
  5
3EF0D9A1ECEAAC7
330
3EF0D9A1ECEAB58
100
AcDbEntity
  8
TEXT
100
AcDbCircle
 10
1.549041792099562
 20
0.838794235407489
 30
0.0
 40
0.0169705538810321
100
AcDbArc
 50
270.0
 51
90.0
  0
LWPOLYLINE
  5
3EF0D9A1ECEAAC8
330
3EF0D9A1ECEAB58
100
AcDbEntity
  8
TEXT
100
AcDbPolyline
 90
        2
 70
     0
 43
0.0006660908203125
 10
1.055186256429078
 20
0.9932960753690291
 10
1.055186256429078
 20
1.01993970818153
  0
LWPOLYLINE
  5
3EF0D9A1ECEAACC
330
3EF0D9A1ECEAB58
100
AcDbEntity
  8
TEXT
100
AcDbPolyline
 90
        2
 70
     0
 43
0.0006660908203125
 10
1.09515170564783
 20
0.9932960753690291
 10
1.09515170564783
 20
1.01993970818153
  0
LINE
  5
3EF0D9A1ECEAAD0
330
3EF0D9A1ECEAB58
100
AcDbEntity
  8
TEXT
100
AcDbLine
 10
1.648995704733245
 20
1.019939708181526
 30
0.0
 11
1.473263951834733
 21
1.019939708181526
 31
0.0
  0
LINE
  5
3EF0D9A1ECEAAD1
330
3EF0D9A1ECEAB58
100
AcDbEntity
  8
TEXT
100
AcDbLine
 10
1.648995704733245
 20
1.054327625775664
 30
0.0
 11
1.648995704733245
 21
1.019939708181526
 31
0.0
  0
LINE
  5
3EF0D9A1ECEAAD2
330
3EF0D9A1ECEAB58
100
AcDbEntity
  8
TEXT
100
AcDbLine
 10
1.839467596753097
 20
0.919067712068406
 30
0.0
 11
1.780837275721159
 21
1.019939708181526
 31
0.0
  0
LINE
  5
3EF0D9A1ECEAAD3
330
3EF0D9A1ECEAB58
100
AcDbEntity
  8
TEXT
100
AcDbLine
 10
1.898216159558963
 20
1.019939708181526
 30
0.0
 11
1.839467596753097
 21
0.919067712068406
 31
0.0
  0
LINE
  5
3EF0D9A1ECEAAD4
330
3EF0D9A1ECEAB58
100
AcDbEntity
  8
TEXT
100
AcDbLine
 10
1.995146784918704
 20
0.8358545132960149
 30
0.0
 11
1.995146784918704
 21
1.087951185920337
 31
0.0
  0
LINE
  5
3EF0D9A1ECEAAD5
330
3EF0D9A1ECEAB58
100
AcDbEntity
  8
TEXT
100
AcDbLine
 10
2.027458639056364
 20
1.019939708181526
 30
0.0
 11
2.027458639056364
 21
0.8190755014491184
 31
0.0
  0
LINE
  5
3EF0D9A1ECEAAD6
330
3EF0D9A1ECEAB58
100
AcDbEntity
  8
TEXT
100
AcDbLine
 10
2.027458639056364
 20
0.8190755014491184
 30
0.0
 11
2.010465002171763
 21
0.8190755014491184
 31
0.0
  0
LINE
  5
3EF0D9A1ECEAAD7
330
3EF0D9A1ECEAB58
100
AcDbEntity
  8
TEXT
100
AcDbLine
 10
1.996286358414899
 20
0.7534666751930157
 30
0.0
 11
2.094289692114333
 21
0.7534666751930157
 31
0.0
  0
LINE
  5
3EF0D9A1ECEAAD8
330
3EF0D9A1ECEAB58
100
AcDbEntity
  8
TEXT
100
AcDbLine
 10
1.829867359756143
 20
0.7734251812980287
 30
0.0
 11
1.927167065849587
 21
0.9377753922332967
 31
0.0
  0
ARC
  5
3EF0D9A1ECEAAD9
330
3EF0D9A1ECEAB58
100
AcDbEntity
  8
TEXT
100
AcDbCircle
 10
1.795823799843929
 20
0.7930143974667115
 30
0.0
 40
0.0392772371940762
100
AcDbArc
 50
270.1604552698595
 51
330.0831797321295
  0
LINE
  5
3EF0D9A1ECEAADA
330
3EF0D9A1ECEAB58
100
AcDbEntity
  8
TEXT
100
AcDbLine
 10
1.699293543458058
 20
0.7534666751930157
 30
0.0
 11
1.795933794533052
 21
0.753737314291298
 31
0.0
  0
LWPOLYLINE
  5
3EF0D9A1ECEAADB
330
3EF0D9A1ECEAB58
100
AcDbEntity
  8
TEXT
100
AcDbPolyline
 90
        6
 70
     1
 43
0.0
 10
1.741817347033207
 20
0.9556630135247612
 10
1.711500752812999
 20
0.9556630135247612
 10
1.711500752812999
 20
0.8325520154698669
 42
0.407328721240804
 10
1.723044403974475
 20
0.8207331007934808
 10
1.783666103019206
 20
0.8207331007934808
 10
1.801131443426524
 20
0.8535453298369599
  0
LINE
  5
3EF0D9A1ECEAAE3
330
3EF0D9A1ECEAB58
100
AcDbEntity
  8
TEXT
100
AcDbLine
 10
1.927167065849587
 20
0.9377753922332967
 30
0.0
 11
1.927167065849587
 21
0.8050180174079404
 31
0.0
  0
ARC
  5
3EF0D9A1ECEAAE4
330
3EF0D9A1ECEAB58
100
AcDbEntity
  8
TEXT
100
AcDbCircle
 10
2.010465002171761
 20
0.8344573076925438
 30
0.0
 40
0.0153818062434269
100
AcDbArc
 50
174.7883570302258
 51
270.0
  0
LWPOLYLINE
  5
3EF0D9A1ECEAAE5
330
3EF0D9A1ECEAB58
100
AcDbEntity
  8
TEXT
100
AcDbPolyline
 90
        2
 70
     0
 43
0.0
 10
1.927167065849586
 20
0.8050180174079439
 42
0.3318488747599744
 10
1.996286358414899
 20
0.7534666751930157
 42
-6.868794160588311
  0
LINE
  5
3EF0D9A1ECEAAE9
330
3EF0D9A1ECEAB58
100
AcDbEntity
  8
TEXT
100
AcDbLine
 10
2.151678761103594
 20
0.7534666751930157
 30
0.0
 11
2.218736807885434
 21
0.7534666751930157
 31
0.0
  0
LINE
  5
3EF0D9A1ECEAAEA
330
3EF0D9A1ECEAB58
100
AcDbEntity
  8
TEXT
100
AcDbLine
 10
2.151678761103594
 20
0.9481092243586513
 30
0.0
 11
2.151678761103594
 21
0.7534666751930157
 31
0.0
  0
LINE
  5
3EF0D9A1ECEAAEB
330
3EF0D9A1ECEAB58
100
AcDbEntity
  8
TEXT
100
AcDbLine
 10
2.094289692114333
 20
0.9556630135247612
 30
0.0
 11
2.144124971937481
 21
0.9556630135247612
 31
0.0
  0
LINE
  5
3EF0D9A1ECEAAEC
330
3EF0D9A1ECEAB58
100
AcDbEntity
  8
TEXT
100
AcDbLine
 10
2.094289692114333
 20
0.7534666751930157
 30
0.0
 11
2.094289692114333
 21
0.9556630135247612
 31
0.0
  0
LWPOLYLINE
  5
3EF0D9A1ECEAAED
330
3EF0D9A1ECEAB58
100
AcDbEntity
  8
TEXT
100
AcDbPolyline
 90
        2
 70
     0
 43
0.0
 10
2.144124971937479
 20
0.9556630135247612
 42
-0.4142135623731017
 10
2.151678761103593
 20
0.9481092243586513
 42
-0.9999999999999998
  0
LINE
  5
3EF0D9A1ECEAAF1
330
3EF0D9A1ECEAB58
100
AcDbEntity
  8
TEXT
100
AcDbLine
 10
2.349934972715164
 20
0.9556630135247612
 30
0.0
 11
2.349934972715164
 21
0.8806106074505546
 31
0.0
  0
LINE
  5
3EF0D9A1ECEAAF2
330
3EF0D9A1ECEAB58
100
AcDbEntity
  8
TEXT
100
AcDbLine
 10
2.218736807885434
 20
0.9556630135247612
 30
0.0
 11
2.272870404806385
 21
0.9556630135247612
 31
0.0
  0
LINE
  5
3EF0D9A1ECEAAF3
330
3EF0D9A1ECEAB58
100
AcDbEntity
  8
TEXT
100
AcDbLine
 10
2.218736807885434
 20
0.7534666751930157
 30
0.0
 11
2.218736807885434
 21
0.9556630135247612
 31
0.0
  0
LWPOLYLINE
  5
3EF0D9A1ECEAAF4
330
3EF0D9A1ECEAB58
100
AcDbEntity
  8
TEXT
100
AcDbPolyline
 90
        2
 70
     0
 43
0.0
 10
2.272870404806383
 20
0.9556630135247612
 42
-0.4142135623731017
 10
2.280424193972496
 20
0.9481092243586513
 42
-0.9999999999999998
  0
LWPOLYLINE
  5
3EF0D9A1ECEAAF8
330
3EF0D9A1ECEAB58
100
AcDbEntity
  8
TEXT
100
AcDbPolyline
 90
        4
 70
     0
 43
0.0
 10
2.280424193972496
 20
0.9481092243586513
 10
2.280424193972496
 20
0.7534666751930157
 10
2.348902477260354
 20
0.7534666751930157
 10
2.348902477260354
 20
0.7969576201434539
 42
-1.714843617202739
  0
LINE
  5
3EF0D9A1ECEAAFE
330
3EF0D9A1ECEAB58
100
AcDbEntity
  8
TEXT
100
AcDbLine
 10
1.709038309577252
 20
1.019939708181526
 30
0.0
 11
1.709038309577252
 21
1.054327625775664
 31
0.0
  0
LINE
  5
3EF0D9A1ECEAAFF
330
3EF0D9A1ECEAB58
100
AcDbEntity
  8
TEXT
100
AcDbLine
 10
1.780837275721159
 20
1.019939708181526
 30
0.0
 11
1.709038309577252
 21
1.019939708181526
 31
0.0
  0
LINE
  5
3EF0D9A1ECEAB00
330
3EF0D9A1ECEAB58
100
AcDbEntity
  8
TEXT
100
AcDbLine
 10
1.928338072352339
 20
1.019939708181526
 30
0.0
 11
1.898216159558963
 21
1.019939708181526
 31
0.0
  0
LINE
  5
3EF0D9A1ECEAB01
330
3EF0D9A1ECEAB58
100
AcDbEntity
  8
TEXT
100
AcDbLine
 10
1.928338072352339
 20
1.087951185920337
 30
0.0
 11
1.928338072352339
 21
1.019939708181526
 31
0.0
  0
LINE
  5
3EF0D9A1ECEAB02
330
3EF0D9A1ECEAB58
100
AcDbEntity
  8
TEXT
100
AcDbLine
 10
1.995146784918704
 20
1.087951185920337
 30
0.0
 11
1.928338072352339
 21
1.087951185920337
 31
0.0
  0
LWPOLYLINE
  5
3EF0D9A1ECEAB03
330
3EF0D9A1ECEAB58
100
AcDbEntity
  8
TEXT
100
AcDbPolyline
 90
        3
 70
     0
 43
0.0
 10
2.315558544516706
 20
1.01993970818153
 10
2.197258385700662
 20
1.01993970818153
 10
2.197258385700662
 20
0.9927722114206343
 42
-1.960274751411753
  0
LINE
  5
3EF0D9A1ECEAB08
330
3EF0D9A1ECEAB58
100
AcDbEntity
  8
TEXT
100
AcDbLine
 10
2.1614766949875
 20
1.019939708181526
 30
0.0
 11
2.027458639056364
 21
1.019939708181526
 31
0.0
  0
LWPOLYLINE
  5
3EF0D9A1ECEAB09
330
3EF0D9A1ECEAB58
100
AcDbEntity
  8
TEXT
100
AcDbPolyline
 90
        2
 70
     0
 43
0.0
 10
2.1614766949875
 20
1.01993970818153
 42
-0.3328679258950098
 10
2.197258385700662
 20
0.9927722114206343
 42
6.772930709997214
  0
LINE
  5
3EF0D9A1ECEAB0D
330
3EF0D9A1ECEAB58
100
AcDbEntity
  8
TEXT
100
AcDbLine
 10
2.351340235229873
 20
1.019939708181526
 30
0.0
 11
2.351340235229873
 21
0.9916171624118828
 31
0.0
  0
LWPOLYLINE
  5
3EF0D9A1ECEAB0E
330
3EF0D9A1ECEAB58
100
AcDbEntity
  8
TEXT
100
AcDbPolyline
 90
        2
 70
     0
 43
0.0
 10
2.315558544516706
 20
1.01993970818153
 42
-0.3277054968067132
 10
2.351340235229871
 20
0.9916171624118863
 42
6.667889725900311
  0
LINE
  5
3EF0D9A1ECEAB12
330
3EF0D9A1ECEAB58
100
AcDbEntity
  8
TEXT
100
AcDbLine
 10
2.565132083321973
 20
0.9147277296280993
 30
0.0
 11
2.521381312140071
 21
0.9969780056242445
 31
0.0
  0
LINE
  5
3EF0D9A1ECEAB13
330
3EF0D9A1ECEAB58
100
AcDbEntity
  8
TEXT
100
AcDbLine
 10
2.565132083321973
 20
1.019939708181526
 30
0.0
 11
2.565132083321973
 21
0.9147277296280993
 31
0.0
  0
LINE
  5
3EF0D9A1ECEAB14
330
3EF0D9A1ECEAB58
100
AcDbEntity
  8
TEXT
100
AcDbLine
 10
2.792815822260342
 20
0.9440743817699885
 30
0.0
 11
2.792815822260342
 21
1.085403913949127
 31
0.0
  0
LINE
  5
3EF0D9A1ECEAB15
330
3EF0D9A1ECEAB58
100
AcDbEntity
  8
TEXT
100
AcDbLine
 10
2.839913980816326
 20
1.019939708181526
 30
0.0
 11
2.792815822260342
 21
0.9440743817699885
 31
0.0
  0
LINE
  5
3EF0D9A1ECEAB16
330
3EF0D9A1ECEAB58
100
AcDbEntity
  8
TEXT
100
AcDbLine
 10
2.850348697580249
 20
0.9100464652405531
 30
0.0
 11
2.914905813545955
 21
1.019939708181526
 31
0.0
  0
LINE
  5
3EF0D9A1ECEAB17
330
3EF0D9A1ECEAB58
100
AcDbEntity
  8
TEXT
100
AcDbLine
 10
2.728980831037569
 20
0.7534666751930157
 30
0.0
 11
2.793359015356189
 21
0.7534666751930157
 31
0.0
  0
LWPOLYLINE
  5
3EF0D9A1ECEAB18
330
3EF0D9A1ECEAB58
100
AcDbEntity
  8
TEXT
100
AcDbPolyline
 90
        2
 70
     0
 43
0.0
 10
2.569071760627011
 20
0.7969576201434539
 42
-0.2901071551932486
 10
2.525995827759366
 20
0.7534666751930157
 42
-5.328517124445184
  0
ARC
  5
3EF0D9A1ECEAB1C
330
3EF0D9A1ECEAB58
100
AcDbEntity
  8
TEXT
100
AcDbCircle
 10
2.457141246102452
 20
0.9273036385247639
 30
0.0
 40
0.028359375
100
AcDbArc
 50
25.78218179591245
 51
90.0
  0
LINE
  5
3EF0D9A1ECEAB1D
330
3EF0D9A1ECEAB58
100
AcDbEntity
  8
TEXT
100
AcDbLine
 10
2.492942321406575
 20
0.9183880400626289
 30
0.0
 11
2.48267756099301
 21
0.9396385796353232
 31
0.0
  0
LINE
  5
3EF0D9A1ECEAB1E
330
3EF0D9A1ECEAB58
100
AcDbEntity
  8
TEXT
100
AcDbLine
 10
2.410654331623192
 20
0.9183880400626289
 30
0.0
 11
2.492942321406575
 21
0.9183880400626289
 31
0.0
  0
LWPOLYLINE
  5
3EF0D9A1ECEAB1F
330
3EF0D9A1ECEAB58
100
AcDbEntity
  8
TEXT
100
AcDbPolyline
 90
        4
 70
     1
 43
0.0
 10
2.505873362689474
 20
0.8564306531770409
 10
2.417213044029615
 20
0.8564306531770409
 42
0.9999999999999998
 10
2.417213044029615
 20
0.8140321126731802
 10
2.505873362689474
 20
0.8140321126731802
 42
1.0
  0
LWPOLYLINE
  5
3EF0D9A1ECEAB25
330
3EF0D9A1ECEAB58
100
AcDbEntity
  8
TEXT
100
AcDbPolyline
 90
        2
 70
     0
 43
0.0
 10
2.39197841012799
 20
0.7534666751930157
 10
2.525995827759366
 20
0.7534666751930157
 42
0.9999999999999998
  0
LINE
  5
3EF0D9A1ECEAB29
330
3EF0D9A1ECEAB58
100
AcDbEntity
  8
TEXT
100
AcDbLine
 10
2.652332849745006
 20
0.9556630135247612
 30
0.0
 11
2.728980831037564
 21
0.9556630135247612
 31
0.0
  0
LINE
  5
3EF0D9A1ECEAB2A
330
3EF0D9A1ECEAB58
100
AcDbEntity
  8
TEXT
100
AcDbLine
 10
2.728980831037564
 20
0.9556630135247612
 30
0.0
 11
2.728980831037569
 21
0.7534666751930157
 31
0.0
  0
ARC
  5
3EF0D9A1ECEAB2B
330
3EF0D9A1ECEAB58
100
AcDbEntity
  8
TEXT
100
AcDbCircle
 10
2.652332849745004
 20
0.9307571382420984
 30
0.0
 40
0.0249058752826653
100
AcDbArc
 50
89.99971217465335
 51
179.9999999999985
  0
LINE
  5
3EF0D9A1ECEAB2C
330
3EF0D9A1ECEAB58
100
AcDbEntity
  8
TEXT
100
AcDbLine
 10
2.627426974462347
 20
0.7534666751930157
 30
0.0
 11
2.627426974462341
 21
0.930757180624484
 31
0.0
  0
LWPOLYLINE
  5
3EF0D9A1ECEAB2D
330
3EF0D9A1ECEAB58
100
AcDbEntity
  8
TEXT
100
AcDbPolyline
 90
        2
 70
     0
 43
0.0
 10
2.569071760627011
 20
0.7534666751930157
 10
2.627426974462345
 20
0.7534666751930157
  0
LWPOLYLINE
  5
3EF0D9A1ECEAB31
330
3EF0D9A1ECEAB58
100
AcDbEntity
  8
TEXT
100
AcDbPolyline
 90
        2
 70
     0
 43
0.0
 10
2.569071760627011
 20
0.7969576201434539
 10
2.569071760627011
 20
0.7534666751930157
  0
LINE
  5
3EF0D9A1ECEAB35
330
3EF0D9A1ECEAB58
100
AcDbEntity
  8
TEXT
100
AcDbLine
 10
2.94584092094386
 20
0.7534666751930157
 30
0.0
 11
2.850348697580249
 21
0.9100464652405531
 31
0.0
  0
LINE
  5
3EF0D9A1ECEAB36
330
3EF0D9A1ECEAB58
100
AcDbEntity
  8
TEXT
100
AcDbLine
 10
2.869262548567654
 20
0.7534666751930157
 30
0.0
 11
2.94584092094386
 21
0.7534666751930157
 31
0.0
  0
LINE
  5
3EF0D9A1ECEAB37
330
3EF0D9A1ECEAB58
100
AcDbEntity
  8
TEXT
100
AcDbLine
 10
2.793359015356189
 20
0.8850462436691959
 30
0.0
 11
2.869262548567654
 21
0.7534666751930157
 31
0.0
  0
LINE
  5
3EF0D9A1ECEAB38
330
3EF0D9A1ECEAB58
100
AcDbEntity
  8
TEXT
100
AcDbLine
 10
2.793359015356189
 20
0.7534666751930157
 30
0.0
 11
2.793359015356189
 21
0.8850462436691959
 31
0.0
  0
LINE
  5
3EF0D9A1ECEAB39
330
3EF0D9A1ECEAB58
100
AcDbEntity
  8
TEXT
100
AcDbLine
 10
2.792815822260342
 20
1.085403913949127
 30
0.0
 11
2.724500943711069
 21
1.085403913949127
 31
0.0
  0
ARC
  5
3EF0D9A1ECEAB3A
330
3EF0D9A1ECEAB58
100
AcDbEntity
  8
TEXT
100
AcDbCircle
 10
2.484145204669863
 20
0.9783561410606242
 30
0.0
 40
0.0416329381542859
100
AcDbArc
 50
26.56974201007528
 51
87.20939649401342
  0
LINE
  5
3EF0D9A1ECEAB3B
330
3EF0D9A1ECEAB58
100
AcDbEntity
  8
TEXT
100
AcDbLine
 10
2.629028989621474
 20
1.019939708181526
 30
0.0
 11
2.565132083321973
 21
1.019939708181526
 31
0.0
  0
LINE
  5
3EF0D9A1ECEAB3C
330
3EF0D9A1ECEAB58
100
AcDbEntity
  8
TEXT
100
AcDbLine
 10
2.629028989621474
 20
0.992392058320652
 30
0.0
 11
2.629028989621474
 21
1.019939708181526
 31
0.0
  0
ARC
  5
3EF0D9A1ECEAB3D
330
3EF0D9A1ECEAB58
100
AcDbEntity
  8
TEXT
100
AcDbCircle
 10
2.660221806684582
 20
0.9886939808992618
 30
0.0
 40
0.0314112657011332
100
AcDbArc
 50
95.88484768694724
 51
173.2388340632136
  0
LINE
  5
3EF0D9A1ECEAB3E
330
3EF0D9A1ECEAB58
100
AcDbEntity
  8
TEXT
100
AcDbLine
 10
2.724500943711063
 20
1.019939708181526
 30
0.0
 11
2.657001226061547
 21
1.019939708181526
 31
0.0
  0
LINE
  5
3EF0D9A1ECEAB3F
330
3EF0D9A1ECEAB58
100
AcDbEntity
  8
TEXT
100
AcDbLine
 10
2.724500943711069
 20
1.085403913949127
 30
0.0
 11
2.724500943711063
 21
1.019939708181526
 31
0.0
  0
LINE
  5
3EF0D9A1ECEAB40
330
3EF0D9A1ECEAB58
100
AcDbEntity
  8
TEXT
100
AcDbLine
 10
2.914905813545955
 20
1.019939708181526
 30
0.0
 11
2.839913980816328
 21
1.019939708181526
 31
0.0
  0
ENDSEC
  0
SECTION
  2
OBJECTS
  0
DICTIONARY
  5
3EF0D9A1ECEAB4C
330
0
100
AcDbDictionary
  3
ACAD_GROUP
350
3EF0D9A1ECEAB4D
  3
ACAD_LAYOUT
350
3EF0D9A1ECEAB72
  3
ACAD_MLINESTYLE
350
3EF0D9A1ECEAB4E
  3
ACAD_PLOTSETTINGS
350
3EF0D9A1ECEAB73
  3
ACAD_PLOTSTYLENAME
350
3EF0D9A1ECEAB70
  3
ACDBHEADERROUNDTRIPXREC
350
3EF0D9A1ECEAB7D
  3
ACDBVARIABLEDICTIONARY
350
3EF0D9A1ECEAB7A
  0
DICTIONARY
  5
3EF0D9A1ECEAB9F
330
3EF0D9A1ECEAB58
100
AcDbDictionary
280
     1
  3
ACAD_LAYOUTSELFREF
360
3EF0D9A1ECEABA0
  0
DICTIONARY
  5
3EF0D9A1ECEAB9D
330
3EF0D9A1ECEAB55
100
AcDbDictionary
280
     1
  3
ACAD_LAYOUTSELFREF
360
3EF0D9A1ECEAB9E
  0
DICTIONARY
  5
3EF0D9A1ECEAB4D
102
{ACAD_REACTORS
330
3EF0D9A1ECEAB4C
102
}
330
3EF0D9A1ECEAB4C
100
AcDbDictionary
  0
DICTIONARY
  5
3EF0D9A1ECEAB72
102
{ACAD_REACTORS
330
3EF0D9A1ECEAB4C
102
}
330
3EF0D9A1ECEAB4C
100
AcDbDictionary
  0
DICTIONARY
  5
3EF0D9A1ECEAB4E
102
{ACAD_REACTORS
330
3EF0D9A1ECEAB4C
102
}
330
3EF0D9A1ECEAB4C
100
AcDbDictionary
  3
STANDARD
350
3EF0D9A1ECEAB5B
  0
DICTIONARY
  5
3EF0D9A1ECEAB73
102
{ACAD_REACTORS
330
3EF0D9A1ECEAB4C
102
}
330
3EF0D9A1ECEAB4C
100
AcDbDictionary
  0
ACDBDICTIONARYWDFLT
  5
3EF0D9A1ECEAB70
102
{ACAD_REACTORS
330
3EF0D9A1ECEAB4C
102
}
330
3EF0D9A1ECEAB4C
100
AcDbDictionary
281
     1
  3
Normal
350
3EF0D9A1ECEAB71
100
AcDbDictionaryWithDefault
340
3EF0D9A1ECEAB71
  0
DICTIONARY
  5
3EF0D9A1ECEAB7D
102
{ACAD_REACTORS
330
3EF0D9A1ECEAB4C
102
}
330
3EF0D9A1ECEAB4C
100
AcDbDictionary
  3
CEPSNTYPE
350
3EF0D9A1ECEAB87
  3
FINGERPRINTGUID
350
3EF0D9A1ECEAB88
  3
HYPERLINKBASE
350
3EF0D9A1ECEAB80
  3
INSUNITS
350
3EF0D9A1ECEAB86
  3
LAYOUTDICT
350
3EF0D9A1ECEAB82
  3
LWETCUNION
350
3EF0D9A1ECEAB85
  3
PLOTSETDICT
350
3EF0D9A1ECEAB83
  3
PLOTSTYLNAMDICT
350
3EF0D9A1ECEAB84
  3
PSVPSCALE
350
3EF0D9A1ECEAB8A
  3
PUCSBASE
350
3EF0D9A1ECEAB8D
  3
PUCSORGBACK
350
3EF0D9A1ECEAB93
  3
PUCSORGBOTTOM
350
3EF0D9A1ECEAB8F
  3
PUCSORGFRONT
350
3EF0D9A1ECEAB92
  3
PUCSORGLEFT
350
3EF0D9A1ECEAB90
  3
PUCSORGRIGHT
350
3EF0D9A1ECEAB91
  3
PUCSORGTOP
350
3EF0D9A1ECEAB8E
  3
PUCSORTHOREF
350
3EF0D9A1ECEAB8B
  3
PUCSORTHOVIEW
350
3EF0D9A1ECEAB8C
  3
STYLESHEET
350
3EF0D9A1ECEAB81
  3
TSTACKALIGN
350
3EF0D9A1ECEAB7E
  3
TSTACKSIZE
350
3EF0D9A1ECEAB7F
  3
UCSBASE
350
3EF0D9A1ECEAB96
  3
UCSORGBACK
350
3EF0D9A1ECEAB9C
  3
UCSORGBOTTOM
350
3EF0D9A1ECEAB98
  3
UCSORGFRONT
350
3EF0D9A1ECEAB9B
  3
UCSORGLEFT
350
3EF0D9A1ECEAB99
  3
UCSORGRIGHT
350
3EF0D9A1ECEAB9A
  3
UCSORGTOP
350
3EF0D9A1ECEAB97
  3
UCSORTHOREF
350
3EF0D9A1ECEAB94
  3
UCSORTHOVIEW
350
3EF0D9A1ECEAB95
  3
VERSIONGUID
350
3EF0D9A1ECEAB89
  0
DICTIONARY
  5
3EF0D9A1ECEAB7A
102
{ACAD_REACTORS
330
3EF0D9A1ECEAB4C
102
}
330
3EF0D9A1ECEAB4C
100
AcDbDictionary
  3
DIMASSOC
350
3EF0D9A1ECEAB7B
  0
XRECORD
  5
3EF0D9A1ECEABA0
102
{ACAD_REACTORS
330
3EF0D9A1ECEAB9F
102
}
330
3EF0D9A1ECEAB9F
100
AcDbXrecord
340
3EF0D9A1ECEAB58
  0
XRECORD
  5
3EF0D9A1ECEAB9E
102
{ACAD_REACTORS
330
3EF0D9A1ECEAB9D
102
}
330
3EF0D9A1ECEAB9D
100
AcDbXrecord
340
3EF0D9A1ECEAB55
  0
MLINESTYLE
  5
3EF0D9A1ECEAB5B
102
{ACAD_REACTORS
330
3EF0D9A1ECEAB4E
102
}
330
3EF0D9A1ECEAB4E
100
AcDbMlineStyle
  2
STANDARD
 70
     0
  3

 62
     0
 51
90.0
 52
90.0
 71
     2
 49
0.5
 62
   256
  6
BYLAYER
 49
-0.5
 62
   256
  6
BYLAYER
  0
ACDBPLACEHOLDER
  5
3EF0D9A1ECEAB71
102
{ACAD_REACTORS
330
3EF0D9A1ECEAB70
102
}
330
3EF0D9A1ECEAB70
100
AcDbPlaceHolder
280
     0
  0
XRECORD
  5
3EF0D9A1ECEAB87
102
{ACAD_REACTORS
330
3EF0D9A1ECEAB7D
102
}
330
3EF0D9A1ECEAB7D
100
AcDbXrecord
 90
        0
  0
XRECORD
  5
3EF0D9A1ECEAB88
102
{ACAD_REACTORS
330
3EF0D9A1ECEAB7D
102
}
330
3EF0D9A1ECEAB7D
100
AcDbXrecord
  1
{497529F0-8DB4-11D6-88E6-0090279574E7}
  0
XRECORD
  5
3EF0D9A1ECEAB80
102
{ACAD_REACTORS
330
3EF0D9A1ECEAB7D
102
}
330
3EF0D9A1ECEAB7D
100
AcDbXrecord
  1

  0
XRECORD
  5
3EF0D9A1ECEAB86
102
{ACAD_REACTORS
330
3EF0D9A1ECEAB7D
102
}
330
3EF0D9A1ECEAB7D
100
AcDbXrecord
 90
        0
  0
XRECORD
  5
3EF0D9A1ECEAB82
102
{ACAD_REACTORS
330
3EF0D9A1ECEAB7D
102
}
330
3EF0D9A1ECEAB7D
100
AcDbXrecord
340
3EF0D9A1ECEAB72
  0
XRECORD
  5
3EF0D9A1ECEAB85
102
{ACAD_REACTORS
330
3EF0D9A1ECEAB7D
102
}
330
3EF0D9A1ECEAB7D
100
AcDbXrecord
 90
    14877
  0
XRECORD
  5
3EF0D9A1ECEAB83
102
{ACAD_REACTORS
330
3EF0D9A1ECEAB7D
102
}
330
3EF0D9A1ECEAB7D
100
AcDbXrecord
340
3EF0D9A1ECEAB73
  0
XRECORD
  5
3EF0D9A1ECEAB84
102
{ACAD_REACTORS
330
3EF0D9A1ECEAB7D
102
}
330
3EF0D9A1ECEAB7D
100
AcDbXrecord
340
3EF0D9A1ECEAB70
  0
XRECORD
  5
3EF0D9A1ECEAB8A
102
{ACAD_REACTORS
330
3EF0D9A1ECEAB7D
102
}
330
3EF0D9A1ECEAB7D
100
AcDbXrecord
 40
0.0
  0
XRECORD
  5
3EF0D9A1ECEAB8D
102
{ACAD_REACTORS
330
3EF0D9A1ECEAB7D
102
}
330
3EF0D9A1ECEAB7D
100
AcDbXrecord
340
0
  0
XRECORD
  5
3EF0D9A1ECEAB93
102
{ACAD_REACTORS
330
3EF0D9A1ECEAB7D
102
}
330
3EF0D9A1ECEAB7D
100
AcDbXrecord
 10
0.0
 20
0.0
 30
0.0
  0
XRECORD
  5
3EF0D9A1ECEAB8F
102
{ACAD_REACTORS
330
3EF0D9A1ECEAB7D
102
}
330
3EF0D9A1ECEAB7D
100
AcDbXrecord
 10
0.0
 20
0.0
 30
0.0
  0
XRECORD
  5
3EF0D9A1ECEAB92
102
{ACAD_REACTORS
330
3EF0D9A1ECEAB7D
102
}
330
3EF0D9A1ECEAB7D
100
AcDbXrecord
 10
0.0
 20
0.0
 30
0.0
  0
XRECORD
  5
3EF0D9A1ECEAB90
102
{ACAD_REACTORS
330
3EF0D9A1ECEAB7D
102
}
330
3EF0D9A1ECEAB7D
100
AcDbXrecord
 10
0.0
 20
0.0
 30
0.0
  0
XRECORD
  5
3EF0D9A1ECEAB91
102
{ACAD_REACTORS
330
3EF0D9A1ECEAB7D
102
}
330
3EF0D9A1ECEAB7D
100
AcDbXrecord
 10
0.0
 20
0.0
 30
0.0
  0
XRECORD
  5
3EF0D9A1ECEAB8E
102
{ACAD_REACTORS
330
3EF0D9A1ECEAB7D
102
}
330
3EF0D9A1ECEAB7D
100
AcDbXrecord
 10
0.0
 20
0.0
 30
0.0
  0
XRECORD
  5
3EF0D9A1ECEAB8B
102
{ACAD_REACTORS
330
3EF0D9A1ECEAB7D
102
}
330
3EF0D9A1ECEAB7D
100
AcDbXrecord
340
0
  0
XRECORD
  5
3EF0D9A1ECEAB8C
102
{ACAD_REACTORS
330
3EF0D9A1ECEAB7D
102
}
330
3EF0D9A1ECEAB7D
100
AcDbXrecord
 70
     0
  0
XRECORD
  5
3EF0D9A1ECEAB81
102
{ACAD_REACTORS
330
3EF0D9A1ECEAB7D
102
}
330
3EF0D9A1ECEAB7D
100
AcDbXrecord
  1

  0
XRECORD
  5
3EF0D9A1ECEAB7E
102
{ACAD_REACTORS
330
3EF0D9A1ECEAB7D
102
}
330
3EF0D9A1ECEAB7D
100
AcDbXrecord
 90
        1
  0
XRECORD
  5
3EF0D9A1ECEAB7F
102
{ACAD_REACTORS
330
3EF0D9A1ECEAB7D
102
}
330
3EF0D9A1ECEAB7D
100
AcDbXrecord
 90
       70
  0
XRECORD
  5
3EF0D9A1ECEAB96
102
{ACAD_REACTORS
330
3EF0D9A1ECEAB7D
102
}
330
3EF0D9A1ECEAB7D
100
AcDbXrecord
340
0
  0
XRECORD
  5
3EF0D9A1ECEAB9C
102
{ACAD_REACTORS
330
3EF0D9A1ECEAB7D
102
}
330
3EF0D9A1ECEAB7D
100
AcDbXrecord
 10
0.0
 20
0.0
 30
0.0
  0
XRECORD
  5
3EF0D9A1ECEAB98
102
{ACAD_REACTORS
330
3EF0D9A1ECEAB7D
102
}
330
3EF0D9A1ECEAB7D
100
AcDbXrecord
 10
0.0
 20
0.0
 30
0.0
  0
XRECORD
  5
3EF0D9A1ECEAB9B
102
{ACAD_REACTORS
330
3EF0D9A1ECEAB7D
102
}
330
3EF0D9A1ECEAB7D
100
AcDbXrecord
 10
0.0
 20
0.0
 30
0.0
  0
XRECORD
  5
3EF0D9A1ECEAB99
102
{ACAD_REACTORS
330
3EF0D9A1ECEAB7D
102
}
330
3EF0D9A1ECEAB7D
100
AcDbXrecord
 10
0.0
 20
0.0
 30
0.0
  0
XRECORD
  5
3EF0D9A1ECEAB9A
102
{ACAD_REACTORS
330
3EF0D9A1ECEAB7D
102
}
330
3EF0D9A1ECEAB7D
100
AcDbXrecord
 10
0.0
 20
0.0
 30
0.0
  0
XRECORD
  5
3EF0D9A1ECEAB97
102
{ACAD_REACTORS
330
3EF0D9A1ECEAB7D
102
}
330
3EF0D9A1ECEAB7D
100
AcDbXrecord
 10
0.0
 20
0.0
 30
0.0
  0
XRECORD
  5
3EF0D9A1ECEAB94
102
{ACAD_REACTORS
330
3EF0D9A1ECEAB7D
102
}
330
3EF0D9A1ECEAB7D
100
AcDbXrecord
340
0
  0
XRECORD
  5
3EF0D9A1ECEAB95
102
{ACAD_REACTORS
330
3EF0D9A1ECEAB7D
102
}
330
3EF0D9A1ECEAB7D
100
AcDbXrecord
 70
     0
  0
XRECORD
  5
3EF0D9A1ECEAB89
102
{ACAD_REACTORS
330
3EF0D9A1ECEAB7D
102
}
330
3EF0D9A1ECEAB7D
100
AcDbXrecord
  1
{497529F2-8DB4-11D6-88E6-0090279574E7}
  0
DICTIONARYVAR
  5
3EF0D9A1ECEAB7B
102
{ACAD_REACTORS
330
3EF0D9A1ECEAB7A
102
}
330
3EF0D9A1ECEAB7A
100
DictionaryVariables
280
     0
  1
1
  0
ENDSEC
  0
EOF
