  0
SECTION
  2
HEADER
  9
$ACADVER
  1
AC1014
  9
$ACADMAINTVER
 70
     9
  9
$DWGCODEPAGE
  3
ANSI_1252
  9
$INSBASE
 10
0.3604667423802326
 20
26.8704732586931
 30
0.0
  9
$EXTMIN
 10
-0.0416752535791141
 20
26.42288422531082
 30
0.0
  9
$EXTMAX
 10
3.443544068168014
 20
29.23761607498363
 30
0.0
  9
$LIMMIN
 10
0.0
 20
0.0
  9
$LIMMAX
 10
12.0
 20
9.0
  9
$ORTHOMODE
 70
     1
  9
$REGENMODE
 70
     1
  9
$FILLMODE
 70
     1
  9
$QTEXTMODE
 70
     0
  9
$MIRRTEXT
 70
     0
  9
$DRAGMODE
 70
     2
  9
$LTSCALE
 40
1.0
  9
$OSMODE
 70
    39
  9
$ATTMODE
 70
     1
  9
$TEXTSIZE
 40
0.125
  9
$TRACEWID
 40
0.05
  9
$TEXTSTYLE
  7
ROMANS
  9
$CLAYER
  8
DIM
  9
$CELTYPE
  6
BYLAYER
  9
$CECOLOR
 62
   256
  9
$CELTSCALE
 40
1.0
  9
$DELOBJ
 70
     1
  9
$DISPSILH
 70
     1
  9
$DIMSCALE
 40
1.0
  9
$DIMASZ
 40
0.125
  9
$DIMEXO
 40
0.125
  9
$DIMDLI
 40
0.38
  9
$DIMRND
 40
0.0
  9
$DIMDLE
 40
0.0
  9
$DIMEXE
 40
0.125
  9
$DIMTP
 40
0.0
  9
$DIMTM
 40
0.0
  9
$DIMTXT
 40
0.125
  9
$DIMCEN
 40
-0.125
  9
$DIMTSZ
 40
0.0
  9
$DIMTOL
 70
     0
  9
$DIMLIM
 70
     0
  9
$DIMTIH
 70
     1
  9
$DIMTOH
 70
     1
  9
$DIMSE1
 70
     0
  9
$DIMSE2
 70
     0
  9
$DIMTAD
 70
     0
  9
$DIMZIN
 70
     4
  9
$DIMBLK
  1

  9
$DIMASO
 70
     1
  9
$DIMSHO
 70
     1
  9
$DIMPOST
  1

  9
$DIMAPOST
  1

  9
$DIMALT
 70
     0
  9
$DIMALTD
 70
     2
  9
$DIMALTF
 40
25.4
  9
$DIMLFAC
 40
0.5
  9
$DIMTOFL
 70
     0
  9
$DIMTVP
 40
0.0
  9
$DIMTIX
 70
     0
  9
$DIMSOXD
 70
     0
  9
$DIMSAH
 70
     0
  9
$DIMBLK1
  1

  9
$DIMBLK2
  1

  9
$DIMSTYLE
  2
STANDARD
  9
$DIMCLRD
 70
     0
  9
$DIMCLRE
 70
     0
  9
$DIMCLRT
 70
     0
  9
$DIMTFAC
 40
1.0
  9
$DIMGAP
 40
0.09
  9
$DIMJUST
 70
     0
  9
$DIMSD1
 70
     0
  9
$DIMSD2
 70
     0
  9
$DIMTOLJ
 70
     1
  9
$DIMTZIN
 70
     4
  9
$DIMALTZ
 70
     0
  9
$DIMALTTZ
 70
     0
  9
$DIMFIT
 70
     3
  9
$DIMUPT
 70
     1
  9
$DIMUNIT
 70
     2
  9
$DIMDEC
 70
     3
  9
$DIMTDEC
 70
     3
  9
$DIMALTU
 70
     2
  9
$DIMALTTD
 70
     2
  9
$DIMTXSTY
  7
ROMANS
  9
$DIMAUNIT
 70
     0
  9
$LUNITS
 70
     2
  9
$LUPREC
 70
     4
  9
$SKETCHINC
 40
0.1
  9
$FILLETRAD
 40
0.5
  9
$AUNITS
 70
     0
  9
$AUPREC
 70
     0
  9
$MENU
  1
acad
  9
$ELEVATION
 40
0.0
  9
$PELEVATION
 40
0.0
  9
$THICKNESS
 40
0.0
  9
$LIMCHECK
 70
     0
  9
$BLIPMODE
 70
     0
  9
$CHAMFERA
 40
0.0
  9
$CHAMFERB
 40
0.0
  9
$CHAMFERC
 40
0.015
  9
$CHAMFERD
 40
1.047197551196597
  9
$SKPOLY
 70
     0
  9
$TDCREATE
 40
2450659.381647639
  9
$TDUPDATE
 40
2452458.296845914
  9
$TDINDWG
 40
2.5041342593
  9
$TDUSRTIMER
 40
2.5041342593
  9
$USRTIMER
 70
     1
  9
$ANGBASE
 50
0.0
  9
$ANGDIR
 70
     0
  9
$PDMODE
 70
     0
  9
$PDSIZE
 40
0.0
  9
$PLINEWID
 40
0.0
  9
$COORDS
 70
     2
  9
$SPLFRAME
 70
     0
  9
$SPLINETYPE
 70
     6
  9
$SPLINESEGS
 70
     8
  9
$ATTDIA
 70
     0
  9
$ATTREQ
 70
     1
  9
$HANDLING
 70
 22529
  9
$HANDSEED
  5
4F6
  9
$SURFTAB1
 70
     6
  9
$SURFTAB2
 70
     6
  9
$SURFTYPE
 70
     6
  9
$SURFU
 70
     6
  9
$SURFV
 70
     6
  9
$UCSNAME
  2

  9
$UCSORG
 10
0.0
 20
0.0
 30
0.0
  9
$UCSXDIR
 10
1.0
 20
0.0
 30
0.0
  9
$UCSYDIR
 10
0.0
 20
1.0
 30
0.0
  9
$PUCSNAME
  2

  9
$PUCSORG
 10
0.0
 20
0.0
 30
0.0
  9
$PUCSXDIR
 10
1.0
 20
0.0
 30
0.0
  9
$PUCSYDIR
 10
0.0
 20
1.0
 30
0.0
  9
$USERI1
 70
     0
  9
$USERI2
 70
     0
  9
$USERI3
 70
     0
  9
$USERI4
 70
     0
  9
$USERI5
 70
     0
  9
$USERR1
 40
0.0
  9
$USERR2
 40
0.0
  9
$USERR3
 40
0.0
  9
$USERR4
 40
0.0
  9
$USERR5
 40
0.0
  9
$WORLDVIEW
 70
     1
  9
$SHADEDGE
 70
     3
  9
$SHADEDIF
 70
    70
  9
$TILEMODE
 70
     1
  9
$MAXACTVP
 70
    16
  9
$PINSBASE
 10
0.0
 20
0.0
 30
0.0
  9
$PLIMCHECK
 70
     0
  9
$PEXTMIN
 10
1.000000000000000E+20
 20
1.000000000000000E+20
 30
1.000000000000000E+20
  9
$PEXTMAX
 10
-1.000000000000000E+20
 20
-1.000000000000000E+20
 30
-1.000000000000000E+20
  9
$PLIMMIN
 10
0.0
 20
0.0
  9
$PLIMMAX
 10
12.0
 20
9.0
  9
$UNITMODE
 70
     0
  9
$VISRETAIN
 70
     0
  9
$PLINEGEN
 70
     1
  9
$PSLTSCALE
 70
     1
  9
$TREEDEPTH
 70
  3020
  9
$PICKSTYLE
 70
     1
  9
$CMLSTYLE
  2
STANDARD
  9
$CMLJUST
 70
     0
  9
$CMLSCALE
 40
1.0
  9
$PROXYGRAPHICS
 70
     1
  9
$MEASUREMENT
 70
     0
  0
ENDSEC
  0
SECTION
  2
CLASSES
  0
CLASS
  1
ACMESCOPE
  2
AcMeScope
  3
ACME_MODULE_NAME
 90
        0
280
     0
281
     0
  0
CLASS
  1
ACMECOMMANDHISTORY
  2
AcMeCommandHistory
  3
ACME_MODULE_NAME
 90
        0
280
     0
281
     0
  0
CLASS
  1
AcRfInsAdjusterMgr
  2
AcRfInsAdjusterMgr
  3
ACME_MODULE_NAME
 90
        0
280
     0
281
     0
  0
CLASS
  1
ACGREFMASTER
  2
AcGrefMaster
  3
"AcadRfServer"
 90
        0
280
     0
281
     0
  0
CLASS
  1
AmiMaster
  2
AmiMaster
  3
"AmiServices"
 90
        0
280
     0
281
     0
  0
CLASS
  1
ACASGREFMASTER
  2
AcAsGrefMaster
  3
"AutoSurfResolver"
 90
        0
280
     0
281
     0
  0
CLASS
  1
ADAPPL
  2
AcAdAppl
  3
DesignerServices
 90
        0
280
     0
281
     0
  0
CLASS
  1
DEPMGR
  2
AcAdDepMgr
  3
DesignerServices
 90
        0
280
     0
281
     0
  0
CLASS
  1
PARAMMGR
  2
AcAdParamMgr
  3
DesignerServices
 90
        0
280
     0
281
     0
  0
CLASS
  1
PARAMSCOPE
  2
AcAdParamScope
  3
DesignerServices
 90
        0
280
     0
281
     0
  0
CLASS
  1
"IM_SYSVAR_MAN"
  2
AcImSysVarManager
  3
"ADAM"
 90
        0
280
     0
281
     0
  0
CLASS
  1
SYSTEM_VAR_INT
  2
AcImIntSysVar
  3
"ADAM"
 90
        0
280
     0
281
     0
  0
CLASS
  1
SYSTEM_VAR_REAL
  2
AcImRealSysVar
  3
"ADAM"
 90
        0
280
     0
281
     0
  0
CLASS
  1
SYSTEM_VAR_STR
  2
AcImStrSysVar
  3
"ADAM"
 90
        0
280
     0
281
     0
  0
CLASS
  1
NAMEDAPPL
  2
AcAdNamedAppl
  3
DesignerServices
 90
        0
280
     0
281
     0
  0
CLASS
  1
ADPART
  2
AcAdPart
  3
DesignerServices
 90
        0
280
     0
281
     1
  0
CLASS
  1
ADBASE
  2
AcAdBase
  3
DesignerServices
 90
        0
280
     0
281
     0
  0
CLASS
  1
BODYID
  2
AcAdBodyId
  3
DesignerServices
 90
        0
280
     0
281
     0
  0
CLASS
  1
WORKPLANEDISPLAYMGR
  2
AcAdDisplayMgr
  3
DesignerServices
 90
        0
280
     0
281
     0
  0
CLASS
  1
ADHNTMPLT
  2
AdHoleNoteTemplateMgr
  3
DesignerServices
 90
        0
280
     0
281
     0
  0
CLASS
  1
AM_HNTEMPLATE_MGR_NAME
  2
AdHoleNoteTemplateMgrName
  3
DesignerServices
 90
        0
280
     0
281
     0
  0
CLASS
  1
AcAdGrefModule
  2
AcAdGrefModule
  3
AD_GREF_SERVICES_NSTR
 90
        0
280
     0
281
     0
  0
CLASS
  1
AM_DRAWING_MGR
  2
AcDmDwgMgr
  3
AcMechDwgViewMgmt
 90
        0
280
     0
281
     0
  0
CLASS
  1
AM_DWG_DOCUMENT
  2
AcDmDwgDocument
  3
AcMechDwgViewMgmt
 90
        0
280
     0
281
     0
  0
CLASS
  1
AM_DWG_SHEET
  2
AcDmSheet
  3
AcMechDwgViewMgmt
 90
        0
280
     0
281
     0
  0
CLASS
  1
AM_VIEWDIMPARMAP
  2
AcDmViewDimParMap
  3
AcMechDwgViewMgmt
 90
        0
280
     0
281
     0
  0
CLASS
  1
AM_DWGMGR_NAME
  2
AcDmDwgMgrName
  3
AcMechDwgViewMgmt
 90
        0
280
     0
281
     0
  0
CLASS
  1
ACAMPROJECT
  2
AcAmProject
  3
DesignerAssemblies
 90
        0
280
     0
281
     0
  0
CLASS
  1
ACAMGRCOMPSET
  2
AcAmGrCompSet
  3
DesignerAssemblies
 90
        0
280
     0
281
     0
  0
CLASS
  1
ACAMGRCOMPDEFSET
  2
AcAmGrCompDefSet
  3
DesignerAssemblies
 90
        0
280
     0
281
     0
  0
CLASS
  1
ACAMGRCOMPDEF
  2
AcAmGrCompDef
  3
DesignerAssemblies
 90
        0
280
     0
281
     0
  0
CLASS
  1
ACAMCOMPDEF
  2
AcAmCompDef
  3
DesignerAssemblies
 90
        0
280
     0
281
     0
  0
CLASS
  1
ACAMCOMPDEFMGR
  2
AcAmCompDefMgr
  3
DesignerAssemblies
 90
        0
280
     0
281
     0
  0
CLASS
  1
AMCONTEXTMGR
  2
AcAmContextMgr
  3
DesignerAssemblies
 90
        0
280
     0
281
     0
  0
CLASS
  1
ACAMCONTEXTMODELER
  2
AcAmContextModeler
  3
DesignerAssemblies
 90
        0
280
     0
281
     0
  0
CLASS
  1
ACAMDRAWINGMAN
  2
AcAmDrawingMan
  3
DesignerAssemblies
 90
        0
280
     0
281
     0
  0
CLASS
  1
ACDMVIEWGEOM
  2
AcDmViewGeometry
  3
AcMechDwgViewMgmt
 90
        0
280
     0
281
     1
  0
CLASS
  1
ASSYSVARS
  2
AcAsSysVars
  3
"AutoSurf"
 90
        0
280
     0
281
     0
  0
CLASS
  1
ASSTATICVARS
  2
AcAsStaticVars
  3
"AutoSurf"
 90
        0
280
     0
281
     0
  0
CLASS
  1
ASAPP
  2
AcAsAppObject
  3
"AutoSurf"
 90
        0
280
     0
281
     0
  0
CLASS
  1
ACRFATTGENMGR
  2
AcRfAttGeneralMgr
  3
"AcadRfServer"
 90
        0
280
     0
281
     0
  0
CLASS
  1
AGDICTIONARY
  2
AgDictionary
  3
"AccelView"
 90
        0
280
     0
281
     0
  0
CLASS
  1
LWPOLYLINE
  2
AcDbPolyline
  3
AutoCAD 2000
 90
        0
280
     0
281
     1
  0
CLASS
  1
DICTIONARYVAR
  2
AcDbDictionaryVar
  3
AutoCAD 2000
 90
        0
280
     0
281
     0
  0
CLASS
  1
ACDBDICTIONARYWDFLT
  2
AcDbDictionaryWithDefault
  3
AutoCAD 2000
 90
        0
280
     0
281
     0
  0
CLASS
  1
ACDBPLACEHOLDER
  2
AcDbPlaceHolder
  3
AutoCAD 2000
 90
        0
280
     0
281
     0
  0
CLASS
  1
LAYOUT
  2
AcDbLayout
  3
AutoCAD 2000
 90
        0
280
     0
281
     0
  0
CLASS
  1
LONG_TRANSACTION
  2
AcDbLongTransaction
  3
AutoCAD 2000
 90
        0
280
     0
281
     0
  0
CLASS
  1
LWPOLYLINE
  2
AcDbPolyline
  3
AutoCAD 2000
 90
        0
280
     0
281
     1
  0
CLASS
  1
HATCH
  2
AcDbHatch
  3
AutoCAD 2000
 90
        0
280
     0
281
     1
  0
CLASS
  1
XRECORD
  2
AcDbXrecord
  3
AutoCAD 2000
 90
        0
280
     0
281
     0
  0
ENDSEC
  0
SECTION
  2
TABLES
  0
TABLE
  2
VPORT
  5
12
330
0
100
AcDbSymbolTable
 70
     2
  0
VPORT
  5
4D1
330
12
100
AcDbSymbolTableRecord
100
AcDbViewportTableRecord
  2
*ACTIVE
 70
     0
 10
0.0
 20
0.0
 11
1.0
 21
1.0
 12
5.539929505493272
 22
27.8314340290213
 13
0.0
 23
0.0
 14
1.0
 24
1.0
 15
0.0
 25
0.0
 16
0.0
 26
0.0
 36
1.0
 17
0.0
 27
0.0
 37
0.0
 40
2.842632765993485
 41
4.320930232558139
 42
50.0
 43
0.0
 44
0.0
 50
0.0
 51
0.0
 71
     0
 72
  2000
 73
     1
 74
     1
 75
     0
 76
     0
 77
     0
 78
     0
  0
ENDTAB
  0
TABLE
  2
LTYPE
  5
E
330
0
100
AcDbSymbolTable
 70
     1
  0
LTYPE
  5
F
330
E
100
AcDbSymbolTableRecord
100
AcDbLinetypeTableRecord
  2
BYBLOCK
 70
     0
  3

 72
    65
 73
     0
 40
0.0
  0
LTYPE
  5
6
330
E
100
AcDbSymbolTableRecord
100
AcDbLinetypeTableRecord
  2
BYLAYER
 70
     0
  3

 72
    65
 73
     0
 40
0.0
  0
LTYPE
  5
5
330
E
100
AcDbSymbolTableRecord
100
AcDbLinetypeTableRecord
  2
CONTINUOUS
 70
     0
  3
Solid line
 72
    65
 73
     0
 40
0.0
  0
ENDTAB
  0
TABLE
  2
LAYER
  5
B
330
0
100
AcDbSymbolTable
 70
     3
  0
LAYER
  5
4
330
B
100
AcDbSymbolTableRecord
100
AcDbLayerTableRecord
  2
0
 70
     0
 62
     7
  6
CONTINUOUS
  0
LAYER
  5
1B
330
B
100
AcDbSymbolTableRecord
100
AcDbLayerTableRecord
  2
DIM
 70
     0
 62
     4
  6
CONTINUOUS
  0
LAYER
  5
29
330
B
100
AcDbSymbolTableRecord
100
AcDbLayerTableRecord
  2
TEXT
 70
     0
 62
     3
  6
CONTINUOUS
  0
ENDTAB
  0
TABLE
  2
STYLE
  5
C
330
0
100
AcDbSymbolTable
 70
     3
  0
STYLE
  5
D
330
C
100
AcDbSymbolTableRecord
100
AcDbTextStyleTableRecord
  2
STANDARD
 70
     0
 40
0.0
 41
1.0
 50
0.0
 71
     0
 42
0.2
  3
txt
  4

  0
STYLE
  5
1C
330
C
100
AcDbSymbolTableRecord
100
AcDbTextStyleTableRecord
  2
ROMANS
 70
     0
 40
0.0
 41
1.0
 50
0.0
 71
     0
 42
0.125
  3
romans.shx
  4

  0
STYLE
  5
3C0
330
C
100
AcDbSymbolTableRecord
100
AcDbTextStyleTableRecord
  2
ITALICC
 70
     0
 40
0.0
 41
1.0
 50
0.0
 71
     0
 42
0.125
  3
italicc
  4

  0
ENDTAB
  0
TABLE
  2
VIEW
  5
10
330
0
100
AcDbSymbolTable
 70
     0
  0
ENDTAB
  0
TABLE
  2
UCS
  5
11
330
0
100
AcDbSymbolTable
 70
     0
  0
ENDTAB
  0
TABLE
  2
APPID
  5
14
330
0
100
AcDbSymbolTable
 70
     1
  0
APPID
  5
15
330
14
100
AcDbSymbolTableRecord
100
AcDbRegAppTableRecord
  2
ACAD
 70
     0
  0
ENDTAB
  0
TABLE
  2
DIMSTYLE
  5
16
330
0
100
AcDbSymbolTable
 70
     1
  0
DIMSTYLE
105
1E
330
16
100
AcDbSymbolTableRecord
100
AcDbDimStyleTableRecord
  2
STANDARD
 70
     0
  3

  4

  5

  6

  7

 40
1.0
 41
0.125
 42
0.125
 43
0.38
 44
0.125
 45
0.0
 46
0.0
 47
0.0
 48
0.0
140
0.125
141
-0.125
142
0.0
143
25.4
144
0.5
145
0.0
146
1.0
147
0.09
 71
     0
 72
     0
 73
     1
 74
     1
 75
     0
 76
     0
 77
     0
 78
     4
170
     0
171
     2
172
     0
173
     0
174
     0
175
     0
176
     0
177
     0
178
     0
270
     2
271
     3
272
     3
273
     2
274
     2
340
1C
275
     0
280
     0
281
     0
282
     0
283
     1
284
     4
285
     0
286
     0
287
     3
288
     1
  0
ENDTAB
  0
TABLE
  2
BLOCK_RECORD
  5
1
330
0
100
AcDbSymbolTable
 70
     0
  0
BLOCK_RECORD
  5
2
102
{ACAD_XDICTIONARY
360
4F2
102
}
330
1
100
AcDbSymbolTableRecord
100
AcDbBlockTableRecord
  2
*MODEL_SPACE
  0
BLOCK_RECORD
  5
8
102
{ACAD_XDICTIONARY
360
4F4
102
}
330
1
100
AcDbSymbolTableRecord
100
AcDbBlockTableRecord
  2
*PAPER_SPACE
  0
ENDTAB
  0
ENDSEC
  0
SECTION
  2
BLOCKS
  0
BLOCK
  5
3
330
2
100
AcDbEntity
  8
0
100
AcDbBlockBegin
  2
*MODEL_SPACE
 70
     0
 10
0.0
 20
0.0
 30
0.0
  3
*MODEL_SPACE
  1

  0
ENDBLK
  5
7
330
2
100
AcDbEntity
  8
0
100
AcDbBlockEnd
  0
BLOCK
  5
9
330
8
100
AcDbEntity
 67
     1
  8
0
100
AcDbBlockBegin
  2
*PAPER_SPACE
 70
     0
 10
0.0
 20
0.0
 30
0.0
  3
*PAPER_SPACE
  1

  0
ENDBLK
  5
A
330
8
100
AcDbEntity
 67
     1
  8
0
100
AcDbBlockEnd
  0
ENDSEC
  0
SECTION
  2
ENTITIES
  0
LWPOLYLINE
  5
3B9
330
2
100
AcDbEntity
  8
0
100
AcDbPolyline
 90
       53
 70
   129
 43
0.0
 10
1.077021055672329
 20
28.47300232547814
 42
0.414213562373106
 10
1.096939047209538
 20
28.51046261929872
 10
1.087436966806045
 20
28.54154252386754
 10
1.034362052850092
 20
28.52531589425542
 10
1.011520513418631
 20
28.60002720331502
 10
1.064595427374584
 20
28.61625383292714
 10
1.064595427374584
 20
28.61625383292714
 10
1.054362417709292
 20
28.64972449938585
 42
0.4142135623732306
 10
1.016902123888705
 20
28.66964249092306
 10
1.007549918783119
 20
28.66678323488298
 42
-0.5040414943245687
 10
0.9946262017358975
 20
28.67634628244261
 10
0.9946262017358975
 20
28.87842725816567
 42
0.1989123673796716
 10
0.9887683373596303
 20
28.8925693937894
 10
0.9439887917891311
 20
28.93734893935989
 42
-0.668178637919287
 10
0.9581309274128599
 20
28.97149107498363
 10
1.033126201735896
 20
28.97149107498362
 42
0.4142135623730987
 10
1.106126201735897
 20
29.04449107498362
 10
1.1061262017359
 20
29.15261607498362
 42
-0.4142135623730951
 10
1.116126201735902
 20
29.16261607498363
 10
1.412095718463852
 20
29.16261607498363
 42
-0.1989123673796309
 10
1.419166786275717
 20
29.15968714279549
 10
1.669248025091988
 20
28.90960590397921
 10
1.699581785334039
 20
28.81038864486304
 10
1.752656699289985
 20
28.82661527447515
 10
1.77549823872145
 20
28.75190396541553
 10
1.7224233247655
 20
28.73567733580343
 10
1.731925405168993
 20
28.70459743123463
 42
0.4142135623730678
 10
1.769385698989566
 20
28.68467943969742
 10
1.847717606558731
 20
28.7086279071785
 42
-0.2773245440598538
 10
1.877701961136004
 20
28.7011519679352
 10
2.130914709559686
 20
28.44793921951152
 10
2.604167653957098
 20
27.62824107498363
 42
1.000000000000126
 10
2.658294241693631
 20
27.65949107498363
 10
2.180927156746605
 20
28.48631511997292
 10
1.429626201735899
 20
29.23761607498363
 10
1.267751201735897
 20
29.23761607498363
 10
1.257751201735899
 20
29.22761607498363
 10
1.247751201735894
 20
29.23761607498363
 10
1.058126201735902
 20
29.23761607498363
 10
1.043126201735901
 20
29.21163531287009
 10
1.043126201735901
 20
29.04449107498363
 42
-0.414213562373069
 10
1.033126201735896
 20
29.03449107498362
 10
0.951126201735903
 20
29.03449107498362
 42
-0.4142135623731211
 10
0.9411262017359049
 20
29.04449107498362
 10
0.9411262017358943
 20
29.21163531287009
 10
0.9261262017358973
 20
29.23761607498363
 10
0.8671262017358998
 20
29.23761607498363
 10
0.8671262017358998
 20
28.92511607498363
 10
0.9296262017358998
 20
28.86261607498363
 10
0.9296262017358927
 20
27.31574107498363
 42
0.9999999999999429
 10
0.9921262017358998
 20
27.31574107498363
 10
0.9921262017358998
 20
28.42484853168098
 42
-0.3297505471403408
 10
1.013355050594221
 20
28.45353767435987
  0
TEXT
  5
445
330
2
100
AcDbEntity
  8
TEXT
100
AcDbText
 10
0.9453539446956479
 20
26.8809028293934
 30
0.0
 40
0.125
  1
PART #110135
  7
ITALICC
 72
     1
 11
1.701306325648029
 21
26.8809028293934
 31
0.0
100
AcDbText
  0
LINE
  5
446
330
2
100
AcDbEntity
  8
TEXT
100
AcDbLine
 10
1.856620955671412
 20
26.70082583803033
 30
0.0
 11
1.809522797115428
 21
26.62496051161879
 31
0.0
  0
LINE
  5
447
330
2
100
AcDbEntity
  8
TEXT
100
AcDbLine
 10
1.809522797115428
 20
26.62496051161879
 30
0.0
 11
1.809522797115428
 21
26.76629004379793
 31
0.0
  0
LINE
  5
448
330
2
100
AcDbEntity
  8
TEXT
100
AcDbLine
 10
1.809522797115428
 20
26.76629004379793
 30
0.0
 11
1.741207918566154
 21
26.76629004379793
 31
0.0
  0
LINE
  5
449
330
2
100
AcDbEntity
  8
TEXT
100
AcDbLine
 10
1.741207918566154
 20
26.76629004379793
 30
0.0
 11
1.741207918566149
 21
26.70082583803033
 31
0.0
  0
LINE
  5
44A
330
2
100
AcDbEntity
  8
TEXT
100
AcDbLine
 10
1.867055672435335
 20
26.59093259508936
 30
0.0
 11
1.93161278840104
 21
26.70082583803033
 31
0.0
  0
LINE
  5
44B
330
2
100
AcDbEntity
  8
TEXT
100
AcDbLine
 10
1.93161278840104
 20
26.70082583803033
 30
0.0
 11
1.856620955671414
 21
26.70082583803033
 31
0.0
  0
LINE
  5
44C
330
2
100
AcDbEntity
  8
TEXT
100
AcDbLine
 10
1.745687805892655
 20
26.43435280504182
 30
0.0
 11
1.810065990211275
 21
26.43435280504182
 31
0.0
  0
LINE
  5
44D
330
2
100
AcDbEntity
  8
TEXT
100
AcDbLine
 10
1.810065990211275
 20
26.43435280504182
 30
0.0
 11
1.810065990211275
 21
26.565932373518
 31
0.0
  0
LINE
  5
44E
330
2
100
AcDbEntity
  8
TEXT
100
AcDbLine
 10
1.810065990211275
 20
26.565932373518
 30
0.0
 11
1.88596952342274
 21
26.43435280504182
 31
0.0
  0
LINE
  5
44F
330
2
100
AcDbEntity
  8
TEXT
100
AcDbLine
 10
1.88596952342274
 20
26.43435280504182
 30
0.0
 11
1.962547895798945
 21
26.43435280504182
 31
0.0
  0
LINE
  5
450
330
2
100
AcDbEntity
  8
TEXT
100
AcDbLine
 10
1.745687805892649
 20
26.63654914337357
 30
0.0
 11
1.745687805892655
 21
26.43435280504182
 31
0.0
  0
LINE
  5
451
330
2
100
AcDbEntity
  8
TEXT
100
AcDbLine
 10
1.962547895798945
 20
26.43435280504182
 30
0.0
 11
1.867055672435335
 21
26.59093259508936
 31
0.0
  0
ARC
  5
452
330
2
100
AcDbEntity
  8
TEXT
100
AcDbCircle
 10
1.669039824600091
 20
26.6116432680909
 30
0.0
 40
0.0249058752826653
100
AcDbArc
 50
89.99971217465335
 51
179.9999999999985
  0
ARC
  5
453
330
2
100
AcDbEntity
  8
TEXT
100
AcDbCircle
 10
1.676928781539668
 20
26.66958011074807
 30
0.0
 40
0.0314112657011332
100
AcDbArc
 50
95.88484768694724
 51
173.2388340632136
  0
LINE
  5
454
330
2
100
AcDbEntity
  8
TEXT
100
AcDbLine
 10
1.64573596447656
 20
26.67327818816946
 30
0.0
 11
1.64573596447656
 21
26.70082583803033
 31
0.0
  0
LINE
  5
455
330
2
100
AcDbEntity
  8
TEXT
100
AcDbLine
 10
1.64573596447656
 20
26.70082583803033
 30
0.0
 11
1.581839058177059
 21
26.70082583803033
 31
0.0
  0
LINE
  5
456
330
2
100
AcDbEntity
  8
TEXT
100
AcDbLine
 10
1.581839058177059
 20
26.70082583803033
 30
0.0
 11
1.581839058177059
 21
26.5956138594769
 31
0.0
  0
LINE
  5
457
330
2
100
AcDbEntity
  8
TEXT
100
AcDbLine
 10
1.502879119302018
 20
26.70082583803033
 30
0.0
 11
1.368047210084958
 21
26.70082583803033
 31
0.0
  0
LINE
  5
458
330
2
100
AcDbEntity
  8
TEXT
100
AcDbLine
 10
1.368047210084958
 20
26.70082583803033
 30
0.0
 11
1.368047210084958
 21
26.67250329226069
 31
0.0
  0
LINE
  5
459
330
2
100
AcDbEntity
  8
TEXT
100
AcDbLine
 10
1.427361306478277
 20
26.59927416991143
 30
0.0
 11
1.509649296261661
 21
26.59927416991143
 31
0.0
  0
LINE
  5
45A
330
2
100
AcDbEntity
  8
TEXT
100
AcDbLine
 10
1.509649296261661
 20
26.59927416991143
 30
0.0
 11
1.499384535848096
 21
26.62052470948413
 31
0.0
  0
LINE
  5
45B
330
2
100
AcDbEntity
  8
TEXT
100
AcDbLine
 10
1.473848220957539
 20
26.63654914337357
 30
0.0
 11
1.36664194757025
 21
26.63654914337357
 31
0.0
  0
ARC
  5
45C
330
2
100
AcDbEntity
  8
TEXT
100
AcDbCircle
 10
1.473848220957538
 20
26.60818976837357
 30
0.0
 40
0.028359375
100
AcDbArc
 50
25.78218179591245
 51
90.0
  0
LINE
  5
45D
330
2
100
AcDbEntity
  8
TEXT
100
AcDbLine
 10
1.581839058177059
 20
26.5956138594769
 30
0.0
 11
1.538088286995157
 21
26.67786413547305
 31
0.0
  0
ARC
  5
45E
330
2
100
AcDbEntity
  8
TEXT
100
AcDbCircle
 10
1.500852179524949
 20
26.65924227090943
 30
0.0
 40
0.0416329381542859
100
AcDbArc
 50
26.56974201007528
 51
87.20939649401342
  0
LWPOLYLINE
  5
45F
330
2
100
AcDbEntity
  8
TEXT
100
AcDbPolyline
 90
        2
 70
     0
 43
0.0
 10
1.585778735482097
 20
26.47784374999226
 42
-0.2901071551932486
 10
1.542702802614453
 20
26.43435280504182
 42
-5.328517124445184
  0
LWPOLYLINE
  5
460
330
2
100
AcDbEntity
  8
TEXT
100
AcDbPolyline
 90
        2
 70
     0
 43
0.0
 10
1.585778735482097
 20
26.47784374999226
 10
1.585778735482097
 20
26.43435280504182
  0
LWPOLYLINE
  5
461
330
2
100
AcDbEntity
  8
TEXT
100
AcDbPolyline
 90
        2
 70
     0
 43
0.0
 10
1.585778735482097
 20
26.43435280504182
 10
1.644133949317431
 20
26.43435280504182
  0
LWPOLYLINE
  5
462
330
2
100
AcDbEntity
  8
TEXT
100
AcDbPolyline
 90
        2
 70
     0
 43
0.0
 10
1.365609452115441
 20
26.47784374999226
 42
0.2901071551932823
 10
1.408685384983076
 20
26.43435280504182
 42
5.328517124445801
  0
LWPOLYLINE
  5
463
330
2
100
AcDbEntity
  8
TEXT
100
AcDbPolyline
 90
        2
 70
     0
 43
0.0
 10
1.408685384983076
 20
26.43435280504182
 10
1.542702802614453
 20
26.43435280504182
 42
0.9999999999999998
  0
LWPOLYLINE
  5
464
330
2
100
AcDbEntity
  8
TEXT
100
AcDbPolyline
 90
        4
 70
     1
 43
0.0
 10
1.52258033754456
 20
26.53731678302584
 10
1.433920018884702
 20
26.53731678302584
 42
0.9999999999999998
 10
1.433920018884702
 20
26.49491824252198
 10
1.52258033754456
 20
26.49491824252198
 42
1.0
  0
ARC
  5
465
330
2
100
AcDbEntity
  8
TEXT
100
AcDbCircle
 10
1.427361306478276
 20
26.53158858876731
 30
0.0
 40
0.0676855811441166
100
AcDbArc
 50
90.0
 51
153.7768192527749
  0
LINE
  5
466
330
2
100
AcDbEntity
  8
TEXT
100
AcDbLine
 10
1.644133949317432
 20
26.43435280504182
 30
0.0
 11
1.644133949317427
 21
26.61164331047329
 31
0.0
  0
LINE
  5
467
330
2
100
AcDbEntity
  8
TEXT
100
AcDbLine
 10
1.36664194757025
 20
26.63654914337357
 30
0.0
 11
1.36664194757025
 21
26.56149673729936
 31
0.0
  0
LINE
  5
468
330
2
100
AcDbEntity
  8
TEXT
100
AcDbLine
 10
1.669039824600091
 20
26.63654914337357
 30
0.0
 11
1.745687805892649
 21
26.63654914337357
 31
0.0
  0
LINE
  5
469
330
2
100
AcDbEntity
  8
TEXT
100
AcDbLine
 10
1.741207918566149
 20
26.70082583803033
 30
0.0
 11
1.673708200916633
 21
26.70082583803033
 31
0.0
  0
LWPOLYLINE
  5
46A
330
2
100
AcDbEntity
  8
TEXT
100
AcDbPolyline
 90
        2
 70
     0
 43
0.0
 10
1.160831946792566
 20
26.63654914337357
 42
-0.4142135623731017
 10
1.168385735958679
 20
26.62899535420745
 42
-0.9999999999999998
  0
LWPOLYLINE
  5
46B
330
2
100
AcDbEntity
  8
TEXT
100
AcDbPolyline
 90
        2
 70
     0
 43
0.0
 10
1.289577379661469
 20
26.63654914337357
 42
-0.4142135623731017
 10
1.297131168827583
 20
26.62899535420745
 42
-0.9999999999999998
  0
LWPOLYLINE
  5
46C
330
2
100
AcDbEntity
  8
TEXT
100
AcDbPolyline
 90
        2
 70
     0
 43
0.0
 10
1.178183669842587
 20
26.70082583803033
 42
-0.3328679258950098
 10
1.213965360555748
 20
26.67365834126944
 42
6.772930709997214
  0
LWPOLYLINE
  5
46D
330
2
100
AcDbEntity
  8
TEXT
100
AcDbPolyline
 90
        3
 70
     0
 43
0.0
 10
1.332265519371793
 20
26.70082583803033
 10
1.213965360555748
 20
26.70082583803033
 10
1.213965360555748
 20
26.67365834126944
 42
-1.960274751411753
  0
LINE
  5
46E
330
2
100
AcDbEntity
  8
TEXT
100
AcDbLine
 10
1.23544378274052
 20
26.63654914337357
 30
0.0
 11
1.28957737966147
 21
26.63654914337357
 31
0.0
  0
LINE
  5
46F
330
2
100
AcDbEntity
  8
TEXT
100
AcDbLine
 10
1.110996666969419
 20
26.63654914337357
 30
0.0
 11
1.160831946792566
 21
26.63654914337357
 31
0.0
  0
LINE
  5
470
330
2
100
AcDbEntity
  8
TEXT
100
AcDbLine
 10
1.178183669842586
 20
26.70082583803033
 30
0.0
 11
1.04416561391145
 21
26.70082583803033
 31
0.0
  0
LINE
  5
471
330
2
100
AcDbEntity
  8
TEXT
100
AcDbLine
 10
1.16838573595868
 20
26.43435280504182
 30
0.0
 11
1.23544378274052
 21
26.43435280504182
 31
0.0
  0
LINE
  5
472
330
2
100
AcDbEntity
  8
TEXT
100
AcDbLine
 10
1.012993333269984
 20
26.43435280504182
 30
0.0
 11
1.110996666969419
 21
26.43435280504182
 31
0.0
  0
LINE
  5
473
330
2
100
AcDbEntity
  8
TEXT
100
AcDbLine
 10
1.04416561391145
 20
26.49996163129792
 30
0.0
 11
1.027171977026848
 21
26.49996163129792
 31
0.0
  0
ARC
  5
474
330
2
100
AcDbEntity
  8
TEXT
100
AcDbCircle
 10
1.027171977026847
 20
26.51534343754135
 30
0.0
 40
0.0153818062434269
100
AcDbArc
 50
174.7883570302258
 51
270.0
  0
LINE
  5
475
330
2
100
AcDbEntity
  8
TEXT
100
AcDbLine
 10
1.110996666969419
 20
26.43435280504182
 30
0.0
 11
1.110996666969419
 21
26.63654914337357
 31
0.0
  0
LINE
  5
476
330
2
100
AcDbEntity
  8
TEXT
100
AcDbLine
 10
1.16838573595868
 20
26.62899535420745
 30
0.0
 11
1.16838573595868
 21
26.43435280504182
 31
0.0
  0
LINE
  5
477
330
2
100
AcDbEntity
  8
TEXT
100
AcDbLine
 10
1.23544378274052
 20
26.43435280504182
 30
0.0
 11
1.23544378274052
 21
26.63654914337357
 31
0.0
  0
LINE
  5
478
330
2
100
AcDbEntity
  8
TEXT
100
AcDbLine
 10
1.04416561391145
 20
26.70082583803033
 30
0.0
 11
1.04416561391145
 21
26.49996163129792
 31
0.0
  0
LINE
  5
479
330
2
100
AcDbEntity
  8
TEXT
100
AcDbLine
 10
1.011853759773789
 20
26.51674064314482
 30
0.0
 11
1.011853759773789
 21
26.76883731576914
 31
0.0
  0
LINE
  5
47A
330
2
100
AcDbEntity
  8
TEXT
100
AcDbLine
 10
0.9450450472074249
 20
26.76883731576914
 30
0.0
 11
0.9450450472074249
 21
26.70082583803033
 31
0.0
  0
LINE
  5
47B
330
2
100
AcDbEntity
  8
TEXT
100
AcDbLine
 10
0.9450450472074249
 20
26.70082583803033
 30
0.0
 11
0.9149231344140487
 21
26.70082583803033
 31
0.0
  0
LINE
  5
47C
330
2
100
AcDbEntity
  8
TEXT
100
AcDbLine
 10
0.9149231344140487
 20
26.70082583803033
 30
0.0
 11
0.8561745716081832
 21
26.59995384191721
 31
0.0
  0
LINE
  5
47D
330
2
100
AcDbEntity
  8
TEXT
100
AcDbLine
 10
0.8561745716081832
 20
26.59995384191721
 30
0.0
 11
0.7975442505762454
 21
26.70082583803033
 31
0.0
  0
LINE
  5
47E
330
2
100
AcDbEntity
  8
TEXT
100
AcDbLine
 10
0.725745284432338
 20
26.70082583803033
 30
0.0
 11
0.725745284432338
 21
26.73521375562447
 31
0.0
  0
LINE
  5
47F
330
2
100
AcDbEntity
  8
TEXT
100
AcDbLine
 10
0.725745284432338
 20
26.73521375562447
 30
0.0
 11
0.665702679588331
 21
26.73521375562447
 31
0.0
  0
LINE
  5
480
330
2
100
AcDbEntity
  8
TEXT
100
AcDbLine
 10
0.665702679588331
 20
26.73521375562447
 30
0.0
 11
0.665702679588331
 21
26.70082583803033
 31
0.0
  0
LINE
  5
481
330
2
100
AcDbEntity
  8
TEXT
100
AcDbLine
 10
0.7975442505762454
 20
26.70082583803033
 30
0.0
 11
0.725745284432338
 21
26.70082583803033
 31
0.0
  0
ARC
  5
482
330
2
100
AcDbEntity
  8
TEXT
100
AcDbCircle
 10
0.8125307746990149
 20
26.47390052731552
 30
0.0
 40
0.0392772371940762
100
AcDbArc
 50
270.1604552698595
 51
330.0831797321295
  0
ARC
  5
483
330
2
100
AcDbEntity
  8
TEXT
100
AcDbCircle
 10
0.7222299288067902
 20
26.49414519637987
 30
0.0
 40
0.0601160179737537
100
AcDbArc
 50
180.0000000000003
 51
264.0521544866073
  0
LINE
  5
484
330
2
100
AcDbEntity
  8
TEXT
100
AcDbLine
 10
0.7160005183131437
 20
26.43435280504182
 30
0.0
 11
0.8126407693881381
 21
26.4346234441401
 31
0.0
  0
LWPOLYLINE
  5
485
330
2
100
AcDbEntity
  8
TEXT
100
AcDbPolyline
 90
        6
 70
     1
 43
0.0
 10
0.7585243218882934
 20
26.63654914337357
 10
0.7282077276680852
 20
26.63654914337357
 10
0.7282077276680852
 20
26.51343814531867
 42
0.407328721240804
 10
0.7397513788295616
 20
26.50161923064228
 10
0.8003730778742923
 20
26.50161923064228
 10
0.8178384182816103
 20
26.53443145968576
  0
LINE
  5
486
330
2
100
AcDbEntity
  8
TEXT
100
AcDbLine
 10
0.6621139108330381
 20
26.63654914337357
 30
0.0
 11
0.6621139108330381
 21
26.49414519637987
 31
0.0
  0
LINE
  5
487
330
2
100
AcDbEntity
  8
TEXT
100
AcDbLine
 10
0.8465743346112288
 20
26.45431131114683
 30
0.0
 11
0.9438740407046735
 21
26.6186615220821
 31
0.0
  0
LINE
  5
488
330
2
100
AcDbEntity
  8
TEXT
100
AcDbLine
 10
0.9438740407046735
 20
26.6186615220821
 30
0.0
 11
0.9438740407046735
 21
26.48590414725674
 31
0.0
  0
LWPOLYLINE
  5
489
330
2
100
AcDbEntity
  8
TEXT
100
AcDbPolyline
 90
        2
 70
     0
 43
0.0
 10
0.9438740407046726
 20
26.48590414725675
 42
0.3318488747599744
 10
1.012993333269985
 20
26.43435280504182
 42
-6.868794160588311
  0
LINE
  5
48A
330
2
100
AcDbEntity
  8
TEXT
100
AcDbLine
 10
1.011853759773789
 20
26.76883731576914
 30
0.0
 11
0.9450450472074249
 21
26.76883731576914
 31
0.0
  0
LWPOLYLINE
  5
48B
330
2
100
AcDbEntity
  8
TEXT
100
AcDbPolyline
 90
        4
 70
     0
 43
0.0
 10
1.297131168827583
 20
26.62899535420745
 10
1.297131168827583
 20
26.43435280504182
 10
1.365609452115441
 20
26.43435280504182
 10
1.365609452115441
 20
26.47784374999226
 42
-1.714843617202739
  0
LWPOLYLINE
  5
48C
330
2
100
AcDbEntity
  8
TEXT
100
AcDbPolyline
 90
        2
 70
     0
 43
0.0
 10
1.332265519371793
 20
26.70082583803033
 42
-0.3277054968067132
 10
1.368047210084958
 20
26.67250329226069
 42
6.667889725900311
  0
TEXT
  5
48D
330
2
100
AcDbEntity
  8
TEXT
100
AcDbText
 10
2.11461148389835
 20
26.52723861368731
 30
0.0
 40
0.0522247191011236
  1
Minneapolis, MN 55432-0008
 41
1.11444212721585
 72
     5
 11
3.443544068168014
 21
26.52723861368731
 31
0.0
100
AcDbText
  0
TEXT
  5
48E
330
2
100
AcDbEntity
  8
TEXT
100
AcDbText
 10
2.11461148389835
 20
26.62049704065361
 30
0.0
 40
0.0522247191011236
  1
6536 Main St. N.E. * P.O. Box 32008
 41
0.8388932496075353
 72
     5
 11
3.443544068168014
 21
26.62049704065361
 31
0.0
100
AcDbText
  0
TEXT
  5
48F
330
2
100
AcDbEntity
  8
TEXT
100
AcDbText
 10
2.11461148389835
 20
26.7137554676199
 30
0.0
 40
0.0522247191011236
  1
Stylmark  Incorporated
 41
1.221428571428571
 72
     5
 11
3.443544068168014
 21
26.7137554676199
 31
0.0
100
AcDbText
  0
TEXT
  5
490
330
2
100
AcDbEntity
  8
TEXT
100
AcDbText
 10
2.11461148389835
 20
26.43398018672102
 30
0.0
 40
0.0522247191011236
  1
Phone  1-800-328-2495
 41
1.272321428571429
 72
     5
 11
3.443544068168014
 21
26.43398018672102
 31
0.0
100
AcDbText
  0
LINE
  5
491
330
2
100
AcDbEntity
  8
TEXT
100
AcDbLine
 10
0.5608083930483688
 20
26.60074442176294
 30
0.0
 11
0.4952082568040677
 21
26.60074442176294
 31
0.0
  0
ARC
  5
492
330
2
100
AcDbEntity
  8
TEXT
100
AcDbCircle
 10
0.4952082568040677
 20
26.61864678256825
 30
0.0
 40
0.017902360805315
100
AcDbArc
 50
90.0
 51
270.0
  0
LINE
  5
493
330
2
100
AcDbEntity
  8
TEXT
100
AcDbLine
 10
0.4899709266898196
 20
26.53665091913732
 30
0.0
 11
0.5657487669546484
 21
26.53665091913732
 31
0.0
  0
LINE
  5
494
330
2
100
AcDbEntity
  8
TEXT
100
AcDbLine
 10
0.5657487669546484
 20
26.50270981137526
 30
0.0
 11
0.4078834672433143
 21
26.50270981137526
 31
0.0
  0
LINE
  5
495
330
2
100
AcDbEntity
  8
TEXT
100
AcDbLine
 10
0.4078834672433161
 20
26.43435280504182
 30
0.0
 11
0.5608083930483688
 21
26.43435280504182
 31
0.0
  0
ARC
  5
496
330
2
100
AcDbEntity
  8
TEXT
100
AcDbCircle
 10
0.4899709266898196
 20
26.61873837858383
 30
0.0
 40
0.0820874594465043
100
AcDbArc
 50
90.0
 51
270.0
  0
LINE
  5
497
330
2
100
AcDbEntity
  8
TEXT
100
AcDbLine
 10
0.665702679588331
 20
26.70082583803033
 30
0.0
 11
0.4899709266898196
 21
26.70082583803033
 31
0.0
  0
ARC
  5
498
330
2
100
AcDbEntity
  8
TEXT
100
AcDbCircle
 10
0.5657487669546484
 20
26.51968036525629
 30
0.0
 40
0.0169705538810321
100
AcDbArc
 50
270.0
 51
90.0
  0
ARC
  5
499
330
2
100
AcDbEntity
  8
TEXT
100
AcDbCircle
 10
0.5608083930483688
 20
26.51754861340238
 30
0.0
 40
0.0831958083605586
100
AcDbArc
 50
270.0
 51
90.0
  0
LINE
  5
49A
330
2
100
AcDbEntity
  8
TEXT
100
AcDbLine
 10
0.4952082568040677
 20
26.63654914337357
 30
0.0
 11
0.6621139108330381
 21
26.63654914337357
 31
0.0
  0
LWPOLYLINE
  5
49B
330
2
100
AcDbEntity
  8
TEXT
100
AcDbPolyline
 90
        2
 70
     0
 43
0.0006660908203125
 10
0.1984504871435408
 20
26.5875903985772
 10
0.2250941199560419
 20
26.5875903985772
  0
LINE
  5
49C
330
2
100
AcDbEntity
  8
TEXT
100
AcDbLine
 10
0.4078834672433143
 20
26.50270981137526
 30
0.0
 11
0.4078834672433161
 21
26.43435280504182
 31
0.0
  0
LWPOLYLINE
  5
49D
330
2
100
AcDbEntity
  8
TEXT
100
AcDbPolyline
 90
        2
 70
     0
 43
0.0006660908203125
 10
0.1984504871435408
 20
26.54762494935846
 10
0.2250941199560419
 20
26.54762494935846
  0
LWPOLYLINE
  5
49E
330
2
100
AcDbEntity
  8
TEXT
100
AcDbPolyline
 90
        2
 70
     0
 43
0.0001332181640625
 10
0.111858680502916
 20
26.70082583803033
 10
0.1018673181982272
 20
26.62755584779596
  0
LWPOLYLINE
  5
49F
330
2
100
AcDbEntity
  8
TEXT
100
AcDbPolyline
 90
        2
 70
     0
 43
0.0001332181640625
 10
0.111858680502916
 20
26.67418220521783
 10
0.1018673181982272
 20
26.61423403138971
  0
LWPOLYLINE
  5
4A0
330
2
100
AcDbEntity
  8
TEXT
100
AcDbPolyline
 90
        2
 70
     0
 43
0.0006660908203125
 10
0.111858680502916
 20
26.67418220521783
 10
0.111858680502916
 20
26.70082583803033
  0
LWPOLYLINE
  5
4A1
330
2
100
AcDbEntity
  8
TEXT
100
AcDbPolyline
 90
        5
 70
     0
 43
0.0001332181640625
 10
0.1018673181982272
 20
26.62755584779596
 10
0.1018673181982272
 20
26.61423403138971
 10
0.1385023133154171
 20
26.61423403138971
 10
0.1385023133154171
 20
26.57759903627252
 10
0.1518241297216658
 20
26.57759903627252
  0
LWPOLYLINE
  5
4A2
330
2
100
AcDbEntity
  8
TEXT
100
AcDbPolyline
 90
        2
 70
     0
 43
0.0001332181640625
 10
0.0718932312841645
 20
26.67418220521783
 10
0.081884593588855
 20
26.61423403138971
  0
LWPOLYLINE
  5
4A3
330
2
100
AcDbEntity
  8
TEXT
100
AcDbPolyline
 90
        2
 70
     0
 43
0.0001332181640625
 10
0.081884593588855
 20
26.62755584779596
 10
0.0718932312841645
 20
26.70082583803033
  0
LWPOLYLINE
  5
4A4
330
2
100
AcDbEntity
  8
TEXT
100
AcDbPolyline
 90
        2
 70
     0
 43
0.0006660908203125
 10
0.0718932312841645
 20
26.67418220521783
 10
0.0718932312841645
 20
26.70082583803033
  0
LWPOLYLINE
  5
4A5
330
2
100
AcDbEntity
  8
TEXT
100
AcDbPolyline
 90
        5
 70
     0
 43
0.0001332181640625
 10
0.0319277820654165
 20
26.57759903627252
 10
0.0452495984716652
 20
26.57759903627252
 10
0.0452495984716652
 20
26.61423403138971
 10
0.081884593588855
 20
26.61423403138971
 10
0.081884593588855
 20
26.62755584779596
  0
LWPOLYLINE
  5
4A6
330
2
100
AcDbEntity
  8
TEXT
100
AcDbPolyline
 90
        2
 70
     0
 43
0.0006660908203125
 10
-0.0146985753564604
 20
26.5875903985772
 10
-0.0413422081689579
 20
26.5875903985772
  0
LWPOLYLINE
  5
4A7
330
2
100
AcDbEntity
  8
TEXT
100
AcDbPolyline
 90
        2
 70
     0
 43
0.0001332181640625
 10
-0.0413422081689579
 20
26.5875903985772
 10
0.0319277820654165
 20
26.57759903627252
  0
LWPOLYLINE
  5
4A8
330
2
100
AcDbEntity
  8
TEXT
100
AcDbPolyline
 90
        2
 70
     0
 43
0.0001332181640625
 10
-0.0146985753564604
 20
26.5875903985772
 10
0.0452495984716652
 20
26.57759903627252
  0
LWPOLYLINE
  5
4A9
330
2
100
AcDbEntity
  8
TEXT
100
AcDbPolyline
 90
        2
 70
     0
 43
0.0001332181640625
 10
-0.0146985753564604
 20
26.67418220521783
 10
0.0452495984716652
 20
26.61423403138971
  0
LWPOLYLINE
  5
4AA
330
2
100
AcDbEntity
  8
TEXT
100
AcDbPolyline
 90
        3
 70
     0
 43
0.0006660908203125
 10
0.0718932312841645
 20
26.67418220521783
 10
-0.0146985753564604
 20
26.67418220521783
 10
-0.0146985753564604
 20
26.5875903985772
  0
LWPOLYLINE
  5
4AB
330
2
100
AcDbEntity
  8
TEXT
100
AcDbPolyline
 90
        3
 70
     0
 43
0.0006660908203125
 10
0.0718932312841645
 20
26.70082583803033
 10
-0.0413422081689579
 20
26.70082583803033
 10
-0.0413422081689579
 20
26.5875903985772
  0
LWPOLYLINE
  5
4AC
330
2
100
AcDbEntity
  8
TEXT
100
AcDbPolyline
 90
        5
 70
     0
 43
0.0001332181640625
 10
0.1518241297216658
 20
26.55761631166314
 10
0.1385023133154171
 20
26.55761631166314
 10
0.1385023133154171
 20
26.52098131654596
 10
0.1018673181982272
 20
26.52098131654596
 10
0.1018673181982272
 20
26.50765950013971
  0
LWPOLYLINE
  5
4AD
330
2
100
AcDbEntity
  8
TEXT
100
AcDbPolyline
 90
        2
 70
     0
 43
0.0006660908203125
 10
0.111858680502916
 20
26.46103314271783
 10
0.111858680502916
 20
26.43438950990533
  0
LWPOLYLINE
  5
4AE
330
2
100
AcDbEntity
  8
TEXT
100
AcDbPolyline
 90
        2
 70
     0
 43
0.0001332181640625
 10
0.1018673181982272
 20
26.50765950013971
 10
0.111858680502916
 20
26.43438950990533
  0
LWPOLYLINE
  5
4AF
330
2
100
AcDbEntity
  8
TEXT
100
AcDbPolyline
 90
        2
 70
     0
 43
0.0001332181640625
 10
0.111858680502916
 20
26.46103314271783
 10
0.1018673181982272
 20
26.52098131654596
  0
LWPOLYLINE
  5
4B0
330
2
100
AcDbEntity
  8
TEXT
100
AcDbPolyline
 90
        2
 70
     0
 43
0.0001332181640625
 10
0.0718932312841645
 20
26.43438950990533
 10
0.081884593588855
 20
26.50765950013971
  0
LWPOLYLINE
  5
4B1
330
2
100
AcDbEntity
  8
TEXT
100
AcDbPolyline
 90
        2
 70
     0
 43
0.0001332181640625
 10
0.0718932312841645
 20
26.46103314271783
 10
0.081884593588855
 20
26.52098131654596
  0
LWPOLYLINE
  5
4B2
330
2
100
AcDbEntity
  8
TEXT
100
AcDbPolyline
 90
        2
 70
     0
 43
0.0006660908203125
 10
0.0718932312841645
 20
26.46103314271783
 10
0.0718932312841645
 20
26.43438950990533
  0
LWPOLYLINE
  5
4B3
330
2
100
AcDbEntity
  8
TEXT
100
AcDbPolyline
 90
        5
 70
     0
 43
0.0001332181640625
 10
0.081884593588855
 20
26.50765950013971
 10
0.081884593588855
 20
26.52098131654596
 10
0.045249598471667
 20
26.52098131654596
 10
0.045249598471667
 20
26.55761631166314
 10
0.0319277820654165
 20
26.55761631166314
  0
LWPOLYLINE
  5
4B4
330
2
100
AcDbEntity
  8
TEXT
100
AcDbPolyline
 90
        2
 70
     0
 43
0.0006660908203125
 10
-0.0146985753564604
 20
26.54762494935846
 10
-0.0413422081689579
 20
26.54762494935846
  0
LWPOLYLINE
  5
4B5
330
2
100
AcDbEntity
  8
TEXT
100
AcDbPolyline
 90
        2
 70
     0
 43
0.0001332181640625
 10
-0.0146985753564604
 20
26.46103314271783
 10
0.045249598471667
 20
26.52098131654596
  0
LWPOLYLINE
  5
4B6
330
2
100
AcDbEntity
  8
TEXT
100
AcDbPolyline
 90
        2
 70
     0
 43
0.0001332181640625
 10
-0.0146985753564604
 20
26.54762494935846
 10
0.045249598471667
 20
26.55761631166314
  0
LWPOLYLINE
  5
4B7
330
2
100
AcDbEntity
  8
TEXT
100
AcDbPolyline
 90
        2
 70
     0
 43
0.0001332181640625
 10
0.0319277820654165
 20
26.55761631166314
 10
-0.0413422081689579
 20
26.54762494935846
  0
LWPOLYLINE
  5
4B8
330
2
100
AcDbEntity
  8
TEXT
100
AcDbPolyline
 90
        3
 70
     0
 43
0.0006660908203125
 10
-0.0146985753564604
 20
26.54762494935846
 10
-0.0146985753564604
 20
26.46103314271783
 10
0.0718932312841645
 20
26.46103314271783
  0
LWPOLYLINE
  5
4B9
330
2
100
AcDbEntity
  8
TEXT
100
AcDbPolyline
 90
        3
 70
     0
 43
0.0006660908203125
 10
-0.0413422081689579
 20
26.54762494935846
 10
-0.0413422081689579
 20
26.43438950990533
 10
0.0718932312841645
 20
26.43438950990533
  0
LWPOLYLINE
  5
4BA
330
2
100
AcDbEntity
  8
TEXT
100
AcDbPolyline
 90
        3
 70
     0
 43
0.0006660908203125
 10
0.111858680502916
 20
26.43438950990533
 10
0.2250941199560419
 20
26.43438950990533
 10
0.2250941199560419
 20
26.54762494935846
  0
LWPOLYLINE
  5
4BB
330
2
100
AcDbEntity
  8
TEXT
100
AcDbPolyline
 90
        3
 70
     0
 43
0.0006660908203125
 10
0.111858680502916
 20
26.46103314271783
 10
0.1984504871435408
 20
26.46103314271783
 10
0.1984504871435408
 20
26.54762494935846
  0
LWPOLYLINE
  5
4BC
330
2
100
AcDbEntity
  8
TEXT
100
AcDbPolyline
 90
        2
 70
     0
 43
0.0001332181640625
 10
0.1984504871435408
 20
26.46103314271783
 10
0.1385023133154171
 20
26.52098131654596
  0
LWPOLYLINE
  5
4BD
330
2
100
AcDbEntity
  8
TEXT
100
AcDbPolyline
 90
        2
 70
     0
 43
0.0001332181640625
 10
0.1984504871435408
 20
26.54762494935846
 10
0.1385023133154171
 20
26.55761631166314
  0
LWPOLYLINE
  5
4BE
330
2
100
AcDbEntity
  8
TEXT
100
AcDbPolyline
 90
        2
 70
     0
 43
0.0001332181640625
 10
0.2250941199560419
 20
26.54762494935846
 10
0.1518241297216658
 20
26.55761631166314
  0
LWPOLYLINE
  5
4BF
330
2
100
AcDbEntity
  8
TEXT
100
AcDbPolyline
 90
        2
 70
     0
 43
0.0001332181640625
 10
0.1984504871435408
 20
26.67418220521783
 10
0.1385023133154171
 20
26.61423403138971
  0
LWPOLYLINE
  5
4C0
330
2
100
AcDbEntity
  8
TEXT
100
AcDbPolyline
 90
        2
 70
     0
 43
0.0001332181640625
 10
0.1984504871435408
 20
26.5875903985772
 10
0.1385023133154171
 20
26.57759903627252
  0
LWPOLYLINE
  5
4C1
330
2
100
AcDbEntity
  8
TEXT
100
AcDbPolyline
 90
        2
 70
     0
 43
0.0001332181640625
 10
0.1518241297216658
 20
26.57759903627252
 10
0.2250941199560419
 20
26.5875903985772
  0
LWPOLYLINE
  5
4C2
330
2
100
AcDbEntity
  8
TEXT
100
AcDbPolyline
 90
        3
 70
     0
 43
0.0006660908203125
 10
0.1984504871435408
 20
26.5875903985772
 10
0.1984504871435408
 20
26.67418220521783
 10
0.111858680502916
 20
26.67418220521783
  0
LWPOLYLINE
  5
4C3
330
2
100
AcDbEntity
  8
TEXT
100
AcDbPolyline
 90
        3
 70
     0
 43
0.0006660908203125
 10
0.2250941199560419
 20
26.5875903985772
 10
0.2250941199560419
 20
26.70082583803033
 10
0.111858680502916
 20
26.70082583803033
  0
ENDSEC
  0
SECTION
  2
OBJECTS
  0
DICTIONARY
  5
1A
330
0
100
AcDbDictionary
  3
ACAD_GROUP
350
18
  3
ACAD_LAYOUT
350
4C8
  3
ACAD_MLINESTYLE
350
19
  3
ACAD_PLOTSETTINGS
350
4C9
  3
ACAD_PLOTSTYLENAME
350
4C6
  3
ACDBHEADERROUNDTRIPXREC
350
4D2
  3
ACDBVARIABLEDICTIONARY
350
382
  0
DICTIONARY
  5
4F2
330
2
100
AcDbDictionary
280
     1
  3
ACAD_LAYOUTSELFREF
360
4F3
  0
DICTIONARY
  5
4F4
330
8
100
AcDbDictionary
280
     1
  3
ACAD_LAYOUTSELFREF
360
4F5
  0
DICTIONARY
  5
18
102
{ACAD_REACTORS
330
1A
102
}
330
1A
100
AcDbDictionary
  0
DICTIONARY
  5
4C8
102
{ACAD_REACTORS
330
1A
102
}
330
1A
100
AcDbDictionary
  0
DICTIONARY
  5
19
102
{ACAD_REACTORS
330
1A
102
}
330
1A
100
AcDbDictionary
  3
STANDARD
350
1D
  0
DICTIONARY
  5
4C9
102
{ACAD_REACTORS
330
1A
102
}
330
1A
100
AcDbDictionary
  0
ACDBDICTIONARYWDFLT
  5
4C6
102
{ACAD_REACTORS
330
1A
102
}
330
1A
100
AcDbDictionary
281
     1
  3
Normal
350
4C7
100
AcDbDictionaryWithDefault
340
4C7
  0
DICTIONARY
  5
4D2
102
{ACAD_REACTORS
330
1A
102
}
330
1A
100
AcDbDictionary
  3
CEPSNTYPE
350
4DC
  3
FINGERPRINTGUID
350
4DD
  3
HYPERLINKBASE
350
4D5
  3
INSUNITS
350
4DB
  3
LAYOUTDICT
350
4D7
  3
LWETCUNION
350
4DA
  3
PLOTSETDICT
350
4D8
  3
PLOTSTYLNAMDICT
350
4D9
  3
PSVPSCALE
350
4DF
  3
PUCSBASE
350
4E2
  3
PUCSORGBACK
350
4E8
  3
PUCSORGBOTTOM
350
4E4
  3
PUCSORGFRONT
350
4E7
  3
PUCSORGLEFT
350
4E5
  3
PUCSORGRIGHT
350
4E6
  3
PUCSORGTOP
350
4E3
  3
PUCSORTHOREF
350
4E0
  3
PUCSORTHOVIEW
350
4E1
  3
STYLESHEET
350
4D6
  3
TSTACKALIGN
350
4D3
  3
TSTACKSIZE
350
4D4
  3
UCSBASE
350
4EB
  3
UCSORGBACK
350
4F1
  3
UCSORGBOTTOM
350
4ED
  3
UCSORGFRONT
350
4F0
  3
UCSORGLEFT
350
4EE
  3
UCSORGRIGHT
350
4EF
  3
UCSORGTOP
350
4EC
  3
UCSORTHOREF
350
4E9
  3
UCSORTHOVIEW
350
4EA
  3
VERSIONGUID
350
4DE
  0
DICTIONARY
  5
382
102
{ACAD_REACTORS
330
1A
102
}
330
1A
100
AcDbDictionary
  3
DIMASSOC
350
4D0
  3
SORTENTS
350
383
  0
XRECORD
  5
4F3
102
{ACAD_REACTORS
330
4F2
102
}
330
4F2
100
AcDbXrecord
340
2
  0
XRECORD
  5
4F5
102
{ACAD_REACTORS
330
4F4
102
}
330
4F4
100
AcDbXrecord
340
8
  0
MLINESTYLE
  5
1D
102
{ACAD_REACTORS
330
19
102
}
330
19
100
AcDbMlineStyle
  2
STANDARD
 70
     0
  3

 62
     0
 51
90.0
 52
90.0
 71
     2
 49
0.5
 62
   256
  6
BYLAYER
 49
-0.5
 62
   256
  6
BYLAYER
  0
ACDBPLACEHOLDER
  5
4C7
102
{ACAD_REACTORS
330
4C6
102
}
330
4C6
100
AcDbPlaceHolder
280
     0
  0
XRECORD
  5
4DC
102
{ACAD_REACTORS
330
4D2
102
}
330
4D2
100
AcDbXrecord
 90
        0
  0
XRECORD
  5
4DD
102
{ACAD_REACTORS
330
4D2
102
}
330
4D2
100
AcDbXrecord
  1
{4536B3A0-8DB4-11D6-88E6-0090279574E7}
  0
XRECORD
  5
4D5
102
{ACAD_REACTORS
330
4D2
102
}
330
4D2
100
AcDbXrecord
  1

  0
XRECORD
  5
4DB
102
{ACAD_REACTORS
330
4D2
102
}
330
4D2
100
AcDbXrecord
 90
        0
  0
XRECORD
  5
4D7
102
{ACAD_REACTORS
330
4D2
102
}
330
4D2
100
AcDbXrecord
340
4C8
  0
XRECORD
  5
4DA
102
{ACAD_REACTORS
330
4D2
102
}
330
4D2
100
AcDbXrecord
 90
    14877
  0
XRECORD
  5
4D8
102
{ACAD_REACTORS
330
4D2
102
}
330
4D2
100
AcDbXrecord
340
4C9
  0
XRECORD
  5
4D9
102
{ACAD_REACTORS
330
4D2
102
}
330
4D2
100
AcDbXrecord
340
4C6
  0
XRECORD
  5
4DF
102
{ACAD_REACTORS
330
4D2
102
}
330
4D2
100
AcDbXrecord
 40
0.0
  0
XRECORD
  5
4E2
102
{ACAD_REACTORS
330
4D2
102
}
330
4D2
100
AcDbXrecord
340
0
  0
XRECORD
  5
4E8
102
{ACAD_REACTORS
330
4D2
102
}
330
4D2
100
AcDbXrecord
 10
0.0
 20
0.0
 30
0.0
  0
XRECORD
  5
4E4
102
{ACAD_REACTORS
330
4D2
102
}
330
4D2
100
AcDbXrecord
 10
0.0
 20
0.0
 30
0.0
  0
XRECORD
  5
4E7
102
{ACAD_REACTORS
330
4D2
102
}
330
4D2
100
AcDbXrecord
 10
0.0
 20
0.0
 30
0.0
  0
XRECORD
  5
4E5
102
{ACAD_REACTORS
330
4D2
102
}
330
4D2
100
AcDbXrecord
 10
0.0
 20
0.0
 30
0.0
  0
XRECORD
  5
4E6
102
{ACAD_REACTORS
330
4D2
102
}
330
4D2
100
AcDbXrecord
 10
0.0
 20
0.0
 30
0.0
  0
XRECORD
  5
4E3
102
{ACAD_REACTORS
330
4D2
102
}
330
4D2
100
AcDbXrecord
 10
0.0
 20
0.0
 30
0.0
  0
XRECORD
  5
4E0
102
{ACAD_REACTORS
330
4D2
102
}
330
4D2
100
AcDbXrecord
340
0
  0
XRECORD
  5
4E1
102
{ACAD_REACTORS
330
4D2
102
}
330
4D2
100
AcDbXrecord
 70
     0
  0
XRECORD
  5
4D6
102
{ACAD_REACTORS
330
4D2
102
}
330
4D2
100
AcDbXrecord
  1

  0
XRECORD
  5
4D3
102
{ACAD_REACTORS
330
4D2
102
}
330
4D2
100
AcDbXrecord
 90
        1
  0
XRECORD
  5
4D4
102
{ACAD_REACTORS
330
4D2
102
}
330
4D2
100
AcDbXrecord
 90
       70
  0
XRECORD
  5
4EB
102
{ACAD_REACTORS
330
4D2
102
}
330
4D2
100
AcDbXrecord
340
0
  0
XRECORD
  5
4F1
102
{ACAD_REACTORS
330
4D2
102
}
330
4D2
100
AcDbXrecord
 10
0.0
 20
0.0
 30
0.0
  0
XRECORD
  5
4ED
102
{ACAD_REACTORS
330
4D2
102
}
330
4D2
100
AcDbXrecord
 10
0.0
 20
0.0
 30
0.0
  0
XRECORD
  5
4F0
102
{ACAD_REACTORS
330
4D2
102
}
330
4D2
100
AcDbXrecord
 10
0.0
 20
0.0
 30
0.0
  0
XRECORD
  5
4EE
102
{ACAD_REACTORS
330
4D2
102
}
330
4D2
100
AcDbXrecord
 10
0.0
 20
0.0
 30
0.0
  0
XRECORD
  5
4EF
102
{ACAD_REACTORS
330
4D2
102
}
330
4D2
100
AcDbXrecord
 10
0.0
 20
0.0
 30
0.0
  0
XRECORD
  5
4EC
102
{ACAD_REACTORS
330
4D2
102
}
330
4D2
100
AcDbXrecord
 10
0.0
 20
0.0
 30
0.0
  0
XRECORD
  5
4E9
102
{ACAD_REACTORS
330
4D2
102
}
330
4D2
100
AcDbXrecord
340
0
  0
XRECORD
  5
4EA
102
{ACAD_REACTORS
330
4D2
102
}
330
4D2
100
AcDbXrecord
 70
     0
  0
XRECORD
  5
4DE
102
{ACAD_REACTORS
330
4D2
102
}
330
4D2
100
AcDbXrecord
  1
{4536B3A2-8DB4-11D6-88E6-0090279574E7}
  0
DICTIONARYVAR
  5
4D0
102
{ACAD_REACTORS
330
382
102
}
330
382
100
DictionaryVariables
280
     0
  1
1
  0
DICTIONARYVAR
  5
383
102
{ACAD_REACTORS
330
382
102
}
330
382
100
DictionaryVariables
280
     0
  1
97
  0
ENDSEC
  0
EOF
