  0
SECTION
  2
HEADER
  9
$ACADVER
  1
AC1014
  9
$ACADMAINTVER
 70
     9
  9
$DWGCODEPAGE
  3
ANSI_1252
  9
$INSBASE
 10
0.0
 20
0.0
 30
0.0
  9
$EXTMIN
 10
-0.8933081123957784
 20
-0.1445560901168352
 30
0.0
  9
$EXTMAX
 10
2.59191120935135
 20
1.151518792201544
 30
0.0
  9
$LIMMIN
 10
0.0
 20
0.0
  9
$LIMMAX
 10
12.0
 20
9.0
  9
$ORTHOMODE
 70
     1
  9
$REGENMODE
 70
     1
  9
$FILLMODE
 70
     1
  9
$QTEXTMODE
 70
     0
  9
$MIRRTEXT
 70
     0
  9
$DRAGMODE
 70
     2
  9
$LTSCALE
 40
1.0
  9
$OSMODE
 70
    39
  9
$ATTMODE
 70
     1
  9
$TEXTSIZE
 40
0.125
  9
$TRACEWID
 40
0.05
  9
$TEXTSTYLE
  7
ROMANS
  9
$CLAYER
  8
TEXT
  9
$CELTYPE
  6
BYLAYER
  9
$CECOLOR
 62
   256
  9
$CELTSCALE
 40
1.0
  9
$DELOBJ
 70
     1
  9
$DISPSILH
 70
     1
  9
$DIMSCALE
 40
1.0
  9
$DIMASZ
 40
0.125
  9
$DIMEXO
 40
0.125
  9
$DIMDLI
 40
0.38
  9
$DIMRND
 40
0.0
  9
$DIMDLE
 40
0.0
  9
$DIMEXE
 40
0.125
  9
$DIMTP
 40
0.01
  9
$DIMTM
 40
0.01
  9
$DIMTXT
 40
0.125
  9
$DIMCEN
 40
0.09
  9
$DIMTSZ
 40
0.0
  9
$DIMTOL
 70
     0
  9
$DIMLIM
 70
     0
  9
$DIMTIH
 70
     1
  9
$DIMTOH
 70
     1
  9
$DIMSE1
 70
     0
  9
$DIMSE2
 70
     0
  9
$DIMTAD
 70
     0
  9
$DIMZIN
 70
     4
  9
$DIMBLK
  1

  9
$DIMASO
 70
     1
  9
$DIMSHO
 70
     1
  9
$DIMPOST
  1

  9
$DIMAPOST
  1

  9
$DIMALT
 70
     0
  9
$DIMALTD
 70
     2
  9
$DIMALTF
 40
25.4
  9
$DIMLFAC
 40
0.5
  9
$DIMTOFL
 70
     0
  9
$DIMTVP
 40
0.0
  9
$DIMTIX
 70
     1
  9
$DIMSOXD
 70
     0
  9
$DIMSAH
 70
     0
  9
$DIMBLK1
  1

  9
$DIMBLK2
  1

  9
$DIMSTYLE
  2
STANDARD
  9
$DIMCLRD
 70
     0
  9
$DIMCLRE
 70
     0
  9
$DIMCLRT
 70
     0
  9
$DIMTFAC
 40
1.0
  9
$DIMGAP
 40
0.09
  9
$DIMJUST
 70
     0
  9
$DIMSD1
 70
     0
  9
$DIMSD2
 70
     0
  9
$DIMTOLJ
 70
     1
  9
$DIMTZIN
 70
     0
  9
$DIMALTZ
 70
     0
  9
$DIMALTTZ
 70
     0
  9
$DIMFIT
 70
     3
  9
$DIMUPT
 70
     0
  9
$DIMUNIT
 70
     2
  9
$DIMDEC
 70
     3
  9
$DIMTDEC
 70
     4
  9
$DIMALTU
 70
     2
  9
$DIMALTTD
 70
     2
  9
$DIMTXSTY
  7
ROMANS
  9
$DIMAUNIT
 70
     0
  9
$LUNITS
 70
     2
  9
$LUPREC
 70
     3
  9
$SKETCHINC
 40
0.1
  9
$FILLETRAD
 40
0.05
  9
$AUNITS
 70
     0
  9
$AUPREC
 70
     0
  9
$MENU
  1
AUTOMSTR
  9
$ELEVATION
 40
0.0
  9
$PELEVATION
 40
0.0
  9
$THICKNESS
 40
0.0
  9
$LIMCHECK
 70
     0
  9
$BLIPMODE
 70
     0
  9
$CHAMFERA
 40
0.0
  9
$CHAMFERB
 40
0.0
  9
$CHAMFERC
 40
0.0
  9
$CHAMFERD
 40
0.0
  9
$SKPOLY
 70
     0
  9
$TDCREATE
 40
2448089.553917824
  9
$TDUPDATE
 40
2452458.296774745
  9
$TDINDWG
 40
0.1402751736
  9
$TDUSRTIMER
 40
0.1402751736
  9
$USRTIMER
 70
     1
  9
$ANGBASE
 50
0.0
  9
$ANGDIR
 70
     0
  9
$PDMODE
 70
     0
  9
$PDSIZE
 40
0.0
  9
$PLINEWID
 40
0.0
  9
$COORDS
 70
     2
  9
$SPLFRAME
 70
     0
  9
$SPLINETYPE
 70
     6
  9
$SPLINESEGS
 70
     8
  9
$ATTDIA
 70
     0
  9
$ATTREQ
 70
     1
  9
$HANDLING
 70
 22529
  9
$HANDSEED
  5
3A9
  9
$SURFTAB1
 70
     6
  9
$SURFTAB2
 70
     6
  9
$SURFTYPE
 70
     6
  9
$SURFU
 70
     6
  9
$SURFV
 70
     6
  9
$UCSNAME
  2

  9
$UCSORG
 10
0.0
 20
0.0
 30
0.0
  9
$UCSXDIR
 10
1.0
 20
0.0
 30
0.0
  9
$UCSYDIR
 10
0.0
 20
1.0
 30
0.0
  9
$PUCSNAME
  2

  9
$PUCSORG
 10
0.0
 20
0.0
 30
0.0
  9
$PUCSXDIR
 10
1.0
 20
0.0
 30
0.0
  9
$PUCSYDIR
 10
0.0
 20
1.0
 30
0.0
  9
$USERI1
 70
     0
  9
$USERI2
 70
     0
  9
$USERI3
 70
     0
  9
$USERI4
 70
     0
  9
$USERI5
 70
     0
  9
$USERR1
 40
0.0
  9
$USERR2
 40
0.0
  9
$USERR3
 40
0.0
  9
$USERR4
 40
0.0
  9
$USERR5
 40
0.0
  9
$WORLDVIEW
 70
     1
  9
$SHADEDGE
 70
     3
  9
$SHADEDIF
 70
    70
  9
$TILEMODE
 70
     1
  9
$MAXACTVP
 70
    16
  9
$PINSBASE
 10
0.0
 20
0.0
 30
0.0
  9
$PLIMCHECK
 70
     0
  9
$PEXTMIN
 10
1.000000000000000E+20
 20
1.000000000000000E+20
 30
1.000000000000000E+20
  9
$PEXTMAX
 10
-1.000000000000000E+20
 20
-1.000000000000000E+20
 30
-1.000000000000000E+20
  9
$PLIMMIN
 10
0.0
 20
0.0
  9
$PLIMMAX
 10
12.0
 20
9.0
  9
$UNITMODE
 70
     0
  9
$VISRETAIN
 70
     0
  9
$PLINEGEN
 70
     1
  9
$PSLTSCALE
 70
     0
  9
$TREEDEPTH
 70
  3020
  9
$PICKSTYLE
 70
     1
  9
$CMLSTYLE
  2
STANDARD
  9
$CMLJUST
 70
     0
  9
$CMLSCALE
 40
1.0
  9
$PROXYGRAPHICS
 70
     1
  9
$MEASUREMENT
 70
     0
  0
ENDSEC
  0
SECTION
  2
CLASSES
  0
CLASS
  1
LWPOLYLINE
  2
AcDbPolyline
  3
AutoCAD 2000
 90
        0
280
     0
281
     1
  0
CLASS
  1
ACDBDICTIONARYWDFLT
  2
AcDbDictionaryWithDefault
  3
AutoCAD 2000
 90
        0
280
     0
281
     0
  0
CLASS
  1
ACDBPLACEHOLDER
  2
AcDbPlaceHolder
  3
AutoCAD 2000
 90
        0
280
     0
281
     0
  0
CLASS
  1
LAYOUT
  2
AcDbLayout
  3
AutoCAD 2000
 90
        0
280
     0
281
     0
  0
CLASS
  1
DICTIONARYVAR
  2
AcDbDictionaryVar
  3
AutoCAD 2000
 90
        0
280
     0
281
     0
  0
CLASS
  1
LONG_TRANSACTION
  2
AcDbLongTransaction
  3
AutoCAD 2000
 90
        0
280
     0
281
     0
  0
CLASS
  1
LWPOLYLINE
  2
AcDbPolyline
  3
AutoCAD 2000
 90
        0
280
     0
281
     1
  0
CLASS
  1
HATCH
  2
AcDbHatch
  3
AutoCAD 2000
 90
        0
280
     0
281
     1
  0
CLASS
  1
XRECORD
  2
AcDbXrecord
  3
AutoCAD 2000
 90
        0
280
     0
281
     0
  0
ENDSEC
  0
SECTION
  2
TABLES
  0
TABLE
  2
VPORT
  5
8
330
0
100
AcDbSymbolTable
 70
     2
  0
VPORT
  5
384
330
8
100
AcDbSymbolTableRecord
100
AcDbViewportTableRecord
  2
*ACTIVE
 70
     0
 10
0.0
 20
0.0
 11
1.0
 21
1.0
 12
3.771462567927428
 22
0.5033701678727738
 13
0.0
 23
0.0
 14
0.015625
 24
0.015625
 15
0.25
 25
0.25
 16
0.0
 26
0.0
 36
1.0
 17
0.0
 27
0.0
 37
0.0
 40
2.163588541909629
 41
4.320930232558139
 42
50.0
 43
0.0
 44
0.0
 50
0.0
 51
0.0
 71
     0
 72
  2000
 73
     1
 74
     1
 75
     0
 76
     0
 77
     0
 78
     0
  0
ENDTAB
  0
TABLE
  2
LTYPE
  5
5
330
0
100
AcDbSymbolTable
 70
     1
  0
LTYPE
  5
12
330
5
100
AcDbSymbolTableRecord
100
AcDbLinetypeTableRecord
  2
BYBLOCK
 70
     0
  3

 72
    65
 73
     0
 40
0.0
  0
LTYPE
  5
13
330
5
100
AcDbSymbolTableRecord
100
AcDbLinetypeTableRecord
  2
BYLAYER
 70
     0
  3

 72
    65
 73
     0
 40
0.0
  0
LTYPE
  5
14
330
5
100
AcDbSymbolTableRecord
100
AcDbLinetypeTableRecord
  2
CONTINUOUS
 70
     0
  3
Solid line
 72
    65
 73
     0
 40
0.0
  0
ENDTAB
  0
TABLE
  2
LAYER
  5
2
330
0
100
AcDbSymbolTable
 70
     2
  0
LAYER
  5
F
330
2
100
AcDbSymbolTableRecord
100
AcDbLayerTableRecord
  2
0
 70
     0
 62
     7
  6
CONTINUOUS
  0
LAYER
  5
2D
330
2
100
AcDbSymbolTableRecord
100
AcDbLayerTableRecord
  2
TEXT
 70
     0
 62
     3
  6
CONTINUOUS
  0
ENDTAB
  0
TABLE
  2
STYLE
  5
3
330
0
100
AcDbSymbolTable
 70
     3
  0
STYLE
  5
10
330
3
100
AcDbSymbolTableRecord
100
AcDbTextStyleTableRecord
  2
STANDARD
 70
     0
 40
0.0
 41
1.0
 50
0.0
 71
     0
 42
0.125
  3
txt
  4

  0
STYLE
  5
270
330
3
100
AcDbSymbolTableRecord
100
AcDbTextStyleTableRecord
  2
ITALICC
 70
     0
 40
0.0
 41
1.0
 50
0.0
 71
     0
 42
0.125
  3
italicc
  4

  0
STYLE
  5
380
330
3
100
AcDbSymbolTableRecord
100
AcDbTextStyleTableRecord
  2
ROMANS
 70
     0
 40
0.0
 41
1.0
 50
0.0
 71
     0
 42
0.125
  3
romans.shx
  4

  0
ENDTAB
  0
TABLE
  2
VIEW
  5
6
330
0
100
AcDbSymbolTable
 70
     0
  0
ENDTAB
  0
TABLE
  2
UCS
  5
7
330
0
100
AcDbSymbolTable
 70
     0
  0
ENDTAB
  0
TABLE
  2
APPID
  5
9
330
0
100
AcDbSymbolTable
 70
     1
  0
APPID
  5
11
330
9
100
AcDbSymbolTableRecord
100
AcDbRegAppTableRecord
  2
ACAD
 70
     0
  0
ENDTAB
  0
TABLE
  2
DIMSTYLE
  5
A
330
0
100
AcDbSymbolTable
 70
     1
  0
DIMSTYLE
105
264
330
A
100
AcDbSymbolTableRecord
100
AcDbDimStyleTableRecord
  2
STANDARD
 70
     0
  3

  4

  5

  6

  7

 40
1.0
 41
0.18
 42
0.0625
 43
0.38
 44
0.18
 45
0.0
 46
0.0
 47
0.0
 48
0.0
140
0.18
141
0.09
142
0.0
143
25.4
144
1.0
145
0.0
146
1.0
147
0.09
 71
     0
 72
     0
 73
     1
 74
     1
 75
     0
 76
     0
 77
     0
 78
     0
170
     0
171
     2
172
     0
173
     0
174
     0
175
     0
176
     0
177
     0
178
     0
270
     2
271
     4
272
     4
273
     2
274
     2
340
10
275
     0
280
     0
281
     0
282
     0
283
     1
284
     0
285
     0
286
     0
287
     3
288
     0
  0
ENDTAB
  0
TABLE
  2
BLOCK_RECORD
  5
1
330
0
100
AcDbSymbolTable
 70
     0
  0
BLOCK_RECORD
  5
18
102
{ACAD_XDICTIONARY
360
3A7
102
}
330
1
100
AcDbSymbolTableRecord
100
AcDbBlockTableRecord
  2
*MODEL_SPACE
  0
BLOCK_RECORD
  5
15
102
{ACAD_XDICTIONARY
360
3A5
102
}
330
1
100
AcDbSymbolTableRecord
100
AcDbBlockTableRecord
  2
*PAPER_SPACE
  0
ENDTAB
  0
ENDSEC
  0
SECTION
  2
BLOCKS
  0
BLOCK
  5
35
330
18
100
AcDbEntity
  8
0
100
AcDbBlockBegin
  2
*MODEL_SPACE
 70
     0
 10
0.0
 20
0.0
 30
0.0
  3
*MODEL_SPACE
  1

  0
ENDBLK
  5
36
330
18
100
AcDbEntity
  8
0
100
AcDbBlockEnd
  0
BLOCK
  5
33
330
15
100
AcDbEntity
 67
     1
  8
0
100
AcDbBlockBegin
  2
*PAPER_SPACE
 70
     0
 10
0.0
 20
0.0
 30
0.0
  3
*PAPER_SPACE
  1

  0
ENDBLK
  5
34
330
15
100
AcDbEntity
 67
     1
  8
0
100
AcDbBlockEnd
  0
ENDSEC
  0
SECTION
  2
ENTITIES
  0
LWPOLYLINE
  5
234
330
18
100
AcDbEntity
  8
0
100
AcDbPolyline
 90
       21
 70
     1
 43
0.0
 10
0.7110823889965459
 20
0.9563411226718809
 10
0.7011121833818153
 20
0.9463709170571512
 10
0.7110823889965459
 20
0.9364007114424214
 10
0.7110823889965459
 20
0.703400711442421
 10
1.181082388996545
 20
0.703400711442421
 10
1.181082388996545
 20
1.041400711442421
 10
1.091082388996545
 20
1.041400711442421
 10
1.068001109820651
 20
1.04140071144242
 42
-1.193324095199081
 10
1.130006627684544
 20
1.130198629914402
 10
1.091115754719284
 20
1.091307756949143
 10
1.221115754719283
 20
1.091307756949143
 42
-0.4142135623730956
 10
1.231115754719283
 20
1.081307756949143
 10
1.231115754719283
 20
0.6783077569491434
 42
-0.4142135623730945
 10
1.206115754719283
 20
0.6533077569491434
 10
0.6861157547192837
 20
0.6533077569491434
 42
-0.4142135623730951
 10
0.6611157547192837
 20
0.6783077569491435
 10
0.6611157547192837
 20
1.086307756949143
 10
0.5391157547192838
 20
1.086307756949143
 10
0.4790823889965457
 20
1.146341122671881
 10
0.686082388996546
 20
1.146341122671881
 42
-0.4142135623730954
 10
0.711082388996546
 20
1.121341122671881
  0
TEXT
  5
2F6
330
18
100
AcDbEntity
  8
TEXT
100
AcDbText
 10
0.0966972763551741
 20
0.3134625139657463
 30
0.0
 40
0.125
  1
PART #110134
  7
ITALICC
 72
     1
 11
0.8496734668313647
 21
0.3134625139657463
 31
0.0
100
AcDbText
  0
LINE
  5
2F7
330
18
100
AcDbEntity
  8
TEXT
100
AcDbLine
 10
1.004988096854748
 20
0.1333855226026781
 30
0.0
 11
0.9578899382987637
 21
0.05752019619114
 31
0.0
  0
LINE
  5
2F8
330
18
100
AcDbEntity
  8
TEXT
100
AcDbLine
 10
0.9578899382987637
 20
0.05752019619114
 30
0.0
 11
0.9578899382987637
 21
0.1988497283702788
 31
0.0
  0
LINE
  5
2F9
330
18
100
AcDbEntity
  8
TEXT
100
AcDbLine
 10
0.9578899382987637
 20
0.1988497283702788
 30
0.0
 11
0.8895750597494904
 21
0.1988497283702788
 31
0.0
  0
LINE
  5
2FA
330
18
100
AcDbEntity
  8
TEXT
100
AcDbLine
 10
0.8895750597494904
 20
0.1988497283702788
 30
0.0
 11
0.8895750597494851
 21
0.1333855226026781
 31
0.0
  0
LINE
  5
2FB
330
18
100
AcDbEntity
  8
TEXT
100
AcDbLine
 10
1.015422813618671
 20
0.0234922796617045
 30
0.0
 11
1.079979929584376
 21
0.1333855226026781
 31
0.0
  0
LINE
  5
2FC
330
18
100
AcDbEntity
  8
TEXT
100
AcDbLine
 10
1.079979929584376
 20
0.1333855226026781
 30
0.0
 11
1.004988096854749
 21
0.1333855226026781
 31
0.0
  0
LINE
  5
2FD
330
18
100
AcDbEntity
  8
TEXT
100
AcDbLine
 10
0.8940549470759906
 20
-0.1330875103858329
 30
0.0
 11
0.958433131394611
 21
-0.1330875103858329
 31
0.0
  0
LINE
  5
2FE
330
18
100
AcDbEntity
  8
TEXT
100
AcDbLine
 10
0.958433131394611
 20
-0.1330875103858329
 30
0.0
 11
0.958433131394611
 21
-0.0015079419096526
 31
0.0
  0
LINE
  5
2FF
330
18
100
AcDbEntity
  8
TEXT
100
AcDbLine
 10
0.958433131394611
 20
-0.0015079419096526
 30
0.0
 11
1.034336664606075
 21
-0.1330875103858329
 31
0.0
  0
LINE
  5
300
330
18
100
AcDbEntity
  8
TEXT
100
AcDbLine
 10
1.034336664606075
 20
-0.1330875103858329
 30
0.0
 11
1.110915036982281
 21
-0.1330875103858329
 31
0.0
  0
LINE
  5
301
330
18
100
AcDbEntity
  8
TEXT
100
AcDbLine
 10
0.8940549470759853
 20
0.0691088279459127
 30
0.0
 11
0.8940549470759906
 21
-0.1330875103858329
 31
0.0
  0
LINE
  5
302
330
18
100
AcDbEntity
  8
TEXT
100
AcDbLine
 10
1.110915036982281
 20
-0.1330875103858329
 30
0.0
 11
1.015422813618671
 21
0.0234922796617045
 31
0.0
  0
ARC
  5
303
330
18
100
AcDbEntity
  8
TEXT
100
AcDbCircle
 10
0.8174069657834266
 20
0.0442029526632499
 30
0.0
 40
0.0249058752826653
100
AcDbArc
 50
89.99971217465335
 51
179.9999999999985
  0
ARC
  5
304
330
18
100
AcDbEntity
  8
TEXT
100
AcDbCircle
 10
0.8252959227230043
 20
0.1021397953204133
 30
0.0
 40
0.0314112657011332
100
AcDbArc
 50
95.88484768694724
 51
173.2388340632136
  0
LINE
  5
305
330
18
100
AcDbEntity
  8
TEXT
100
AcDbLine
 10
0.7941031056598958
 20
0.1058378727418034
 30
0.0
 11
0.7941031056598958
 21
0.1333855226026781
 31
0.0
  0
LINE
  5
306
330
18
100
AcDbEntity
  8
TEXT
100
AcDbLine
 10
0.7941031056598958
 20
0.1333855226026781
 30
0.0
 11
0.7302061993603948
 21
0.1333855226026781
 31
0.0
  0
LINE
  5
307
330
18
100
AcDbEntity
  8
TEXT
100
AcDbLine
 10
0.7302061993603948
 20
0.1333855226026781
 30
0.0
 11
0.7302061993603948
 21
0.0281735440492508
 31
0.0
  0
LINE
  5
308
330
18
100
AcDbEntity
  8
TEXT
100
AcDbLine
 10
0.6512462604853538
 20
0.1333855226026781
 30
0.0
 11
0.5164143512682946
 21
0.1333855226026781
 31
0.0
  0
LINE
  5
309
330
18
100
AcDbEntity
  8
TEXT
100
AcDbLine
 10
0.5164143512682946
 20
0.1333855226026781
 30
0.0
 11
0.5164143512682946
 21
0.1050629768330342
 31
0.0
  0
LINE
  5
30A
330
18
100
AcDbEntity
  8
TEXT
100
AcDbLine
 10
0.5757284476616134
 20
0.0318338544837804
 30
0.0
 11
0.6580164374449966
 21
0.0318338544837804
 31
0.0
  0
LINE
  5
30B
330
18
100
AcDbEntity
  8
TEXT
100
AcDbLine
 10
0.6580164374449966
 20
0.0318338544837804
 30
0.0
 11
0.6477516770314323
 21
0.0530843940564747
 31
0.0
  0
LINE
  5
30C
330
18
100
AcDbEntity
  8
TEXT
100
AcDbLine
 10
0.6222153621408753
 20
0.0691088279459127
 30
0.0
 11
0.5150090887535859
 21
0.0691088279459127
 31
0.0
  0
ARC
  5
30D
330
18
100
AcDbEntity
  8
TEXT
100
AcDbCircle
 10
0.6222153621408744
 20
0.0407494529459154
 30
0.0
 40
0.028359375
100
AcDbArc
 50
25.78218179591245
 51
90.0
  0
LINE
  5
30E
330
18
100
AcDbEntity
  8
TEXT
100
AcDbLine
 10
0.7302061993603948
 20
0.0281735440492508
 30
0.0
 11
0.6864554281784932
 21
0.110423820045396
 31
0.0
  0
ARC
  5
30F
330
18
100
AcDbEntity
  8
TEXT
100
AcDbCircle
 10
0.6492193207082853
 20
0.0918019554817757
 30
0.0
 40
0.0416329381542859
100
AcDbArc
 50
26.56974201007528
 51
87.20939649401342
  0
LWPOLYLINE
  5
310
330
18
100
AcDbEntity
  8
TEXT
100
AcDbPolyline
 90
        2
 70
     0
 43
0.0
 10
0.7341458766654334
 20
-0.0895965654353948
 42
-0.2901071551932486
 10
0.691069943797789
 20
-0.1330875103858329
 42
-5.328517124445184
  0
LWPOLYLINE
  5
311
330
18
100
AcDbEntity
  8
TEXT
100
AcDbPolyline
 90
        2
 70
     0
 43
0.0
 10
0.7341458766654334
 20
-0.0895965654353948
 10
0.7341458766654334
 20
-0.1330875103858329
  0
LWPOLYLINE
  5
312
330
18
100
AcDbEntity
  8
TEXT
100
AcDbPolyline
 90
        2
 70
     0
 43
0.0
 10
0.7341458766654334
 20
-0.1330875103858329
 10
0.7925010905007675
 20
-0.1330875103858329
  0
LWPOLYLINE
  5
313
330
18
100
AcDbEntity
  8
TEXT
100
AcDbPolyline
 90
        2
 70
     0
 43
0.0
 10
0.5139765932987768
 20
-0.0895965654353948
 42
0.2901071551932823
 10
0.5570525261664124
 20
-0.1330875103858329
 42
5.328517124445801
  0
LWPOLYLINE
  5
314
330
18
100
AcDbEntity
  8
TEXT
100
AcDbPolyline
 90
        2
 70
     0
 43
0.0
 10
0.5570525261664124
 20
-0.1330875103858329
 10
0.691069943797789
 20
-0.1330875103858329
 42
0.9999999999999998
  0
LWPOLYLINE
  5
315
330
18
100
AcDbEntity
  8
TEXT
100
AcDbPolyline
 90
        4
 70
     1
 43
0.0
 10
0.6709474787278964
 20
-0.0301235324018077
 10
0.582287160068038
 20
-0.0301235324018077
 42
0.9999999999999998
 10
0.582287160068038
 20
-0.0725220729056684
 10
0.6709474787278964
 20
-0.0725220729056684
 42
1.0
  0
ARC
  5
316
330
18
100
AcDbEntity
  8
TEXT
100
AcDbCircle
 10
0.5757284476616125
 20
-0.0358517266603382
 30
0.0
 40
0.0676855811441166
100
AcDbArc
 50
90.0
 51
153.7768192527749
  0
LINE
  5
317
330
18
100
AcDbEntity
  8
TEXT
100
AcDbLine
 10
0.7925010905007684
 20
-0.1330875103858329
 30
0.0
 11
0.792501090500763
 21
0.0442029950456355
 31
0.0
  0
LINE
  5
318
330
18
100
AcDbEntity
  8
TEXT
100
AcDbLine
 10
0.5150090887535859
 20
0.0691088279459127
 30
0.0
 11
0.5150090887535859
 21
-0.0059435781282939
 31
0.0
  0
LINE
  5
319
330
18
100
AcDbEntity
  8
TEXT
100
AcDbLine
 10
0.8174069657834275
 20
0.0691088279459127
 30
0.0
 11
0.8940549470759853
 21
0.0691088279459127
 31
0.0
  0
LINE
  5
31A
330
18
100
AcDbEntity
  8
TEXT
100
AcDbLine
 10
0.8895750597494851
 20
0.1333855226026781
 30
0.0
 11
0.8220753420999686
 21
0.1333855226026781
 31
0.0
  0
LWPOLYLINE
  5
31B
330
18
100
AcDbEntity
  8
TEXT
100
AcDbPolyline
 90
        2
 70
     0
 43
0.0
 10
0.3091990879759017
 20
0.0691088279459127
 42
-0.4142135623731017
 10
0.3167528771420152
 20
0.0615550387798027
 42
-0.9999999999999998
  0
LWPOLYLINE
  5
31C
330
18
100
AcDbEntity
  8
TEXT
100
AcDbPolyline
 90
        2
 70
     0
 43
0.0
 10
0.4379445208448054
 20
0.0691088279459127
 42
-0.4142135623731017
 10
0.4454983100109189
 20
0.0615550387798027
 42
-0.9999999999999998
  0
LWPOLYLINE
  5
31D
330
18
100
AcDbEntity
  8
TEXT
100
AcDbPolyline
 90
        2
 70
     0
 43
0.0
 10
0.326550811025923
 20
0.1333855226026817
 42
-0.3328679258950098
 10
0.3623325017390844
 20
0.1062180258417857
 42
6.772930709997214
  0
LWPOLYLINE
  5
31E
330
18
100
AcDbEntity
  8
TEXT
100
AcDbPolyline
 90
        3
 70
     0
 43
0.0
 10
0.4806326605551288
 20
0.1333855226026817
 10
0.3623325017390844
 20
0.1333855226026817
 10
0.3623325017390844
 20
0.1062180258417857
 42
-1.960274751411753
  0
LINE
  5
31F
330
18
100
AcDbEntity
  8
TEXT
100
AcDbLine
 10
0.3838109239238561
 20
0.0691088279459127
 30
0.0
 11
0.4379445208448063
 21
0.0691088279459127
 31
0.0
  0
LINE
  5
320
330
18
100
AcDbEntity
  8
TEXT
100
AcDbLine
 10
0.2593638081527549
 20
0.0691088279459127
 30
0.0
 11
0.3091990879759026
 21
0.0691088279459127
 31
0.0
  0
LINE
  5
321
330
18
100
AcDbEntity
  8
TEXT
100
AcDbLine
 10
0.3265508110259221
 20
0.1333855226026781
 30
0.0
 11
0.1925327550947857
 21
0.1333855226026781
 31
0.0
  0
LINE
  5
322
330
18
100
AcDbEntity
  8
TEXT
100
AcDbLine
 10
0.316752877142016
 20
-0.1330875103858329
 30
0.0
 11
0.3838109239238561
 21
-0.1330875103858329
 31
0.0
  0
LINE
  5
323
330
18
100
AcDbEntity
  8
TEXT
100
AcDbLine
 10
0.1613604744533204
 20
-0.1330875103858329
 30
0.0
 11
0.2593638081527549
 21
-0.1330875103858329
 31
0.0
  0
LINE
  5
324
330
18
100
AcDbEntity
  8
TEXT
100
AcDbLine
 10
0.1925327550947857
 20
-0.0674786841297301
 30
0.0
 11
0.1755391182101844
 21
-0.0674786841297301
 31
0.0
  0
ARC
  5
325
330
18
100
AcDbEntity
  8
TEXT
100
AcDbCircle
 10
0.1755391182101835
 20
-0.0520968778863047
 30
0.0
 40
0.0153818062434269
100
AcDbArc
 50
174.7883570302258
 51
270.0
  0
LINE
  5
326
330
18
100
AcDbEntity
  8
TEXT
100
AcDbLine
 10
0.2593638081527549
 20
-0.1330875103858329
 30
0.0
 11
0.2593638081527549
 21
0.0691088279459127
 31
0.0
  0
LINE
  5
327
330
18
100
AcDbEntity
  8
TEXT
100
AcDbLine
 10
0.316752877142016
 20
0.0615550387798027
 30
0.0
 11
0.316752877142016
 21
-0.1330875103858329
 31
0.0
  0
LINE
  5
328
330
18
100
AcDbEntity
  8
TEXT
100
AcDbLine
 10
0.3838109239238561
 20
-0.1330875103858329
 30
0.0
 11
0.3838109239238561
 21
0.0691088279459127
 31
0.0
  0
LINE
  5
329
330
18
100
AcDbEntity
  8
TEXT
100
AcDbLine
 10
0.1925327550947857
 20
0.1333855226026781
 30
0.0
 11
0.1925327550947857
 21
-0.0674786841297301
 31
0.0
  0
LINE
  5
32A
330
18
100
AcDbEntity
  8
TEXT
100
AcDbLine
 10
0.1602209009571256
 20
-0.0506996722828337
 30
0.0
 11
0.1602209009571256
 21
0.2013970003414887
 31
0.0
  0
LINE
  5
32B
330
18
100
AcDbEntity
  8
TEXT
100
AcDbLine
 10
0.0934121883907606
 20
0.2013970003414887
 30
0.0
 11
0.0934121883907606
 21
0.1333855226026781
 31
0.0
  0
LINE
  5
32C
330
18
100
AcDbEntity
  8
TEXT
100
AcDbLine
 10
0.0934121883907606
 20
0.1333855226026781
 30
0.0
 11
0.0632902755973843
 21
0.1333855226026781
 31
0.0
  0
LINE
  5
32D
330
18
100
AcDbEntity
  8
TEXT
100
AcDbLine
 10
0.0632902755973843
 20
0.1333855226026781
 30
0.0
 11
0.0045417127915188
 21
0.0325135264895575
 31
0.0
  0
LINE
  5
32E
330
18
100
AcDbEntity
  8
TEXT
100
AcDbLine
 10
0.0045417127915188
 20
0.0325135264895575
 30
0.0
 11
-0.0540886082404191
 21
0.1333855226026781
 31
0.0
  0
LINE
  5
32F
330
18
100
AcDbEntity
  8
TEXT
100
AcDbLine
 10
-0.1258875743843264
 20
0.1333855226026781
 30
0.0
 11
-0.1258875743843264
 21
0.1677734401968163
 31
0.0
  0
LINE
  5
330
330
18
100
AcDbEntity
  8
TEXT
100
AcDbLine
 10
-0.1258875743843264
 20
0.1677734401968163
 30
0.0
 11
-0.1859301792283334
 21
0.1677734401968163
 31
0.0
  0
LINE
  5
331
330
18
100
AcDbEntity
  8
TEXT
100
AcDbLine
 10
-0.1859301792283334
 20
0.1677734401968163
 30
0.0
 11
-0.1859301792283334
 21
0.1333855226026781
 31
0.0
  0
LINE
  5
332
330
18
100
AcDbEntity
  8
TEXT
100
AcDbLine
 10
-0.0540886082404191
 20
0.1333855226026781
 30
0.0
 11
-0.1258875743843264
 21
0.1333855226026781
 31
0.0
  0
ARC
  5
333
330
18
100
AcDbEntity
  8
TEXT
100
AcDbCircle
 10
-0.0391020841176495
 20
-0.0935397881121372
 30
0.0
 40
0.0392772371940762
100
AcDbArc
 50
270.1604552698595
 51
330.0831797321295
  0
ARC
  5
334
330
18
100
AcDbEntity
  8
TEXT
100
AcDbCircle
 10
-0.1294029300098742
 20
-0.0732951190477831
 30
0.0
 40
0.0601160179737537
100
AcDbArc
 50
180.0000000000003
 51
264.0521544866073
  0
LINE
  5
335
330
18
100
AcDbEntity
  8
TEXT
100
AcDbLine
 10
-0.1356323405035207
 20
-0.1330875103858329
 30
0.0
 11
-0.0389920894285263
 21
-0.1328168712875506
 31
0.0
  0
LWPOLYLINE
  5
336
330
18
100
AcDbEntity
  8
TEXT
100
AcDbPolyline
 90
        6
 70
     1
 43
0.0
 10
-0.0931085369283711
 20
0.0691088279459127
 10
-0.1234251311485792
 20
0.0691088279459127
 10
-0.1234251311485792
 20
-0.0540021701089817
 42
0.407328721240804
 10
-0.1118814799871028
 20
-0.0658210847853678
 10
-0.0512597809423721
 20
-0.0658210847853678
 10
-0.0337944405350541
 20
-0.0330088557418886
  0
LINE
  5
337
330
18
100
AcDbEntity
  8
TEXT
100
AcDbLine
 10
-0.1895189479836263
 20
0.0691088279459127
 30
0.0
 11
-0.1895189479836263
 21
-0.0732951190477831
 31
0.0
  0
LINE
  5
338
330
18
100
AcDbEntity
  8
TEXT
100
AcDbLine
 10
-0.0050585242054355
 20
-0.11312900428082
 30
0.0
 11
0.0922411818880091
 21
0.0512212066544482
 31
0.0
  0
LINE
  5
339
330
18
100
AcDbEntity
  8
TEXT
100
AcDbLine
 10
0.0922411818880091
 20
0.0512212066544482
 30
0.0
 11
0.0922411818880091
 21
-0.0815361681709082
 31
0.0
  0
LWPOLYLINE
  5
33A
330
18
100
AcDbEntity
  8
TEXT
100
AcDbPolyline
 90
        2
 70
     0
 43
0.0
 10
0.0922411818880082
 20
-0.0815361681709046
 42
0.3318488747599744
 10
0.1613604744533212
 20
-0.1330875103858329
 42
-6.868794160588311
  0
LINE
  5
33B
330
18
100
AcDbEntity
  8
TEXT
100
AcDbLine
 10
0.1602209009571256
 20
0.2013970003414887
 30
0.0
 11
0.0934121883907606
 21
0.2013970003414887
 31
0.0
  0
LWPOLYLINE
  5
33C
330
18
100
AcDbEntity
  8
TEXT
100
AcDbPolyline
 90
        4
 70
     0
 43
0.0
 10
0.4454983100109189
 20
0.0615550387798027
 10
0.4454983100109189
 20
-0.1330875103858329
 10
0.5139765932987768
 20
-0.1330875103858329
 10
0.5139765932987768
 20
-0.0895965654353948
 42
-1.714843617202739
  0
LWPOLYLINE
  5
33D
330
18
100
AcDbEntity
  8
TEXT
100
AcDbPolyline
 90
        2
 70
     0
 43
0.0
 10
0.4806326605551288
 20
0.1333855226026817
 42
-0.3277054968067132
 10
0.5164143512682938
 20
0.1050629768330378
 42
6.667889725900311
  0
TEXT
  5
33E
330
18
100
AcDbEntity
  8
TEXT
100
AcDbText
 10
1.262978625081686
 20
-0.0402017017403367
 30
0.0
 40
0.0522247191011236
  1
Minneapolis, MN 55432-0008
 41
1.11444212721585
 72
     5
 11
2.59191120935135
 21
-0.0402017017403367
 31
0.0
100
AcDbText
  0
TEXT
  5
33F
330
18
100
AcDbEntity
  8
TEXT
100
AcDbText
 10
1.262978625081686
 20
0.0530567252259555
 30
0.0
 40
0.0522247191011236
  1
6536 Main St. N.E. * P.O. Box 32008
 41
0.8388932496075353
 72
     5
 11
2.59191120935135
 21
0.0530567252259555
 31
0.0
100
AcDbText
  0
TEXT
  5
340
330
18
100
AcDbEntity
  8
TEXT
100
AcDbText
 10
1.262978625081686
 20
0.1463151521922477
 30
0.0
 40
0.0522247191011236
  1
Stylmark  Incorporated
 41
1.221428571428571
 72
     5
 11
2.59191120935135
 21
0.1463151521922477
 31
0.0
100
AcDbText
  0
TEXT
  5
341
330
18
100
AcDbEntity
  8
TEXT
100
AcDbText
 10
1.262978625081686
 20
-0.1334601287066288
 30
0.0
 40
0.0522247191011236
  1
Phone  1-800-328-2495
 41
1.272321428571429
 72
     5
 11
2.59191120935135
 21
-0.1334601287066288
 31
0.0
100
AcDbText
  0
LINE
  5
342
330
18
100
AcDbEntity
  8
TEXT
100
AcDbLine
 10
-0.2908244657682957
 20
0.0333041063352848
 30
0.0
 11
-0.3564246020125967
 21
0.0333041063352848
 31
0.0
  0
ARC
  5
343
330
18
100
AcDbEntity
  8
TEXT
100
AcDbCircle
 10
-0.3564246020125967
 20
0.0512064671406005
 30
0.0
 40
0.017902360805315
100
AcDbArc
 50
90.0
 51
270.0
  0
LINE
  5
344
330
18
100
AcDbEntity
  8
TEXT
100
AcDbLine
 10
-0.3616619321268448
 20
-0.030789396290329
 30
0.0
 11
-0.285884091862016
 21
-0.030789396290329
 31
0.0
  0
LINE
  5
345
330
18
100
AcDbEntity
  8
TEXT
100
AcDbLine
 10
-0.285884091862016
 20
-0.0647305040523936
 30
0.0
 11
-0.4437493915733502
 21
-0.0647305040523936
 31
0.0
  0
LINE
  5
346
330
18
100
AcDbEntity
  8
TEXT
100
AcDbLine
 10
-0.4437493915733484
 20
-0.1330875103858329
 30
0.0
 11
-0.2908244657682957
 21
-0.1330875103858329
 31
0.0
  0
ARC
  5
347
330
18
100
AcDbEntity
  8
TEXT
100
AcDbCircle
 10
-0.3616619321268448
 20
0.0512980631561764
 30
0.0
 40
0.0820874594465043
100
AcDbArc
 50
90.0
 51
270.0
  0
LINE
  5
348
330
18
100
AcDbEntity
  8
TEXT
100
AcDbLine
 10
-0.1859301792283334
 20
0.1333855226026781
 30
0.0
 11
-0.3616619321268448
 21
0.1333855226026781
 31
0.0
  0
ARC
  5
349
330
18
100
AcDbEntity
  8
TEXT
100
AcDbCircle
 10
-0.285884091862016
 20
-0.0477599501713595
 30
0.0
 40
0.0169705538810321
100
AcDbArc
 50
270.0
 51
90.0
  0
ARC
  5
34A
330
18
100
AcDbEntity
  8
TEXT
100
AcDbCircle
 10
-0.2908244657682957
 20
-0.0498917020252758
 30
0.0
 40
0.0831958083605586
100
AcDbArc
 50
270.0
 51
90.0
  0
LINE
  5
34B
330
18
100
AcDbEntity
  8
TEXT
100
AcDbLine
 10
-0.3564246020125967
 20
0.0691088279459127
 30
0.0
 11
-0.1895189479836263
 21
0.0691088279459127
 31
0.0
  0
LWPOLYLINE
  5
34C
330
18
100
AcDbEntity
  8
TEXT
100
AcDbPolyline
 90
        2
 70
     0
 43
0.0006660908203125
 10
-0.6531823716731236
 20
0.020150083149554
 10
-0.6265387388606225
 20
0.020150083149554
  0
LINE
  5
34D
330
18
100
AcDbEntity
  8
TEXT
100
AcDbLine
 10
-0.4437493915733502
 20
-0.0647305040523936
 30
0.0
 11
-0.4437493915733484
 21
-0.1330875103858329
 31
0.0
  0
LWPOLYLINE
  5
34E
330
18
100
AcDbEntity
  8
TEXT
100
AcDbPolyline
 90
        2
 70
     0
 43
0.0006660908203125
 10
-0.6531823716731236
 20
-0.019815366069194
 10
-0.6265387388606225
 20
-0.019815366069194
  0
LWPOLYLINE
  5
34F
330
18
100
AcDbEntity
  8
TEXT
100
AcDbPolyline
 90
        2
 70
     0
 43
0.0001332181640625
 10
-0.7397741783137484
 20
0.1333855226026817
 10
-0.7497655406184372
 20
0.060115532368302
  0
LWPOLYLINE
  5
350
330
18
100
AcDbEntity
  8
TEXT
100
AcDbPolyline
 90
        2
 70
     0
 43
0.0001332181640625
 10
-0.7397741783137484
 20
0.1067418897901806
 10
-0.7497655406184372
 20
0.0467937159620551
  0
LWPOLYLINE
  5
351
330
18
100
AcDbEntity
  8
TEXT
100
AcDbPolyline
 90
        2
 70
     0
 43
0.0006660908203125
 10
-0.7397741783137484
 20
0.1067418897901806
 10
-0.7397741783137484
 20
0.1333855226026817
  0
LWPOLYLINE
  5
352
330
18
100
AcDbEntity
  8
TEXT
100
AcDbPolyline
 90
        5
 70
     0
 43
0.0001332181640625
 10
-0.7497655406184372
 20
0.060115532368302
 10
-0.7497655406184372
 20
0.0467937159620551
 10
-0.7131305455012474
 20
0.0467937159620551
 10
-0.7131305455012474
 20
0.0101587208448653
 10
-0.6998087290949986
 20
0.0101587208448653
  0
LWPOLYLINE
  5
353
330
18
100
AcDbEntity
  8
TEXT
100
AcDbPolyline
 90
        2
 70
     0
 43
0.0001332181640625
 10
-0.7797396275325
 20
0.1067418897901806
 10
-0.7697482652278094
 20
0.0467937159620551
  0
LWPOLYLINE
  5
354
330
18
100
AcDbEntity
  8
TEXT
100
AcDbPolyline
 90
        2
 70
     0
 43
0.0001332181640625
 10
-0.7697482652278094
 20
0.060115532368302
 10
-0.7797396275325
 20
0.1333855226026817
  0
LWPOLYLINE
  5
355
330
18
100
AcDbEntity
  8
TEXT
100
AcDbPolyline
 90
        2
 70
     0
 43
0.0006660908203125
 10
-0.7797396275325
 20
0.1067418897901806
 10
-0.7797396275325
 20
0.1333855226026817
  0
LWPOLYLINE
  5
356
330
18
100
AcDbEntity
  8
TEXT
100
AcDbPolyline
 90
        5
 70
     0
 43
0.0001332181640625
 10
-0.8197050767512479
 20
0.0101587208448653
 10
-0.8063832603449991
 20
0.0101587208448653
 10
-0.8063832603449991
 20
0.0467937159620551
 10
-0.7697482652278094
 20
0.0467937159620551
 10
-0.7697482652278094
 20
0.060115532368302
  0
LWPOLYLINE
  5
357
330
18
100
AcDbEntity
  8
TEXT
100
AcDbPolyline
 90
        2
 70
     0
 43
0.0006660908203125
 10
-0.8663314341731247
 20
0.020150083149554
 10
-0.8929750669856222
 20
0.020150083149554
  0
LWPOLYLINE
  5
358
330
18
100
AcDbEntity
  8
TEXT
100
AcDbPolyline
 90
        2
 70
     0
 43
0.0001332181640625
 10
-0.8929750669856222
 20
0.020150083149554
 10
-0.8197050767512479
 20
0.0101587208448653
  0
LWPOLYLINE
  5
359
330
18
100
AcDbEntity
  8
TEXT
100
AcDbPolyline
 90
        2
 70
     0
 43
0.0001332181640625
 10
-0.8663314341731247
 20
0.020150083149554
 10
-0.8063832603449991
 20
0.0101587208448653
  0
LWPOLYLINE
  5
35A
330
18
100
AcDbEntity
  8
TEXT
100
AcDbPolyline
 90
        2
 70
     0
 43
0.0001332181640625
 10
-0.8663314341731247
 20
0.1067418897901806
 10
-0.8063832603449991
 20
0.0467937159620551
  0
LWPOLYLINE
  5
35B
330
18
100
AcDbEntity
  8
TEXT
100
AcDbPolyline
 90
        3
 70
     0
 43
0.0006660908203125
 10
-0.7797396275325
 20
0.1067418897901806
 10
-0.8663314341731247
 20
0.1067418897901806
 10
-0.8663314341731247
 20
0.020150083149554
  0
LWPOLYLINE
  5
35C
330
18
100
AcDbEntity
  8
TEXT
100
AcDbPolyline
 90
        3
 70
     0
 43
0.0006660908203125
 10
-0.7797396275325
 20
0.1333855226026817
 10
-0.8929750669856222
 20
0.1333855226026817
 10
-0.8929750669856222
 20
0.020150083149554
  0
LWPOLYLINE
  5
35D
330
18
100
AcDbEntity
  8
TEXT
100
AcDbPolyline
 90
        5
 70
     0
 43
0.0001332181640625
 10
-0.6998087290949986
 20
-0.0098240037645088
 10
-0.7131305455012474
 20
-0.0098240037645088
 10
-0.7131305455012474
 20
-0.046458998881695
 10
-0.7497655406184372
 20
-0.046458998881695
 10
-0.7497655406184372
 20
-0.0597808152879456
  0
LWPOLYLINE
  5
35E
330
18
100
AcDbEntity
  8
TEXT
100
AcDbPolyline
 90
        2
 70
     0
 43
0.0006660908203125
 10
-0.7397741783137484
 20
-0.1064071727098206
 10
-0.7397741783137484
 20
-0.1330508055223216
  0
LWPOLYLINE
  5
35F
330
18
100
AcDbEntity
  8
TEXT
100
AcDbPolyline
 90
        2
 70
     0
 43
0.0001332181640625
 10
-0.7497655406184372
 20
-0.0597808152879456
 10
-0.7397741783137484
 20
-0.1330508055223216
  0
LWPOLYLINE
  5
360
330
18
100
AcDbEntity
  8
TEXT
100
AcDbPolyline
 90
        2
 70
     0
 43
0.0001332181640625
 10
-0.7397741783137484
 20
-0.1064071727098206
 10
-0.7497655406184372
 20
-0.046458998881695
  0
LWPOLYLINE
  5
361
330
18
100
AcDbEntity
  8
TEXT
100
AcDbPolyline
 90
        2
 70
     0
 43
0.0001332181640625
 10
-0.7797396275325
 20
-0.1330508055223216
 10
-0.7697482652278094
 20
-0.0597808152879456
  0
LWPOLYLINE
  5
362
330
18
100
AcDbEntity
  8
TEXT
100
AcDbPolyline
 90
        2
 70
     0
 43
0.0001332181640625
 10
-0.7797396275325
 20
-0.1064071727098206
 10
-0.7697482652278094
 20
-0.046458998881695
  0
LWPOLYLINE
  5
363
330
18
100
AcDbEntity
  8
TEXT
100
AcDbPolyline
 90
        2
 70
     0
 43
0.0006660908203125
 10
-0.7797396275325
 20
-0.1064071727098206
 10
-0.7797396275325
 20
-0.1330508055223216
  0
LWPOLYLINE
  5
364
330
18
100
AcDbEntity
  8
TEXT
100
AcDbPolyline
 90
        5
 70
     0
 43
0.0001332181640625
 10
-0.7697482652278094
 20
-0.0597808152879456
 10
-0.7697482652278094
 20
-0.046458998881695
 10
-0.8063832603449974
 20
-0.046458998881695
 10
-0.8063832603449974
 20
-0.0098240037645088
 10
-0.8197050767512479
 20
-0.0098240037645088
  0
LWPOLYLINE
  5
365
330
18
100
AcDbEntity
  8
TEXT
100
AcDbPolyline
 90
        2
 70
     0
 43
0.0006660908203125
 10
-0.8663314341731247
 20
-0.019815366069194
 10
-0.8929750669856222
 20
-0.019815366069194
  0
LWPOLYLINE
  5
366
330
18
100
AcDbEntity
  8
TEXT
100
AcDbPolyline
 90
        2
 70
     0
 43
0.0001332181640625
 10
-0.8663314341731247
 20
-0.1064071727098206
 10
-0.8063832603449974
 20
-0.046458998881695
  0
LWPOLYLINE
  5
367
330
18
100
AcDbEntity
  8
TEXT
100
AcDbPolyline
 90
        2
 70
     0
 43
0.0001332181640625
 10
-0.8663314341731247
 20
-0.019815366069194
 10
-0.8063832603449974
 20
-0.0098240037645088
  0
LWPOLYLINE
  5
368
330
18
100
AcDbEntity
  8
TEXT
100
AcDbPolyline
 90
        2
 70
     0
 43
0.0001332181640625
 10
-0.8197050767512479
 20
-0.0098240037645088
 10
-0.8929750669856222
 20
-0.019815366069194
  0
LWPOLYLINE
  5
369
330
18
100
AcDbEntity
  8
TEXT
100
AcDbPolyline
 90
        3
 70
     0
 43
0.0006660908203125
 10
-0.8663314341731247
 20
-0.019815366069194
 10
-0.8663314341731247
 20
-0.1064071727098206
 10
-0.7797396275325
 20
-0.1064071727098206
  0
LWPOLYLINE
  5
36A
330
18
100
AcDbEntity
  8
TEXT
100
AcDbPolyline
 90
        3
 70
     0
 43
0.0006660908203125
 10
-0.8929750669856222
 20
-0.019815366069194
 10
-0.8929750669856222
 20
-0.1330508055223216
 10
-0.7797396275325
 20
-0.1330508055223216
  0
LWPOLYLINE
  5
36B
330
18
100
AcDbEntity
  8
TEXT
100
AcDbPolyline
 90
        3
 70
     0
 43
0.0006660908203125
 10
-0.7397741783137484
 20
-0.1330508055223216
 10
-0.6265387388606225
 20
-0.1330508055223216
 10
-0.6265387388606225
 20
-0.019815366069194
  0
LWPOLYLINE
  5
36C
330
18
100
AcDbEntity
  8
TEXT
100
AcDbPolyline
 90
        3
 70
     0
 43
0.0006660908203125
 10
-0.7397741783137484
 20
-0.1064071727098206
 10
-0.6531823716731236
 20
-0.1064071727098206
 10
-0.6531823716731236
 20
-0.019815366069194
  0
LWPOLYLINE
  5
36D
330
18
100
AcDbEntity
  8
TEXT
100
AcDbPolyline
 90
        2
 70
     0
 43
0.0001332181640625
 10
-0.6531823716731236
 20
-0.1064071727098206
 10
-0.7131305455012474
 20
-0.046458998881695
  0
LWPOLYLINE
  5
36E
330
18
100
AcDbEntity
  8
TEXT
100
AcDbPolyline
 90
        2
 70
     0
 43
0.0001332181640625
 10
-0.6531823716731236
 20
-0.019815366069194
 10
-0.7131305455012474
 20
-0.0098240037645088
  0
LWPOLYLINE
  5
36F
330
18
100
AcDbEntity
  8
TEXT
100
AcDbPolyline
 90
        2
 70
     0
 43
0.0001332181640625
 10
-0.6265387388606225
 20
-0.019815366069194
 10
-0.6998087290949986
 20
-0.0098240037645088
  0
LWPOLYLINE
  5
370
330
18
100
AcDbEntity
  8
TEXT
100
AcDbPolyline
 90
        2
 70
     0
 43
0.0001332181640625
 10
-0.6531823716731236
 20
0.1067418897901806
 10
-0.7131305455012474
 20
0.0467937159620551
  0
LWPOLYLINE
  5
371
330
18
100
AcDbEntity
  8
TEXT
100
AcDbPolyline
 90
        2
 70
     0
 43
0.0001332181640625
 10
-0.6531823716731236
 20
0.020150083149554
 10
-0.7131305455012474
 20
0.0101587208448653
  0
LWPOLYLINE
  5
372
330
18
100
AcDbEntity
  8
TEXT
100
AcDbPolyline
 90
        2
 70
     0
 43
0.0001332181640625
 10
-0.6998087290949986
 20
0.0101587208448653
 10
-0.6265387388606225
 20
0.020150083149554
  0
LWPOLYLINE
  5
373
330
18
100
AcDbEntity
  8
TEXT
100
AcDbPolyline
 90
        3
 70
     0
 43
0.0006660908203125
 10
-0.6531823716731236
 20
0.020150083149554
 10
-0.6531823716731236
 20
0.1067418897901806
 10
-0.7397741783137484
 20
0.1067418897901806
  0
LWPOLYLINE
  5
374
330
18
100
AcDbEntity
  8
TEXT
100
AcDbPolyline
 90
        3
 70
     0
 43
0.0006660908203125
 10
-0.6265387388606225
 20
0.020150083149554
 10
-0.6265387388606225
 20
0.1333855226026817
 10
-0.7397741783137484
 20
0.1333855226026817
  0
ENDSEC
  0
SECTION
  2
OBJECTS
  0
DICTIONARY
  5
C
330
0
100
AcDbDictionary
  3
ACAD_GROUP
350
D
  3
ACAD_LAYOUT
350
379
  3
ACAD_MLINESTYLE
350
E
  3
ACAD_PLOTSETTINGS
350
37A
  3
ACAD_PLOTSTYLENAME
350
377
  3
ACDBHEADERROUNDTRIPXREC
350
385
  3
ACDBVARIABLEDICTIONARY
350
382
  0
DICTIONARY
  5
3A7
330
18
100
AcDbDictionary
280
     1
  3
ACAD_LAYOUTSELFREF
360
3A8
  0
DICTIONARY
  5
3A5
330
15
100
AcDbDictionary
280
     1
  3
ACAD_LAYOUTSELFREF
360
3A6
  0
DICTIONARY
  5
D
102
{ACAD_REACTORS
330
C
102
}
330
C
100
AcDbDictionary
  0
DICTIONARY
  5
379
102
{ACAD_REACTORS
330
C
102
}
330
C
100
AcDbDictionary
  0
DICTIONARY
  5
E
102
{ACAD_REACTORS
330
C
102
}
330
C
100
AcDbDictionary
  3
STANDARD
350
1B
  0
DICTIONARY
  5
37A
102
{ACAD_REACTORS
330
C
102
}
330
C
100
AcDbDictionary
  0
ACDBDICTIONARYWDFLT
  5
377
102
{ACAD_REACTORS
330
C
102
}
330
C
100
AcDbDictionary
281
     1
  3
Normal
350
378
100
AcDbDictionaryWithDefault
340
378
  0
DICTIONARY
  5
385
102
{ACAD_REACTORS
330
C
102
}
330
C
100
AcDbDictionary
  3
CEPSNTYPE
350
38F
  3
FINGERPRINTGUID
350
390
  3
HYPERLINKBASE
350
388
  3
INSUNITS
350
38E
  3
LAYOUTDICT
350
38A
  3
LWETCUNION
350
38D
  3
PLOTSETDICT
350
38B
  3
PLOTSTYLNAMDICT
350
38C
  3
PSVPSCALE
350
392
  3
PUCSBASE
350
395
  3
PUCSORGBACK
350
39B
  3
PUCSORGBOTTOM
350
397
  3
PUCSORGFRONT
350
39A
  3
PUCSORGLEFT
350
398
  3
PUCSORGRIGHT
350
399
  3
PUCSORGTOP
350
396
  3
PUCSORTHOREF
350
393
  3
PUCSORTHOVIEW
350
394
  3
STYLESHEET
350
389
  3
TSTACKALIGN
350
386
  3
TSTACKSIZE
350
387
  3
UCSBASE
350
39E
  3
UCSORGBACK
350
3A4
  3
UCSORGBOTTOM
350
3A0
  3
UCSORGFRONT
350
3A3
  3
UCSORGLEFT
350
3A1
  3
UCSORGRIGHT
350
3A2
  3
UCSORGTOP
350
39F
  3
UCSORTHOREF
350
39C
  3
UCSORTHOVIEW
350
39D
  3
VERSIONGUID
350
391
  0
DICTIONARY
  5
382
102
{ACAD_REACTORS
330
C
102
}
330
C
100
AcDbDictionary
  3
DIMASSOC
350
383
  0
XRECORD
  5
3A8
102
{ACAD_REACTORS
330
3A7
102
}
330
3A7
100
AcDbXrecord
340
18
  0
XRECORD
  5
3A6
102
{ACAD_REACTORS
330
3A5
102
}
330
3A5
100
AcDbXrecord
340
15
  0
MLINESTYLE
  5
1B
102
{ACAD_REACTORS
330
E
102
}
330
E
100
AcDbMlineStyle
  2
STANDARD
 70
     0
  3

 62
     0
 51
90.0
 52
90.0
 71
     2
 49
0.5
 62
   256
  6
BYLAYER
 49
-0.5
 62
   256
  6
BYLAYER
  0
ACDBPLACEHOLDER
  5
378
102
{ACAD_REACTORS
330
377
102
}
330
377
100
AcDbPlaceHolder
280
     0
  0
XRECORD
  5
38F
102
{ACAD_REACTORS
330
385
102
}
330
385
100
AcDbXrecord
 90
        0
  0
XRECORD
  5
390
102
{ACAD_REACTORS
330
385
102
}
330
385
100
AcDbXrecord
  1
{41929340-8DB4-11D6-88E6-0090279574E7}
  0
XRECORD
  5
388
102
{ACAD_REACTORS
330
385
102
}
330
385
100
AcDbXrecord
  1

  0
XRECORD
  5
38E
102
{ACAD_REACTORS
330
385
102
}
330
385
100
AcDbXrecord
 90
        0
  0
XRECORD
  5
38A
102
{ACAD_REACTORS
330
385
102
}
330
385
100
AcDbXrecord
340
379
  0
XRECORD
  5
38D
102
{ACAD_REACTORS
330
385
102
}
330
385
100
AcDbXrecord
 90
    14877
  0
XRECORD
  5
38B
102
{ACAD_REACTORS
330
385
102
}
330
385
100
AcDbXrecord
340
37A
  0
XRECORD
  5
38C
102
{ACAD_REACTORS
330
385
102
}
330
385
100
AcDbXrecord
340
377
  0
XRECORD
  5
392
102
{ACAD_REACTORS
330
385
102
}
330
385
100
AcDbXrecord
 40
0.0
  0
XRECORD
  5
395
102
{ACAD_REACTORS
330
385
102
}
330
385
100
AcDbXrecord
340
0
  0
XRECORD
  5
39B
102
{ACAD_REACTORS
330
385
102
}
330
385
100
AcDbXrecord
 10
0.0
 20
0.0
 30
0.0
  0
XRECORD
  5
397
102
{ACAD_REACTORS
330
385
102
}
330
385
100
AcDbXrecord
 10
0.0
 20
0.0
 30
0.0
  0
XRECORD
  5
39A
102
{ACAD_REACTORS
330
385
102
}
330
385
100
AcDbXrecord
 10
0.0
 20
0.0
 30
0.0
  0
XRECORD
  5
398
102
{ACAD_REACTORS
330
385
102
}
330
385
100
AcDbXrecord
 10
0.0
 20
0.0
 30
0.0
  0
XRECORD
  5
399
102
{ACAD_REACTORS
330
385
102
}
330
385
100
AcDbXrecord
 10
0.0
 20
0.0
 30
0.0
  0
XRECORD
  5
396
102
{ACAD_REACTORS
330
385
102
}
330
385
100
AcDbXrecord
 10
0.0
 20
0.0
 30
0.0
  0
XRECORD
  5
393
102
{ACAD_REACTORS
330
385
102
}
330
385
100
AcDbXrecord
340
0
  0
XRECORD
  5
394
102
{ACAD_REACTORS
330
385
102
}
330
385
100
AcDbXrecord
 70
     0
  0
XRECORD
  5
389
102
{ACAD_REACTORS
330
385
102
}
330
385
100
AcDbXrecord
  1

  0
XRECORD
  5
386
102
{ACAD_REACTORS
330
385
102
}
330
385
100
AcDbXrecord
 90
        1
  0
XRECORD
  5
387
102
{ACAD_REACTORS
330
385
102
}
330
385
100
AcDbXrecord
 90
       70
  0
XRECORD
  5
39E
102
{ACAD_REACTORS
330
385
102
}
330
385
100
AcDbXrecord
340
0
  0
XRECORD
  5
3A4
102
{ACAD_REACTORS
330
385
102
}
330
385
100
AcDbXrecord
 10
0.0
 20
0.0
 30
0.0
  0
XRECORD
  5
3A0
102
{ACAD_REACTORS
330
385
102
}
330
385
100
AcDbXrecord
 10
0.0
 20
0.0
 30
0.0
  0
XRECORD
  5
3A3
102
{ACAD_REACTORS
330
385
102
}
330
385
100
AcDbXrecord
 10
0.0
 20
0.0
 30
0.0
  0
XRECORD
  5
3A1
102
{ACAD_REACTORS
330
385
102
}
330
385
100
AcDbXrecord
 10
0.0
 20
0.0
 30
0.0
  0
XRECORD
  5
3A2
102
{ACAD_REACTORS
330
385
102
}
330
385
100
AcDbXrecord
 10
0.0
 20
0.0
 30
0.0
  0
XRECORD
  5
39F
102
{ACAD_REACTORS
330
385
102
}
330
385
100
AcDbXrecord
 10
0.0
 20
0.0
 30
0.0
  0
XRECORD
  5
39C
102
{ACAD_REACTORS
330
385
102
}
330
385
100
AcDbXrecord
340
0
  0
XRECORD
  5
39D
102
{ACAD_REACTORS
330
385
102
}
330
385
100
AcDbXrecord
 70
     0
  0
XRECORD
  5
391
102
{ACAD_REACTORS
330
385
102
}
330
385
100
AcDbXrecord
  1
{41929342-8DB4-11D6-88E6-0090279574E7}
  0
DICTIONARYVAR
  5
383
102
{ACAD_REACTORS
330
382
102
}
330
382
100
DictionaryVariables
280
     0
  1
1
  0
ENDSEC
  0
EOF
