  0
SECTION
  2
HEADER
  9
$ACADVER
  1
AC1014
  9
$ACADMAINTVER
 70
     9
  9
$DWGCODEPAGE
  3
ANSI_1252
  9
$INSBASE
 10
0.0
 20
0.0
 30
0.0
  9
$EXTMIN
 10
-0.4006115065293793
 20
-0.2090268579480063
 30
0.0
  9
$EXTMAX
 10
3.084607815217749
 20
1.577149631023027
 30
0.0
  9
$LIMMIN
 10
0.0
 20
0.0
  9
$LIMMAX
 10
11.0
 20
8.5
  9
$ORTHOMODE
 70
     1
  9
$REGENMODE
 70
     1
  9
$FILLMODE
 70
     1
  9
$QTEXTMODE
 70
     0
  9
$MIRRTEXT
 70
     0
  9
$DRAGMODE
 70
     2
  9
$LTSCALE
 40
0.5
  9
$OSMODE
 70
    39
  9
$ATTMODE
 70
     1
  9
$TEXTSIZE
 40
0.125
  9
$TRACEWID
 40
0.05
  9
$TEXTSTYLE
  7
ROMANS
  9
$CLAYER
  8
DIMENSIONS
  9
$CELTYPE
  6
BYLAYER
  9
$CECOLOR
 62
   256
  9
$CELTSCALE
 40
1.0
  9
$DELOBJ
 70
     1
  9
$DISPSILH
 70
     1
  9
$DIMSCALE
 40
1.0
  9
$DIMASZ
 40
0.125
  9
$DIMEXO
 40
0.125
  9
$DIMDLI
 40
0.375
  9
$DIMRND
 40
0.0
  9
$DIMDLE
 40
0.0
  9
$DIMEXE
 40
0.125
  9
$DIMTP
 40
0.0
  9
$DIMTM
 40
0.008
  9
$DIMTXT
 40
0.125
  9
$DIMCEN
 40
-0.125
  9
$DIMTSZ
 40
0.0
  9
$DIMTOL
 70
     0
  9
$DIMLIM
 70
     0
  9
$DIMTIH
 70
     1
  9
$DIMTOH
 70
     1
  9
$DIMSE1
 70
     0
  9
$DIMSE2
 70
     0
  9
$DIMTAD
 70
     0
  9
$DIMZIN
 70
     4
  9
$DIMBLK
  1

  9
$DIMASO
 70
     1
  9
$DIMSHO
 70
     1
  9
$DIMPOST
  1

  9
$DIMAPOST
  1

  9
$DIMALT
 70
     0
  9
$DIMALTD
 70
     2
  9
$DIMALTF
 40
25.4
  9
$DIMLFAC
 40
0.5
  9
$DIMTOFL
 70
     0
  9
$DIMTVP
 40
0.0
  9
$DIMTIX
 70
     1
  9
$DIMSOXD
 70
     0
  9
$DIMSAH
 70
     0
  9
$DIMBLK1
  1

  9
$DIMBLK2
  1

  9
$DIMSTYLE
  2
STANDARD
  9
$DIMCLRD
 70
     0
  9
$DIMCLRE
 70
     0
  9
$DIMCLRT
 70
     0
  9
$DIMTFAC
 40
1.0
  9
$DIMGAP
 40
0.09
  9
$DIMJUST
 70
     0
  9
$DIMSD1
 70
     0
  9
$DIMSD2
 70
     0
  9
$DIMTOLJ
 70
     1
  9
$DIMTZIN
 70
     0
  9
$DIMALTZ
 70
     0
  9
$DIMALTTZ
 70
     0
  9
$DIMFIT
 70
     3
  9
$DIMUPT
 70
     0
  9
$DIMUNIT
 70
     2
  9
$DIMDEC
 70
     3
  9
$DIMTDEC
 70
     4
  9
$DIMALTU
 70
     2
  9
$DIMALTTD
 70
     2
  9
$DIMTXSTY
  7
ROMANS
  9
$DIMAUNIT
 70
     0
  9
$LUNITS
 70
     2
  9
$LUPREC
 70
     3
  9
$SKETCHINC
 40
0.1
  9
$FILLETRAD
 40
0.0
  9
$AUNITS
 70
     0
  9
$AUPREC
 70
     0
  9
$MENU
  1
acad
  9
$ELEVATION
 40
0.0
  9
$PELEVATION
 40
0.0
  9
$THICKNESS
 40
0.0
  9
$LIMCHECK
 70
     0
  9
$BLIPMODE
 70
     0
  9
$CHAMFERA
 40
0.0
  9
$CHAMFERB
 40
0.0
  9
$CHAMFERC
 40
0.0
  9
$CHAMFERD
 40
0.0
  9
$SKPOLY
 70
     0
  9
$TDCREATE
 40
2448089.589040278
  9
$TDUPDATE
 40
2452458.296687118
  9
$TDINDWG
 40
0.0589335532
  9
$TDUSRTIMER
 40
0.0589335532
  9
$USRTIMER
 70
     1
  9
$ANGBASE
 50
0.0
  9
$ANGDIR
 70
     0
  9
$PDMODE
 70
     0
  9
$PDSIZE
 40
0.0
  9
$PLINEWID
 40
0.0
  9
$COORDS
 70
     2
  9
$SPLFRAME
 70
     0
  9
$SPLINETYPE
 70
     6
  9
$SPLINESEGS
 70
     8
  9
$ATTDIA
 70
     0
  9
$ATTREQ
 70
     1
  9
$HANDLING
 70
 22529
  9
$HANDSEED
  5
400
  9
$SURFTAB1
 70
     6
  9
$SURFTAB2
 70
     6
  9
$SURFTYPE
 70
     6
  9
$SURFU
 70
     6
  9
$SURFV
 70
     6
  9
$UCSNAME
  2

  9
$UCSORG
 10
0.0
 20
0.0
 30
0.0
  9
$UCSXDIR
 10
1.0
 20
0.0
 30
0.0
  9
$UCSYDIR
 10
0.0
 20
1.0
 30
0.0
  9
$PUCSNAME
  2

  9
$PUCSORG
 10
0.0
 20
0.0
 30
0.0
  9
$PUCSXDIR
 10
1.0
 20
0.0
 30
0.0
  9
$PUCSYDIR
 10
0.0
 20
1.0
 30
0.0
  9
$USERI1
 70
     0
  9
$USERI2
 70
     0
  9
$USERI3
 70
     0
  9
$USERI4
 70
     0
  9
$USERI5
 70
     0
  9
$USERR1
 40
0.0
  9
$USERR2
 40
0.0
  9
$USERR3
 40
0.0
  9
$USERR4
 40
0.0
  9
$USERR5
 40
0.0
  9
$WORLDVIEW
 70
     1
  9
$SHADEDGE
 70
     3
  9
$SHADEDIF
 70
    70
  9
$TILEMODE
 70
     1
  9
$MAXACTVP
 70
    16
  9
$PINSBASE
 10
0.0
 20
0.0
 30
0.0
  9
$PLIMCHECK
 70
     0
  9
$PEXTMIN
 10
1.000000000000000E+20
 20
1.000000000000000E+20
 30
1.000000000000000E+20
  9
$PEXTMAX
 10
-1.000000000000000E+20
 20
-1.000000000000000E+20
 30
-1.000000000000000E+20
  9
$PLIMMIN
 10
0.0
 20
0.0
  9
$PLIMMAX
 10
12.0
 20
9.0
  9
$UNITMODE
 70
     0
  9
$VISRETAIN
 70
     0
  9
$PLINEGEN
 70
     1
  9
$PSLTSCALE
 70
     0
  9
$TREEDEPTH
 70
  3020
  9
$PICKSTYLE
 70
     1
  9
$CMLSTYLE
  2
STANDARD
  9
$CMLJUST
 70
     0
  9
$CMLSCALE
 40
1.0
  9
$PROXYGRAPHICS
 70
     1
  9
$MEASUREMENT
 70
     0
  0
ENDSEC
  0
SECTION
  2
CLASSES
  0
CLASS
  1
LWPOLYLINE
  2
AcDbPolyline
  3
AutoCAD 2000
 90
        0
280
     0
281
     1
  0
CLASS
  1
ACDBDICTIONARYWDFLT
  2
AcDbDictionaryWithDefault
  3
AutoCAD 2000
 90
        0
280
     0
281
     0
  0
CLASS
  1
ACDBPLACEHOLDER
  2
AcDbPlaceHolder
  3
AutoCAD 2000
 90
        0
280
     0
281
     0
  0
CLASS
  1
LAYOUT
  2
AcDbLayout
  3
AutoCAD 2000
 90
        0
280
     0
281
     0
  0
CLASS
  1
DICTIONARYVAR
  2
AcDbDictionaryVar
  3
AutoCAD 2000
 90
        0
280
     0
281
     0
  0
CLASS
  1
LONG_TRANSACTION
  2
AcDbLongTransaction
  3
AutoCAD 2000
 90
        0
280
     0
281
     0
  0
CLASS
  1
LWPOLYLINE
  2
AcDbPolyline
  3
AutoCAD 2000
 90
        0
280
     0
281
     1
  0
CLASS
  1
HATCH
  2
AcDbHatch
  3
AutoCAD 2000
 90
        0
280
     0
281
     1
  0
CLASS
  1
XRECORD
  2
AcDbXrecord
  3
AutoCAD 2000
 90
        0
280
     0
281
     0
  0
ENDSEC
  0
SECTION
  2
TABLES
  0
TABLE
  2
VPORT
  5
8
330
0
100
AcDbSymbolTable
 70
     2
  0
VPORT
  5
3DB
330
8
100
AcDbSymbolTableRecord
100
AcDbViewportTableRecord
  2
*ACTIVE
 70
     0
 10
0.0
 20
0.0
 11
1.0
 21
1.0
 12
23.79633413456146
 22
3.718749991300867
 13
0.0
 23
0.0
 14
0.015625
 24
0.015625
 15
0.0
 25
0.0
 16
0.0
 26
0.0
 36
1.0
 17
0.0
 27
0.0
 37
0.0
 40
13.1516000105782
 41
4.320930232558139
 42
50.0
 43
0.0
 44
0.0
 50
0.0
 51
0.0
 71
     0
 72
  2000
 73
     1
 74
     1
 75
     0
 76
     0
 77
     0
 78
     0
  0
ENDTAB
  0
TABLE
  2
LTYPE
  5
5
330
0
100
AcDbSymbolTable
 70
     1
  0
LTYPE
  5
12
330
5
100
AcDbSymbolTableRecord
100
AcDbLinetypeTableRecord
  2
BYBLOCK
 70
     0
  3

 72
    65
 73
     0
 40
0.0
  0
LTYPE
  5
13
330
5
100
AcDbSymbolTableRecord
100
AcDbLinetypeTableRecord
  2
BYLAYER
 70
     0
  3

 72
    65
 73
     0
 40
0.0
  0
LTYPE
  5
14
330
5
100
AcDbSymbolTableRecord
100
AcDbLinetypeTableRecord
  2
CONTINUOUS
 70
     0
  3
Solid line
 72
    65
 73
     0
 40
0.0
  0
ENDTAB
  0
TABLE
  2
LAYER
  5
2
330
0
100
AcDbSymbolTable
 70
     3
  0
LAYER
  5
F
330
2
100
AcDbSymbolTableRecord
100
AcDbLayerTableRecord
  2
0
 70
     0
 62
     7
  6
CONTINUOUS
  0
LAYER
  5
2E
330
2
100
AcDbSymbolTableRecord
100
AcDbLayerTableRecord
  2
DIMENSIONS
 70
     0
 62
     4
  6
CONTINUOUS
  0
LAYER
  5
2F
330
2
100
AcDbSymbolTableRecord
100
AcDbLayerTableRecord
  2
TEXT
 70
     0
 62
     3
  6
CONTINUOUS
  0
ENDTAB
  0
TABLE
  2
STYLE
  5
3
330
0
100
AcDbSymbolTable
 70
     3
  0
STYLE
  5
10
330
3
100
AcDbSymbolTableRecord
100
AcDbTextStyleTableRecord
  2
STANDARD
 70
     0
 40
0.0
 41
1.0
 50
0.0
 71
     0
 42
0.125
  3
txt
  4

  0
STYLE
  5
2C7
330
3
100
AcDbSymbolTableRecord
100
AcDbTextStyleTableRecord
  2
ITALICC
 70
     0
 40
0.0
 41
1.0
 50
0.0
 71
     0
 42
0.125
  3
italicc
  4

  0
STYLE
  5
3D7
330
3
100
AcDbSymbolTableRecord
100
AcDbTextStyleTableRecord
  2
ROMANS
 70
     0
 40
0.0
 41
1.0
 50
0.0
 71
     0
 42
0.125
  3
romans.shx
  4

  0
ENDTAB
  0
TABLE
  2
VIEW
  5
6
330
0
100
AcDbSymbolTable
 70
     0
  0
ENDTAB
  0
TABLE
  2
UCS
  5
7
330
0
100
AcDbSymbolTable
 70
     0
  0
ENDTAB
  0
TABLE
  2
APPID
  5
9
330
0
100
AcDbSymbolTable
 70
     1
  0
APPID
  5
11
330
9
100
AcDbSymbolTableRecord
100
AcDbRegAppTableRecord
  2
ACAD
 70
     0
  0
ENDTAB
  0
TABLE
  2
DIMSTYLE
  5
A
330
0
100
AcDbSymbolTable
 70
     1
  0
DIMSTYLE
105
2BB
330
A
100
AcDbSymbolTableRecord
100
AcDbDimStyleTableRecord
  2
STANDARD
 70
     0
  3

  4

  5

  6

  7

 40
1.0
 41
0.18
 42
0.0625
 43
0.38
 44
0.18
 45
0.0
 46
0.0
 47
0.0
 48
0.0
140
0.18
141
0.09
142
0.0
143
25.4
144
1.0
145
0.0
146
1.0
147
0.09
 71
     0
 72
     0
 73
     1
 74
     1
 75
     0
 76
     0
 77
     0
 78
     0
170
     0
171
     2
172
     0
173
     0
174
     0
175
     0
176
     0
177
     0
178
     0
270
     2
271
     4
272
     4
273
     2
274
     2
340
10
275
     0
280
     0
281
     0
282
     0
283
     1
284
     0
285
     0
286
     0
287
     3
288
     0
  0
ENDTAB
  0
TABLE
  2
BLOCK_RECORD
  5
1
330
0
100
AcDbSymbolTable
 70
     0
  0
BLOCK_RECORD
  5
18
102
{ACAD_XDICTIONARY
360
3FE
102
}
330
1
100
AcDbSymbolTableRecord
100
AcDbBlockTableRecord
  2
*MODEL_SPACE
  0
BLOCK_RECORD
  5
15
102
{ACAD_XDICTIONARY
360
3FC
102
}
330
1
100
AcDbSymbolTableRecord
100
AcDbBlockTableRecord
  2
*PAPER_SPACE
  0
ENDTAB
  0
ENDSEC
  0
SECTION
  2
BLOCKS
  0
BLOCK
  5
37
330
18
100
AcDbEntity
  8
0
100
AcDbBlockBegin
  2
*MODEL_SPACE
 70
     0
 10
0.0
 20
0.0
 30
0.0
  3
*MODEL_SPACE
  1

  0
ENDBLK
  5
38
330
18
100
AcDbEntity
  8
0
100
AcDbBlockEnd
  0
BLOCK
  5
35
330
15
100
AcDbEntity
 67
     1
  8
0
100
AcDbBlockBegin
  2
*PAPER_SPACE
 70
     0
 10
0.0
 20
0.0
 30
0.0
  3
*PAPER_SPACE
  1

  0
ENDBLK
  5
36
330
15
100
AcDbEntity
 67
     1
  8
0
100
AcDbBlockEnd
  0
ENDSEC
  0
SECTION
  2
ENTITIES
  0
LWPOLYLINE
  5
275
330
18
100
AcDbEntity
  8
0
100
AcDbPolyline
 90
       27
 70
     1
 43
0.0
 10
2.297925418222823
 20
1.120233370286788
 42
0.6681786379192998
 10
2.244578331310743
 20
1.142330457198868
 10
2.172925418222823
 20
1.070677544110948
 10
1.651675418222823
 20
1.070677544110948
 10
1.641675418222823
 20
1.060677544110948
 10
1.631675418222823
 20
1.070677544110948
 10
0.637925418222824
 20
1.070677544110948
 10
0.637925418222824
 20
1.248177544110948
 10
0.6279254182228243
 20
1.258177544110948
 10
0.6379254182228245
 20
1.268177544110948
 10
0.637925418222824
 20
1.445677544110948
 10
0.9694254182228242
 20
1.445677544110948
 42
0.4142135623730951
 10
0.9854254182228242
 20
1.461677544110948
 10
0.9854254182228237
 20
1.554677544110948
 42
0.4142135623730951
 10
0.9694254182228236
 20
1.570677544110948
 10
0.5791754182228237
 20
1.570677544110948
 42
0.4142135623730951
 10
0.5479254182228237
 20
1.539427544110948
 10
0.5479254182228237
 20
0.9769275441109483
 42
0.4142135623730951
 10
0.5791754182228237
 20
0.9456775441109483
 10
1.047925418222823
 20
0.9456775441109485
 10
1.047925418222823
 20
0.6869275441109485
 42
1.0
 10
1.110425418222824
 20
0.6869275441109485
 10
1.110425418222823
 20
0.9456775441109485
 10
1.172925418222823
 20
0.9456775441109485
 10
1.110425418222823
 20
1.008177544110948
 10
2.266675418222823
 20
1.008177544110948
 42
0.4142135623730951
 10
2.297925418222823
 20
1.039427544110948
  0
TEXT
  5
34D
330
18
100
AcDbEntity
  8
TEXT
100
AcDbText
 10
0.5893938822215734
 20
0.2489917461345752
 30
0.0
 40
0.125
  1
PART #110133
  7
ITALICC
 72
     1
 11
1.342370072697764
 21
0.2489917461345752
 31
0.0
100
AcDbText
  0
LINE
  5
34E
330
18
100
AcDbEntity
  8
TEXT
100
AcDbLine
 10
1.497684702721147
 20
0.068914754771507
 30
0.0
 11
1.450586544165163
 21
-0.0069505716400311
 31
0.0
  0
LINE
  5
34F
330
18
100
AcDbEntity
  8
TEXT
100
AcDbLine
 10
1.450586544165163
 20
-0.0069505716400311
 30
0.0
 11
1.450586544165163
 21
0.1343789605391077
 31
0.0
  0
LINE
  5
350
330
18
100
AcDbEntity
  8
TEXT
100
AcDbLine
 10
1.450586544165163
 20
0.1343789605391077
 30
0.0
 11
1.382271665615889
 21
0.1343789605391077
 31
0.0
  0
LINE
  5
351
330
18
100
AcDbEntity
  8
TEXT
100
AcDbLine
 10
1.382271665615889
 20
0.1343789605391077
 30
0.0
 11
1.382271665615884
 21
0.068914754771507
 31
0.0
  0
LINE
  5
352
330
18
100
AcDbEntity
  8
TEXT
100
AcDbLine
 10
1.50811941948507
 20
-0.0409784881694666
 30
0.0
 11
1.572676535450775
 21
0.068914754771507
 31
0.0
  0
LINE
  5
353
330
18
100
AcDbEntity
  8
TEXT
100
AcDbLine
 10
1.572676535450775
 20
0.068914754771507
 30
0.0
 11
1.497684702721149
 21
0.068914754771507
 31
0.0
  0
LINE
  5
354
330
18
100
AcDbEntity
  8
TEXT
100
AcDbLine
 10
1.386751552942389
 20
-0.197558278217004
 30
0.0
 11
1.45112973726101
 21
-0.197558278217004
 31
0.0
  0
LINE
  5
355
330
18
100
AcDbEntity
  8
TEXT
100
AcDbLine
 10
1.45112973726101
 20
-0.197558278217004
 30
0.0
 11
1.45112973726101
 21
-0.0659787097408238
 31
0.0
  0
LINE
  5
356
330
18
100
AcDbEntity
  8
TEXT
100
AcDbLine
 10
1.45112973726101
 20
-0.0659787097408238
 30
0.0
 11
1.527033270472474
 21
-0.197558278217004
 31
0.0
  0
LINE
  5
357
330
18
100
AcDbEntity
  8
TEXT
100
AcDbLine
 10
1.527033270472474
 20
-0.197558278217004
 30
0.0
 11
1.60361164284868
 21
-0.197558278217004
 31
0.0
  0
LINE
  5
358
330
18
100
AcDbEntity
  8
TEXT
100
AcDbLine
 10
1.386751552942384
 20
0.0046380601147416
 30
0.0
 11
1.386751552942389
 21
-0.197558278217004
 31
0.0
  0
LINE
  5
359
330
18
100
AcDbEntity
  8
TEXT
100
AcDbLine
 10
1.60361164284868
 20
-0.197558278217004
 30
0.0
 11
1.50811941948507
 21
-0.0409784881694666
 31
0.0
  0
ARC
  5
35A
330
18
100
AcDbEntity
  8
TEXT
100
AcDbCircle
 10
1.310103571649825
 20
-0.0202678151679212
 30
0.0
 40
0.0249058752826653
100
AcDbArc
 50
89.99971217465335
 51
179.9999999999985
  0
ARC
  5
35B
330
18
100
AcDbEntity
  8
TEXT
100
AcDbCircle
 10
1.317992528589403
 20
0.0376690274892422
 30
0.0
 40
0.0314112657011332
100
AcDbArc
 50
95.88484768694724
 51
173.2388340632136
  0
LINE
  5
35C
330
18
100
AcDbEntity
  8
TEXT
100
AcDbLine
 10
1.286799711526295
 20
0.0413671049106323
 30
0.0
 11
1.286799711526295
 21
0.068914754771507
 31
0.0
  0
LINE
  5
35D
330
18
100
AcDbEntity
  8
TEXT
100
AcDbLine
 10
1.286799711526295
 20
0.068914754771507
 30
0.0
 11
1.222902805226794
 21
0.068914754771507
 31
0.0
  0
LINE
  5
35E
330
18
100
AcDbEntity
  8
TEXT
100
AcDbLine
 10
1.222902805226794
 20
0.068914754771507
 30
0.0
 11
1.222902805226794
 21
-0.0362972237819204
 31
0.0
  0
LINE
  5
35F
330
18
100
AcDbEntity
  8
TEXT
100
AcDbLine
 10
1.143942866351753
 20
0.068914754771507
 30
0.0
 11
1.009110957134693
 21
0.068914754771507
 31
0.0
  0
LINE
  5
360
330
18
100
AcDbEntity
  8
TEXT
100
AcDbLine
 10
1.009110957134693
 20
0.068914754771507
 30
0.0
 11
1.009110957134693
 21
0.0405922090018631
 31
0.0
  0
LINE
  5
361
330
18
100
AcDbEntity
  8
TEXT
100
AcDbLine
 10
1.068425053528012
 20
-0.0326369133473907
 30
0.0
 11
1.150713043311395
 21
-0.0326369133473907
 31
0.0
  0
LINE
  5
362
330
18
100
AcDbEntity
  8
TEXT
100
AcDbLine
 10
1.150713043311395
 20
-0.0326369133473907
 30
0.0
 11
1.140448282897831
 21
-0.0113863737746964
 31
0.0
  0
LINE
  5
363
330
18
100
AcDbEntity
  8
TEXT
100
AcDbLine
 10
1.114911968007274
 20
0.0046380601147416
 30
0.0
 11
1.007705694619985
 21
0.0046380601147416
 31
0.0
  0
ARC
  5
364
330
18
100
AcDbEntity
  8
TEXT
100
AcDbCircle
 10
1.114911968007273
 20
-0.0237213148852558
 30
0.0
 40
0.028359375
100
AcDbArc
 50
25.78218179591245
 51
90.0
  0
LINE
  5
365
330
18
100
AcDbEntity
  8
TEXT
100
AcDbLine
 10
1.222902805226794
 20
-0.0362972237819204
 30
0.0
 11
1.179152034044892
 21
0.0459530522142249
 31
0.0
  0
ARC
  5
366
330
18
100
AcDbEntity
  8
TEXT
100
AcDbCircle
 10
1.141915926574684
 20
0.0273311876506046
 30
0.0
 40
0.0416329381542859
100
AcDbArc
 50
26.56974201007528
 51
87.20939649401342
  0
LWPOLYLINE
  5
367
330
18
100
AcDbEntity
  8
TEXT
100
AcDbPolyline
 90
        2
 70
     0
 43
0.0
 10
1.226842482531832
 20
-0.1540673332665658
 42
-0.2901071551932486
 10
1.183766549664188
 20
-0.197558278217004
 42
-5.328517124445184
  0
LWPOLYLINE
  5
368
330
18
100
AcDbEntity
  8
TEXT
100
AcDbPolyline
 90
        2
 70
     0
 43
0.0
 10
1.226842482531832
 20
-0.1540673332665658
 10
1.226842482531832
 20
-0.197558278217004
  0
LWPOLYLINE
  5
369
330
18
100
AcDbEntity
  8
TEXT
100
AcDbPolyline
 90
        2
 70
     0
 43
0.0
 10
1.226842482531832
 20
-0.197558278217004
 10
1.285197696367166
 20
-0.197558278217004
  0
LWPOLYLINE
  5
36A
330
18
100
AcDbEntity
  8
TEXT
100
AcDbPolyline
 90
        2
 70
     0
 43
0.0
 10
1.006673199165176
 20
-0.1540673332665658
 42
0.2901071551932823
 10
1.049749132032811
 20
-0.197558278217004
 42
5.328517124445801
  0
LWPOLYLINE
  5
36B
330
18
100
AcDbEntity
  8
TEXT
100
AcDbPolyline
 90
        2
 70
     0
 43
0.0
 10
1.049749132032811
 20
-0.197558278217004
 10
1.183766549664188
 20
-0.197558278217004
 42
0.9999999999999998
  0
LWPOLYLINE
  5
36C
330
18
100
AcDbEntity
  8
TEXT
100
AcDbPolyline
 90
        4
 70
     1
 43
0.0
 10
1.163644084594295
 20
-0.0945943002329788
 10
1.074983765934437
 20
-0.0945943002329788
 42
0.9999999999999998
 10
1.074983765934437
 20
-0.1369928407368395
 10
1.163644084594295
 20
-0.1369928407368395
 42
1.0
  0
ARC
  5
36D
330
18
100
AcDbEntity
  8
TEXT
100
AcDbCircle
 10
1.068425053528011
 20
-0.1003224944915093
 30
0.0
 40
0.0676855811441166
100
AcDbArc
 50
90.0
 51
153.7768192527749
  0
LINE
  5
36E
330
18
100
AcDbEntity
  8
TEXT
100
AcDbLine
 10
1.285197696367167
 20
-0.197558278217004
 30
0.0
 11
1.285197696367162
 21
-0.0202677727855356
 31
0.0
  0
LINE
  5
36F
330
18
100
AcDbEntity
  8
TEXT
100
AcDbLine
 10
1.007705694619985
 20
0.0046380601147416
 30
0.0
 11
1.007705694619985
 21
-0.0704143459594651
 31
0.0
  0
LINE
  5
370
330
18
100
AcDbEntity
  8
TEXT
100
AcDbLine
 10
1.310103571649826
 20
0.0046380601147416
 30
0.0
 11
1.386751552942384
 21
0.0046380601147416
 31
0.0
  0
LINE
  5
371
330
18
100
AcDbEntity
  8
TEXT
100
AcDbLine
 10
1.382271665615884
 20
0.068914754771507
 30
0.0
 11
1.314771947966367
 21
0.068914754771507
 31
0.0
  0
LWPOLYLINE
  5
372
330
18
100
AcDbEntity
  8
TEXT
100
AcDbPolyline
 90
        2
 70
     0
 43
0.0
 10
0.8018956938423009
 20
0.0046380601147416
 42
-0.4142135623731017
 10
0.8094494830084144
 20
-0.0029157290513684
 42
-0.9999999999999998
  0
LWPOLYLINE
  5
373
330
18
100
AcDbEntity
  8
TEXT
100
AcDbPolyline
 90
        2
 70
     0
 43
0.0
 10
0.9306411267112046
 20
0.0046380601147416
 42
-0.4142135623731017
 10
0.9381949158773181
 20
-0.0029157290513684
 42
-0.9999999999999998
  0
LWPOLYLINE
  5
374
330
18
100
AcDbEntity
  8
TEXT
100
AcDbPolyline
 90
        2
 70
     0
 43
0.0
 10
0.8192474168923222
 20
0.0689147547715106
 42
-0.3328679258950098
 10
0.8550291076054836
 20
0.0417472580106146
 42
6.772930709997214
  0
LWPOLYLINE
  5
375
330
18
100
AcDbEntity
  8
TEXT
100
AcDbPolyline
 90
        3
 70
     0
 43
0.0
 10
0.973329266421528
 20
0.0689147547715106
 10
0.8550291076054836
 20
0.0689147547715106
 10
0.8550291076054836
 20
0.0417472580106146
 42
-1.960274751411753
  0
LINE
  5
376
330
18
100
AcDbEntity
  8
TEXT
100
AcDbLine
 10
0.8765075297902553
 20
0.0046380601147416
 30
0.0
 11
0.9306411267112055
 21
0.0046380601147416
 31
0.0
  0
LINE
  5
377
330
18
100
AcDbEntity
  8
TEXT
100
AcDbLine
 10
0.7520604140191543
 20
0.0046380601147416
 30
0.0
 11
0.8018956938423018
 21
0.0046380601147416
 31
0.0
  0
LINE
  5
378
330
18
100
AcDbEntity
  8
TEXT
100
AcDbLine
 10
0.8192474168923213
 20
0.068914754771507
 30
0.0
 11
0.6852293609611851
 21
0.068914754771507
 31
0.0
  0
LINE
  5
379
330
18
100
AcDbEntity
  8
TEXT
100
AcDbLine
 10
0.8094494830084153
 20
-0.197558278217004
 30
0.0
 11
0.8765075297902553
 21
-0.197558278217004
 31
0.0
  0
LINE
  5
37A
330
18
100
AcDbEntity
  8
TEXT
100
AcDbLine
 10
0.6540570803197197
 20
-0.197558278217004
 30
0.0
 11
0.7520604140191543
 21
-0.197558278217004
 31
0.0
  0
LINE
  5
37B
330
18
100
AcDbEntity
  8
TEXT
100
AcDbLine
 10
0.6852293609611851
 20
-0.1319494519609012
 30
0.0
 11
0.6682357240765838
 21
-0.1319494519609012
 31
0.0
  0
ARC
  5
37C
330
18
100
AcDbEntity
  8
TEXT
100
AcDbCircle
 10
0.6682357240765829
 20
-0.1165676457174758
 30
0.0
 40
0.0153818062434269
100
AcDbArc
 50
174.7883570302258
 51
270.0
  0
LINE
  5
37D
330
18
100
AcDbEntity
  8
TEXT
100
AcDbLine
 10
0.7520604140191543
 20
-0.197558278217004
 30
0.0
 11
0.7520604140191543
 21
0.0046380601147416
 31
0.0
  0
LINE
  5
37E
330
18
100
AcDbEntity
  8
TEXT
100
AcDbLine
 10
0.8094494830084153
 20
-0.0029157290513684
 30
0.0
 11
0.8094494830084153
 21
-0.197558278217004
 31
0.0
  0
LINE
  5
37F
330
18
100
AcDbEntity
  8
TEXT
100
AcDbLine
 10
0.8765075297902553
 20
-0.197558278217004
 30
0.0
 11
0.8765075297902553
 21
0.0046380601147416
 31
0.0
  0
LINE
  5
380
330
18
100
AcDbEntity
  8
TEXT
100
AcDbLine
 10
0.6852293609611851
 20
0.068914754771507
 30
0.0
 11
0.6852293609611851
 21
-0.1319494519609012
 31
0.0
  0
LINE
  5
381
330
18
100
AcDbEntity
  8
TEXT
100
AcDbLine
 10
0.6529175068235249
 20
-0.1151704401140048
 30
0.0
 11
0.6529175068235249
 21
0.1369262325103175
 31
0.0
  0
LINE
  5
382
330
18
100
AcDbEntity
  8
TEXT
100
AcDbLine
 10
0.5861087942571599
 20
0.1369262325103175
 30
0.0
 11
0.5861087942571599
 21
0.068914754771507
 31
0.0
  0
LINE
  5
383
330
18
100
AcDbEntity
  8
TEXT
100
AcDbLine
 10
0.5861087942571599
 20
0.068914754771507
 30
0.0
 11
0.5559868814637836
 21
0.068914754771507
 31
0.0
  0
LINE
  5
384
330
18
100
AcDbEntity
  8
TEXT
100
AcDbLine
 10
0.5559868814637836
 20
0.068914754771507
 30
0.0
 11
0.4972383186579182
 21
-0.0319572413416136
 31
0.0
  0
LINE
  5
385
330
18
100
AcDbEntity
  8
TEXT
100
AcDbLine
 10
0.4972383186579182
 20
-0.0319572413416136
 30
0.0
 11
0.4386079976259803
 21
0.068914754771507
 31
0.0
  0
LINE
  5
386
330
18
100
AcDbEntity
  8
TEXT
100
AcDbLine
 10
0.3668090314820729
 20
0.068914754771507
 30
0.0
 11
0.3668090314820729
 21
0.1033026723656452
 31
0.0
  0
LINE
  5
387
330
18
100
AcDbEntity
  8
TEXT
100
AcDbLine
 10
0.3668090314820729
 20
0.1033026723656452
 30
0.0
 11
0.3067664266380659
 21
0.1033026723656452
 31
0.0
  0
LINE
  5
388
330
18
100
AcDbEntity
  8
TEXT
100
AcDbLine
 10
0.3067664266380659
 20
0.1033026723656452
 30
0.0
 11
0.3067664266380659
 21
0.068914754771507
 31
0.0
  0
LINE
  5
389
330
18
100
AcDbEntity
  8
TEXT
100
AcDbLine
 10
0.4386079976259803
 20
0.068914754771507
 30
0.0
 11
0.3668090314820729
 21
0.068914754771507
 31
0.0
  0
ARC
  5
38A
330
18
100
AcDbEntity
  8
TEXT
100
AcDbCircle
 10
0.4535945217487499
 20
-0.1580105559433083
 30
0.0
 40
0.0392772371940762
100
AcDbArc
 50
270.1604552698595
 51
330.0831797321295
  0
ARC
  5
38B
330
18
100
AcDbEntity
  8
TEXT
100
AcDbCircle
 10
0.3632936758565251
 20
-0.1377658868789542
 30
0.0
 40
0.0601160179737537
100
AcDbArc
 50
180.0000000000003
 51
264.0521544866073
  0
LINE
  5
38C
330
18
100
AcDbEntity
  8
TEXT
100
AcDbLine
 10
0.3570642653628786
 20
-0.197558278217004
 30
0.0
 11
0.4537045164378731
 21
-0.1972876391187217
 31
0.0
  0
LWPOLYLINE
  5
38D
330
18
100
AcDbEntity
  8
TEXT
100
AcDbPolyline
 90
        6
 70
     1
 43
0.0
 10
0.3995880689380282
 20
0.0046380601147416
 10
0.3692714747178201
 20
0.0046380601147416
 10
0.3692714747178201
 20
-0.1184729379401528
 42
0.407328721240804
 10
0.3808151258792964
 20
-0.1302918526165389
 10
0.4414368249240273
 20
-0.1302918526165389
 10
0.4589021653313452
 20
-0.0974796235730597
  0
LINE
  5
38E
330
18
100
AcDbEntity
  8
TEXT
100
AcDbLine
 10
0.3031776578827729
 20
0.0046380601147416
 30
0.0
 11
0.3031776578827729
 21
-0.1377658868789542
 31
0.0
  0
LINE
  5
38F
330
18
100
AcDbEntity
  8
TEXT
100
AcDbLine
 10
0.4876380816609638
 20
-0.1775997721119911
 30
0.0
 11
0.5849377877544085
 21
-0.0132495611767229
 31
0.0
  0
LINE
  5
390
330
18
100
AcDbEntity
  8
TEXT
100
AcDbLine
 10
0.5849377877544085
 20
-0.0132495611767229
 30
0.0
 11
0.5849377877544085
 21
-0.1460069360020793
 31
0.0
  0
LWPOLYLINE
  5
391
330
18
100
AcDbEntity
  8
TEXT
100
AcDbPolyline
 90
        2
 70
     0
 43
0.0
 10
0.5849377877544076
 20
-0.1460069360020757
 42
0.3318488747599744
 10
0.6540570803197206
 20
-0.197558278217004
 42
-6.868794160588311
  0
LINE
  5
392
330
18
100
AcDbEntity
  8
TEXT
100
AcDbLine
 10
0.6529175068235249
 20
0.1369262325103175
 30
0.0
 11
0.5861087942571599
 21
0.1369262325103175
 31
0.0
  0
LWPOLYLINE
  5
393
330
18
100
AcDbEntity
  8
TEXT
100
AcDbPolyline
 90
        4
 70
     0
 43
0.0
 10
0.9381949158773181
 20
-0.0029157290513684
 10
0.9381949158773181
 20
-0.197558278217004
 10
1.006673199165176
 20
-0.197558278217004
 10
1.006673199165176
 20
-0.1540673332665658
 42
-1.714843617202739
  0
LWPOLYLINE
  5
394
330
18
100
AcDbEntity
  8
TEXT
100
AcDbPolyline
 90
        2
 70
     0
 43
0.0
 10
0.973329266421528
 20
0.0689147547715106
 42
-0.3277054968067132
 10
1.009110957134693
 20
0.0405922090018667
 42
6.667889725900311
  0
TEXT
  5
395
330
18
100
AcDbEntity
  8
TEXT
100
AcDbText
 10
1.755675230948085
 20
-0.1046724695715078
 30
0.0
 40
0.0522247191011236
  1
Minneapolis, MN 55432-0008
 41
1.11444212721585
 72
     5
 11
3.084607815217749
 21
-0.1046724695715078
 31
0.0
100
AcDbText
  0
TEXT
  5
396
330
18
100
AcDbEntity
  8
TEXT
100
AcDbText
 10
1.755675230948085
 20
-0.0114140426052156
 30
0.0
 40
0.0522247191011236
  1
6536 Main St. N.E. * P.O. Box 32008
 41
0.8388932496075353
 72
     5
 11
3.084607815217749
 21
-0.0114140426052156
 31
0.0
100
AcDbText
  0
TEXT
  5
397
330
18
100
AcDbEntity
  8
TEXT
100
AcDbText
 10
1.755675230948085
 20
0.0818443843610766
 30
0.0
 40
0.0522247191011236
  1
Stylmark  Incorporated
 41
1.221428571428571
 72
     5
 11
3.084607815217749
 21
0.0818443843610766
 31
0.0
100
AcDbText
  0
TEXT
  5
398
330
18
100
AcDbEntity
  8
TEXT
100
AcDbText
 10
1.755675230948085
 20
-0.1979308965377999
 30
0.0
 40
0.0522247191011236
  1
Phone  1-800-328-2495
 41
1.272321428571429
 72
     5
 11
3.084607815217749
 21
-0.1979308965377999
 31
0.0
100
AcDbText
  0
LINE
  5
399
330
18
100
AcDbEntity
  8
TEXT
100
AcDbLine
 10
0.2018721400981036
 20
-0.0311666614958863
 30
0.0
 11
0.1362720038538026
 21
-0.0311666614958863
 31
0.0
  0
ARC
  5
39A
330
18
100
AcDbEntity
  8
TEXT
100
AcDbCircle
 10
0.1362720038538026
 20
-0.0132643006905706
 30
0.0
 40
0.017902360805315
100
AcDbArc
 50
90.0
 51
270.0
  0
LINE
  5
39B
330
18
100
AcDbEntity
  8
TEXT
100
AcDbLine
 10
0.1310346737395545
 20
-0.0952601641215001
 30
0.0
 11
0.2068125140043833
 21
-0.0952601641215001
 31
0.0
  0
LINE
  5
39C
330
18
100
AcDbEntity
  8
TEXT
100
AcDbLine
 10
0.2068125140043833
 20
-0.1292012718835647
 30
0.0
 11
0.0489472142930492
 21
-0.1292012718835647
 31
0.0
  0
LINE
  5
39D
330
18
100
AcDbEntity
  8
TEXT
100
AcDbLine
 10
0.0489472142930509
 20
-0.197558278217004
 30
0.0
 11
0.2018721400981036
 21
-0.197558278217004
 31
0.0
  0
ARC
  5
39E
330
18
100
AcDbEntity
  8
TEXT
100
AcDbCircle
 10
0.1310346737395545
 20
-0.0131727046749948
 30
0.0
 40
0.0820874594465043
100
AcDbArc
 50
90.0
 51
270.0
  0
LINE
  5
39F
330
18
100
AcDbEntity
  8
TEXT
100
AcDbLine
 10
0.3067664266380659
 20
0.068914754771507
 30
0.0
 11
0.1310346737395545
 21
0.068914754771507
 31
0.0
  0
ARC
  5
3A0
330
18
100
AcDbEntity
  8
TEXT
100
AcDbCircle
 10
0.2068125140043833
 20
-0.1122307180025306
 30
0.0
 40
0.0169705538810321
100
AcDbArc
 50
270.0
 51
90.0
  0
ARC
  5
3A1
330
18
100
AcDbEntity
  8
TEXT
100
AcDbCircle
 10
0.2018721400981036
 20
-0.1143624698564469
 30
0.0
 40
0.0831958083605586
100
AcDbArc
 50
270.0
 51
90.0
  0
LINE
  5
3A2
330
18
100
AcDbEntity
  8
TEXT
100
AcDbLine
 10
0.1362720038538026
 20
0.0046380601147416
 30
0.0
 11
0.3031776578827729
 21
0.0046380601147416
 31
0.0
  0
LWPOLYLINE
  5
3A3
330
18
100
AcDbEntity
  8
TEXT
100
AcDbPolyline
 90
        2
 70
     0
 43
0.0006660908203125
 10
-0.1604857658067242
 20
-0.0443206846816171
 10
-0.1338421329942232
 20
-0.0443206846816171
  0
LINE
  5
3A4
330
18
100
AcDbEntity
  8
TEXT
100
AcDbLine
 10
0.0489472142930492
 20
-0.1292012718835647
 30
0.0
 11
0.0489472142930509
 21
-0.197558278217004
 31
0.0
  0
LWPOLYLINE
  5
3A5
330
18
100
AcDbEntity
  8
TEXT
100
AcDbPolyline
 90
        2
 70
     0
 43
0.0006660908203125
 10
-0.1604857658067242
 20
-0.0842861339003651
 10
-0.1338421329942232
 20
-0.0842861339003651
  0
LWPOLYLINE
  5
3A6
330
18
100
AcDbEntity
  8
TEXT
100
AcDbPolyline
 90
        2
 70
     0
 43
0.0001332181640625
 10
-0.2470775724473491
 20
0.0689147547715106
 10
-0.2570689347520378
 20
-0.0043552354628691
  0
LWPOLYLINE
  5
3A7
330
18
100
AcDbEntity
  8
TEXT
100
AcDbPolyline
 90
        2
 70
     0
 43
0.0001332181640625
 10
-0.2470775724473491
 20
0.0422711219590095
 10
-0.2570689347520378
 20
-0.0176770518691161
  0
LWPOLYLINE
  5
3A8
330
18
100
AcDbEntity
  8
TEXT
100
AcDbPolyline
 90
        2
 70
     0
 43
0.0006660908203125
 10
-0.2470775724473491
 20
0.0422711219590095
 10
-0.2470775724473491
 20
0.0689147547715106
  0
LWPOLYLINE
  5
3A9
330
18
100
AcDbEntity
  8
TEXT
100
AcDbPolyline
 90
        5
 70
     0
 43
0.0001332181640625
 10
-0.2570689347520378
 20
-0.0043552354628691
 10
-0.2570689347520378
 20
-0.0176770518691161
 10
-0.220433939634848
 20
-0.0176770518691161
 10
-0.220433939634848
 20
-0.0543120469863059
 10
-0.2071121232285993
 20
-0.0543120469863059
  0
LWPOLYLINE
  5
3AA
330
18
100
AcDbEntity
  8
TEXT
100
AcDbPolyline
 90
        2
 70
     0
 43
0.0001332181640625
 10
-0.2870430216661006
 20
0.0422711219590095
 10
-0.2770516593614101
 20
-0.0176770518691161
  0
LWPOLYLINE
  5
3AB
330
18
100
AcDbEntity
  8
TEXT
100
AcDbPolyline
 90
        2
 70
     0
 43
0.0001332181640625
 10
-0.2770516593614101
 20
-0.0043552354628691
 10
-0.2870430216661006
 20
0.0689147547715106
  0
LWPOLYLINE
  5
3AC
330
18
100
AcDbEntity
  8
TEXT
100
AcDbPolyline
 90
        2
 70
     0
 43
0.0006660908203125
 10
-0.2870430216661006
 20
0.0422711219590095
 10
-0.2870430216661006
 20
0.0689147547715106
  0
LWPOLYLINE
  5
3AD
330
18
100
AcDbEntity
  8
TEXT
100
AcDbPolyline
 90
        5
 70
     0
 43
0.0001332181640625
 10
-0.3270084708848486
 20
-0.0543120469863059
 10
-0.3136866544785999
 20
-0.0543120469863059
 10
-0.3136866544785999
 20
-0.0176770518691161
 10
-0.2770516593614101
 20
-0.0176770518691161
 10
-0.2770516593614101
 20
-0.0043552354628691
  0
LWPOLYLINE
  5
3AE
330
18
100
AcDbEntity
  8
TEXT
100
AcDbPolyline
 90
        2
 70
     0
 43
0.0006660908203125
 10
-0.3736348283067254
 20
-0.0443206846816171
 10
-0.400278461119223
 20
-0.0443206846816171
  0
LWPOLYLINE
  5
3AF
330
18
100
AcDbEntity
  8
TEXT
100
AcDbPolyline
 90
        2
 70
     0
 43
0.0001332181640625
 10
-0.400278461119223
 20
-0.0443206846816171
 10
-0.3270084708848486
 20
-0.0543120469863059
  0
LWPOLYLINE
  5
3B0
330
18
100
AcDbEntity
  8
TEXT
100
AcDbPolyline
 90
        2
 70
     0
 43
0.0001332181640625
 10
-0.3736348283067254
 20
-0.0443206846816171
 10
-0.3136866544785999
 20
-0.0543120469863059
  0
LWPOLYLINE
  5
3B1
330
18
100
AcDbEntity
  8
TEXT
100
AcDbPolyline
 90
        2
 70
     0
 43
0.0001332181640625
 10
-0.3736348283067254
 20
0.0422711219590095
 10
-0.3136866544785999
 20
-0.0176770518691161
  0
LWPOLYLINE
  5
3B2
330
18
100
AcDbEntity
  8
TEXT
100
AcDbPolyline
 90
        3
 70
     0
 43
0.0006660908203125
 10
-0.2870430216661006
 20
0.0422711219590095
 10
-0.3736348283067254
 20
0.0422711219590095
 10
-0.3736348283067254
 20
-0.0443206846816171
  0
LWPOLYLINE
  5
3B3
330
18
100
AcDbEntity
  8
TEXT
100
AcDbPolyline
 90
        3
 70
     0
 43
0.0006660908203125
 10
-0.2870430216661006
 20
0.0689147547715106
 10
-0.400278461119223
 20
0.0689147547715106
 10
-0.400278461119223
 20
-0.0443206846816171
  0
LWPOLYLINE
  5
3B4
330
18
100
AcDbEntity
  8
TEXT
100
AcDbPolyline
 90
        5
 70
     0
 43
0.0001332181640625
 10
-0.2071121232285993
 20
-0.0742947715956799
 10
-0.220433939634848
 20
-0.0742947715956799
 10
-0.220433939634848
 20
-0.1109297667128661
 10
-0.2570689347520378
 20
-0.1109297667128661
 10
-0.2570689347520378
 20
-0.1242515831191167
  0
LWPOLYLINE
  5
3B5
330
18
100
AcDbEntity
  8
TEXT
100
AcDbPolyline
 90
        2
 70
     0
 43
0.0006660908203125
 10
-0.2470775724473491
 20
-0.1708779405409917
 10
-0.2470775724473491
 20
-0.1975215733534927
  0
LWPOLYLINE
  5
3B6
330
18
100
AcDbEntity
  8
TEXT
100
AcDbPolyline
 90
        2
 70
     0
 43
0.0001332181640625
 10
-0.2570689347520378
 20
-0.1242515831191167
 10
-0.2470775724473491
 20
-0.1975215733534927
  0
LWPOLYLINE
  5
3B7
330
18
100
AcDbEntity
  8
TEXT
100
AcDbPolyline
 90
        2
 70
     0
 43
0.0001332181640625
 10
-0.2470775724473491
 20
-0.1708779405409917
 10
-0.2570689347520378
 20
-0.1109297667128661
  0
LWPOLYLINE
  5
3B8
330
18
100
AcDbEntity
  8
TEXT
100
AcDbPolyline
 90
        2
 70
     0
 43
0.0001332181640625
 10
-0.2870430216661006
 20
-0.1975215733534927
 10
-0.2770516593614101
 20
-0.1242515831191167
  0
LWPOLYLINE
  5
3B9
330
18
100
AcDbEntity
  8
TEXT
100
AcDbPolyline
 90
        2
 70
     0
 43
0.0001332181640625
 10
-0.2870430216661006
 20
-0.1708779405409917
 10
-0.2770516593614101
 20
-0.1109297667128661
  0
LWPOLYLINE
  5
3BA
330
18
100
AcDbEntity
  8
TEXT
100
AcDbPolyline
 90
        2
 70
     0
 43
0.0006660908203125
 10
-0.2870430216661006
 20
-0.1708779405409917
 10
-0.2870430216661006
 20
-0.1975215733534927
  0
LWPOLYLINE
  5
3BB
330
18
100
AcDbEntity
  8
TEXT
100
AcDbPolyline
 90
        5
 70
     0
 43
0.0001332181640625
 10
-0.2770516593614101
 20
-0.1242515831191167
 10
-0.2770516593614101
 20
-0.1109297667128661
 10
-0.3136866544785981
 20
-0.1109297667128661
 10
-0.3136866544785981
 20
-0.0742947715956799
 10
-0.3270084708848486
 20
-0.0742947715956799
  0
LWPOLYLINE
  5
3BC
330
18
100
AcDbEntity
  8
TEXT
100
AcDbPolyline
 90
        2
 70
     0
 43
0.0006660908203125
 10
-0.3736348283067254
 20
-0.0842861339003651
 10
-0.400278461119223
 20
-0.0842861339003651
  0
LWPOLYLINE
  5
3BD
330
18
100
AcDbEntity
  8
TEXT
100
AcDbPolyline
 90
        2
 70
     0
 43
0.0001332181640625
 10
-0.3736348283067254
 20
-0.1708779405409917
 10
-0.3136866544785981
 20
-0.1109297667128661
  0
LWPOLYLINE
  5
3BE
330
18
100
AcDbEntity
  8
TEXT
100
AcDbPolyline
 90
        2
 70
     0
 43
0.0001332181640625
 10
-0.3736348283067254
 20
-0.0842861339003651
 10
-0.3136866544785981
 20
-0.0742947715956799
  0
LWPOLYLINE
  5
3BF
330
18
100
AcDbEntity
  8
TEXT
100
AcDbPolyline
 90
        2
 70
     0
 43
0.0001332181640625
 10
-0.3270084708848486
 20
-0.0742947715956799
 10
-0.400278461119223
 20
-0.0842861339003651
  0
LWPOLYLINE
  5
3C0
330
18
100
AcDbEntity
  8
TEXT
100
AcDbPolyline
 90
        3
 70
     0
 43
0.0006660908203125
 10
-0.3736348283067254
 20
-0.0842861339003651
 10
-0.3736348283067254
 20
-0.1708779405409917
 10
-0.2870430216661006
 20
-0.1708779405409917
  0
LWPOLYLINE
  5
3C1
330
18
100
AcDbEntity
  8
TEXT
100
AcDbPolyline
 90
        3
 70
     0
 43
0.0006660908203125
 10
-0.400278461119223
 20
-0.0842861339003651
 10
-0.400278461119223
 20
-0.1975215733534927
 10
-0.2870430216661006
 20
-0.1975215733534927
  0
LWPOLYLINE
  5
3C2
330
18
100
AcDbEntity
  8
TEXT
100
AcDbPolyline
 90
        3
 70
     0
 43
0.0006660908203125
 10
-0.2470775724473491
 20
-0.1975215733534927
 10
-0.1338421329942232
 20
-0.1975215733534927
 10
-0.1338421329942232
 20
-0.0842861339003651
  0
LWPOLYLINE
  5
3C3
330
18
100
AcDbEntity
  8
TEXT
100
AcDbPolyline
 90
        3
 70
     0
 43
0.0006660908203125
 10
-0.2470775724473491
 20
-0.1708779405409917
 10
-0.1604857658067242
 20
-0.1708779405409917
 10
-0.1604857658067242
 20
-0.0842861339003651
  0
LWPOLYLINE
  5
3C4
330
18
100
AcDbEntity
  8
TEXT
100
AcDbPolyline
 90
        2
 70
     0
 43
0.0001332181640625
 10
-0.1604857658067242
 20
-0.1708779405409917
 10
-0.220433939634848
 20
-0.1109297667128661
  0
LWPOLYLINE
  5
3C5
330
18
100
AcDbEntity
  8
TEXT
100
AcDbPolyline
 90
        2
 70
     0
 43
0.0001332181640625
 10
-0.1604857658067242
 20
-0.0842861339003651
 10
-0.220433939634848
 20
-0.0742947715956799
  0
LWPOLYLINE
  5
3C6
330
18
100
AcDbEntity
  8
TEXT
100
AcDbPolyline
 90
        2
 70
     0
 43
0.0001332181640625
 10
-0.1338421329942232
 20
-0.0842861339003651
 10
-0.2071121232285993
 20
-0.0742947715956799
  0
LWPOLYLINE
  5
3C7
330
18
100
AcDbEntity
  8
TEXT
100
AcDbPolyline
 90
        2
 70
     0
 43
0.0001332181640625
 10
-0.1604857658067242
 20
0.0422711219590095
 10
-0.220433939634848
 20
-0.0176770518691161
  0
LWPOLYLINE
  5
3C8
330
18
100
AcDbEntity
  8
TEXT
100
AcDbPolyline
 90
        2
 70
     0
 43
0.0001332181640625
 10
-0.1604857658067242
 20
-0.0443206846816171
 10
-0.220433939634848
 20
-0.0543120469863059
  0
LWPOLYLINE
  5
3C9
330
18
100
AcDbEntity
  8
TEXT
100
AcDbPolyline
 90
        2
 70
     0
 43
0.0001332181640625
 10
-0.2071121232285993
 20
-0.0543120469863059
 10
-0.1338421329942232
 20
-0.0443206846816171
  0
LWPOLYLINE
  5
3CA
330
18
100
AcDbEntity
  8
TEXT
100
AcDbPolyline
 90
        3
 70
     0
 43
0.0006660908203125
 10
-0.1604857658067242
 20
-0.0443206846816171
 10
-0.1604857658067242
 20
0.0422711219590095
 10
-0.2470775724473491
 20
0.0422711219590095
  0
LWPOLYLINE
  5
3CB
330
18
100
AcDbEntity
  8
TEXT
100
AcDbPolyline
 90
        3
 70
     0
 43
0.0006660908203125
 10
-0.1338421329942232
 20
-0.0443206846816171
 10
-0.1338421329942232
 20
0.0689147547715106
 10
-0.2470775724473491
 20
0.0689147547715106
  0
ENDSEC
  0
SECTION
  2
OBJECTS
  0
DICTIONARY
  5
C
330
0
100
AcDbDictionary
  3
ACAD_GROUP
350
D
  3
ACAD_LAYOUT
350
3D0
  3
ACAD_MLINESTYLE
350
E
  3
ACAD_PLOTSETTINGS
350
3D1
  3
ACAD_PLOTSTYLENAME
350
3CE
  3
ACDBHEADERROUNDTRIPXREC
350
3DC
  3
ACDBVARIABLEDICTIONARY
350
3D9
  0
DICTIONARY
  5
3FE
330
18
100
AcDbDictionary
280
     1
  3
ACAD_LAYOUTSELFREF
360
3FF
  0
DICTIONARY
  5
3FC
330
15
100
AcDbDictionary
280
     1
  3
ACAD_LAYOUTSELFREF
360
3FD
  0
DICTIONARY
  5
D
102
{ACAD_REACTORS
330
C
102
}
330
C
100
AcDbDictionary
  0
DICTIONARY
  5
3D0
102
{ACAD_REACTORS
330
C
102
}
330
C
100
AcDbDictionary
  0
DICTIONARY
  5
E
102
{ACAD_REACTORS
330
C
102
}
330
C
100
AcDbDictionary
  3
STANDARD
350
1B
  0
DICTIONARY
  5
3D1
102
{ACAD_REACTORS
330
C
102
}
330
C
100
AcDbDictionary
  0
ACDBDICTIONARYWDFLT
  5
3CE
102
{ACAD_REACTORS
330
C
102
}
330
C
100
AcDbDictionary
281
     1
  3
Normal
350
3CF
100
AcDbDictionaryWithDefault
340
3CF
  0
DICTIONARY
  5
3DC
102
{ACAD_REACTORS
330
C
102
}
330
C
100
AcDbDictionary
  3
CEPSNTYPE
350
3E6
  3
FINGERPRINTGUID
350
3E7
  3
HYPERLINKBASE
350
3DF
  3
INSUNITS
350
3E5
  3
LAYOUTDICT
350
3E1
  3
LWETCUNION
350
3E4
  3
PLOTSETDICT
350
3E2
  3
PLOTSTYLNAMDICT
350
3E3
  3
PSVPSCALE
350
3E9
  3
PUCSBASE
350
3EC
  3
PUCSORGBACK
350
3F2
  3
PUCSORGBOTTOM
350
3EE
  3
PUCSORGFRONT
350
3F1
  3
PUCSORGLEFT
350
3EF
  3
PUCSORGRIGHT
350
3F0
  3
PUCSORGTOP
350
3ED
  3
PUCSORTHOREF
350
3EA
  3
PUCSORTHOVIEW
350
3EB
  3
STYLESHEET
350
3E0
  3
TSTACKALIGN
350
3DD
  3
TSTACKSIZE
350
3DE
  3
UCSBASE
350
3F5
  3
UCSORGBACK
350
3FB
  3
UCSORGBOTTOM
350
3F7
  3
UCSORGFRONT
350
3FA
  3
UCSORGLEFT
350
3F8
  3
UCSORGRIGHT
350
3F9
  3
UCSORGTOP
350
3F6
  3
UCSORTHOREF
350
3F3
  3
UCSORTHOVIEW
350
3F4
  3
VERSIONGUID
350
3E8
  0
DICTIONARY
  5
3D9
102
{ACAD_REACTORS
330
C
102
}
330
C
100
AcDbDictionary
  3
DIMASSOC
350
3DA
  0
XRECORD
  5
3FF
102
{ACAD_REACTORS
330
3FE
102
}
330
3FE
100
AcDbXrecord
340
18
  0
XRECORD
  5
3FD
102
{ACAD_REACTORS
330
3FC
102
}
330
3FC
100
AcDbXrecord
340
15
  0
MLINESTYLE
  5
1B
102
{ACAD_REACTORS
330
E
102
}
330
E
100
AcDbMlineStyle
  2
STANDARD
 70
     0
  3

 62
     0
 51
90.0
 52
90.0
 71
     2
 49
0.5
 62
   256
  6
BYLAYER
 49
-0.5
 62
   256
  6
BYLAYER
  0
ACDBPLACEHOLDER
  5
3CF
102
{ACAD_REACTORS
330
3CE
102
}
330
3CE
100
AcDbPlaceHolder
280
     0
  0
XRECORD
  5
3E6
102
{ACAD_REACTORS
330
3DC
102
}
330
3DC
100
AcDbXrecord
 90
        0
  0
XRECORD
  5
3E7
102
{ACAD_REACTORS
330
3DC
102
}
330
3DC
100
AcDbXrecord
  1
{3D07B590-8DB4-11D6-88E6-0090279574E7}
  0
XRECORD
  5
3DF
102
{ACAD_REACTORS
330
3DC
102
}
330
3DC
100
AcDbXrecord
  1

  0
XRECORD
  5
3E5
102
{ACAD_REACTORS
330
3DC
102
}
330
3DC
100
AcDbXrecord
 90
        0
  0
XRECORD
  5
3E1
102
{ACAD_REACTORS
330
3DC
102
}
330
3DC
100
AcDbXrecord
340
3D0
  0
XRECORD
  5
3E4
102
{ACAD_REACTORS
330
3DC
102
}
330
3DC
100
AcDbXrecord
 90
    14877
  0
XRECORD
  5
3E2
102
{ACAD_REACTORS
330
3DC
102
}
330
3DC
100
AcDbXrecord
340
3D1
  0
XRECORD
  5
3E3
102
{ACAD_REACTORS
330
3DC
102
}
330
3DC
100
AcDbXrecord
340
3CE
  0
XRECORD
  5
3E9
102
{ACAD_REACTORS
330
3DC
102
}
330
3DC
100
AcDbXrecord
 40
0.0
  0
XRECORD
  5
3EC
102
{ACAD_REACTORS
330
3DC
102
}
330
3DC
100
AcDbXrecord
340
0
  0
XRECORD
  5
3F2
102
{ACAD_REACTORS
330
3DC
102
}
330
3DC
100
AcDbXrecord
 10
0.0
 20
0.0
 30
0.0
  0
XRECORD
  5
3EE
102
{ACAD_REACTORS
330
3DC
102
}
330
3DC
100
AcDbXrecord
 10
0.0
 20
0.0
 30
0.0
  0
XRECORD
  5
3F1
102
{ACAD_REACTORS
330
3DC
102
}
330
3DC
100
AcDbXrecord
 10
0.0
 20
0.0
 30
0.0
  0
XRECORD
  5
3EF
102
{ACAD_REACTORS
330
3DC
102
}
330
3DC
100
AcDbXrecord
 10
0.0
 20
0.0
 30
0.0
  0
XRECORD
  5
3F0
102
{ACAD_REACTORS
330
3DC
102
}
330
3DC
100
AcDbXrecord
 10
0.0
 20
0.0
 30
0.0
  0
XRECORD
  5
3ED
102
{ACAD_REACTORS
330
3DC
102
}
330
3DC
100
AcDbXrecord
 10
0.0
 20
0.0
 30
0.0
  0
XRECORD
  5
3EA
102
{ACAD_REACTORS
330
3DC
102
}
330
3DC
100
AcDbXrecord
340
0
  0
XRECORD
  5
3EB
102
{ACAD_REACTORS
330
3DC
102
}
330
3DC
100
AcDbXrecord
 70
     0
  0
XRECORD
  5
3E0
102
{ACAD_REACTORS
330
3DC
102
}
330
3DC
100
AcDbXrecord
  1

  0
XRECORD
  5
3DD
102
{ACAD_REACTORS
330
3DC
102
}
330
3DC
100
AcDbXrecord
 90
        1
  0
XRECORD
  5
3DE
102
{ACAD_REACTORS
330
3DC
102
}
330
3DC
100
AcDbXrecord
 90
       70
  0
XRECORD
  5
3F5
102
{ACAD_REACTORS
330
3DC
102
}
330
3DC
100
AcDbXrecord
340
0
  0
XRECORD
  5
3FB
102
{ACAD_REACTORS
330
3DC
102
}
330
3DC
100
AcDbXrecord
 10
0.0
 20
0.0
 30
0.0
  0
XRECORD
  5
3F7
102
{ACAD_REACTORS
330
3DC
102
}
330
3DC
100
AcDbXrecord
 10
0.0
 20
0.0
 30
0.0
  0
XRECORD
  5
3FA
102
{ACAD_REACTORS
330
3DC
102
}
330
3DC
100
AcDbXrecord
 10
0.0
 20
0.0
 30
0.0
  0
XRECORD
  5
3F8
102
{ACAD_REACTORS
330
3DC
102
}
330
3DC
100
AcDbXrecord
 10
0.0
 20
0.0
 30
0.0
  0
XRECORD
  5
3F9
102
{ACAD_REACTORS
330
3DC
102
}
330
3DC
100
AcDbXrecord
 10
0.0
 20
0.0
 30
0.0
  0
XRECORD
  5
3F6
102
{ACAD_REACTORS
330
3DC
102
}
330
3DC
100
AcDbXrecord
 10
0.0
 20
0.0
 30
0.0
  0
XRECORD
  5
3F3
102
{ACAD_REACTORS
330
3DC
102
}
330
3DC
100
AcDbXrecord
340
0
  0
XRECORD
  5
3F4
102
{ACAD_REACTORS
330
3DC
102
}
330
3DC
100
AcDbXrecord
 70
     0
  0
XRECORD
  5
3E8
102
{ACAD_REACTORS
330
3DC
102
}
330
3DC
100
AcDbXrecord
  1
{3D07B592-8DB4-11D6-88E6-0090279574E7}
  0
DICTIONARYVAR
  5
3DA
102
{ACAD_REACTORS
330
3D9
102
}
330
3D9
100
DictionaryVariables
280
     0
  1
1
  0
ENDSEC
  0
EOF
